  0
SECTION
  2
HEADER
  9
$ACADVER
  1
AC1015
  9
$ACADMAINTVER
 70
     6
  9
$DWGCODEPAGE
  3
ANSI_932
  9
$INSBASE
 10
0.0
 20
0.0
 30
0.0
  9
$EXTMIN
 10
-4.70103
 20
-21.07099999999999
 30
0.0
  9
$EXTMAX
 10
205.301
 20
275.9309999999999
 30
0.0
  9
$LIMMIN
 10
0.0
 20
0.0
  9
$LIMMAX
 10
12.0
 20
9.0
  9
$ORTHOMODE
 70
     0
  9
$REGENMODE
 70
     1
  9
$FILLMODE
 70
     1
  9
$QTEXTMODE
 70
     0
  9
$MIRRTEXT
 70
     1
  9
$LTSCALE
 40
1.0
  9
$ATTMODE
 70
     1
  9
$TEXTSIZE
 40
0.0
  9
$TRACEWID
 40
0.05
  9
$TEXTSTYLE
  7
STANDARD
  9
$CLAYER
  8
0
  9
$CELTYPE
  6
CONTINUOUS
  9
$CECOLOR
 62
   256
  9
$CELTSCALE
 40
1.0
  9
$DISPSILH
 70
     0
  9
$DIMSCALE
 40
1.0
  9
$DIMASZ
 40
0.18
  9
$DIMEXO
 40
0.0625
  9
$DIMDLI
 40
0.38
  9
$DIMRND
 40
0.0
  9
$DIMDLE
 40
0.0
  9
$DIMEXE
 40
0.18
  9
$DIMTP
 40
0.0
  9
$DIMTM
 40
0.0
  9
$DIMTXT
 40
0.18
  9
$DIMCEN
 40
0.09
  9
$DIMTSZ
 40
0.0
  9
$DIMTOL
 70
     0
  9
$DIMLIM
 70
     0
  9
$DIMTIH
 70
     1
  9
$DIMTOH
 70
     1
  9
$DIMSE1
 70
     0
  9
$DIMSE2
 70
     0
  9
$DIMTAD
 70
     0
  9
$DIMZIN
 70
     0
  9
$DIMBLK
  1

  9
$DIMASO
 70
     1
  9
$DIMSHO
 70
     1
  9
$DIMPOST
  1

  9
$DIMAPOST
  1

  9
$DIMALT
 70
     0
  9
$DIMALTD
 70
     2
  9
$DIMALTF
 40
25.4
  9
$DIMLFAC
 40
1.0
  9
$DIMTOFL
 70
     0
  9
$DIMTVP
 40
0.0
  9
$DIMTIX
 70
     0
  9
$DIMSOXD
 70
     0
  9
$DIMSAH
 70
     0
  9
$DIMBLK1
  1

  9
$DIMBLK2
  1

  9
$DIMSTYLE
  2
STANDARD
  9
$DIMCLRD
 70
     0
  9
$DIMCLRE
 70
     0
  9
$DIMCLRT
 70
     0
  9
$DIMTFAC
 40
1.0
  9
$DIMGAP
 40
0.09
  9
$DIMJUST
 70
     0
  9
$DIMSD1
 70
     0
  9
$DIMSD2
 70
     0
  9
$DIMTOLJ
 70
     1
  9
$DIMTZIN
 70
     0
  9
$DIMALTZ
 70
     0
  9
$DIMALTTZ
 70
     0
  9
$DIMUPT
 70
     0
  9
$DIMDEC
 70
     4
  9
$DIMTDEC
 70
     4
  9
$DIMALTU
 70
     2
  9
$DIMALTTD
 70
     2
  9
$DIMTXSTY
  7
STANDARD
  9
$DIMAUNIT
 70
     0
  9
$DIMADEC
 70
     0
  9
$DIMALTRND
 40
0.0
  9
$DIMAZIN
 70
     0
  9
$DIMDSEP
 70
    46
  9
$DIMATFIT
 70
     3
  9
$DIMFRAC
 70
     0
  9
$DIMLDRBLK
  1

  9
$DIMLUNIT
 70
     2
  9
$DIMLWD
 70
    -2
  9
$DIMLWE
 70
    -2
  9
$DIMTMOVE
 70
     0
  9
$LUNITS
 70
     2
  9
$LUPREC
 70
     4
  9
$SKETCHINC
 40
0.1
  9
$FILLETRAD
 40
0.0
  9
$AUNITS
 70
     0
  9
$AUPREC
 70
     0
  9
$MENU
  1
.
  9
$ELEVATION
 40
0.0
  9
$PELEVATION
 40
0.0
  9
$THICKNESS
 40
0.0
  9
$LIMCHECK
 70
     0
  9
$CHAMFERA
 40
0.0
  9
$CHAMFERB
 40
0.0
  9
$CHAMFERC
 40
0.0
  9
$CHAMFERD
 40
0.0
  9
$SKPOLY
 70
     0
  9
$TDCREATE
 40
2444972.375000000
  9
$TDUCREATE
 40
2444972.000000000
  9
$TDUPDATE
 40
2455216.788245636
  9
$TDUUPDATE
 40
2455216.413245636
  9
$TDINDWG
 40
0.0132741088
  9
$TDUSRTIMER
 40
0.0132741088
  9
$USRTIMER
 70
     1
  9
$ANGBASE
 50
0.0
  9
$ANGDIR
 70
     0
  9
$PDMODE
 70
     0
  9
$PDSIZE
 40
0.0
  9
$PLINEWID
 40
0.0
  9
$SPLFRAME
 70
     0
  9
$SPLINETYPE
 70
     6
  9
$SPLINESEGS
 70
     8
  9
$HANDSEED
  5
11E
  9
$SURFTAB1
 70
     6
  9
$SURFTAB2
 70
     6
  9
$SURFTYPE
 70
     6
  9
$SURFU
 70
     6
  9
$SURFV
 70
     6
  9
$UCSBASE
  2

  9
$UCSNAME
  2

  9
$UCSORG
 10
0.0
 20
0.0
 30
0.0
  9
$UCSXDIR
 10
1.0
 20
0.0
 30
0.0
  9
$UCSYDIR
 10
0.0
 20
1.0
 30
0.0
  9
$UCSORTHOREF
  2

  9
$UCSORTHOVIEW
 70
     0
  9
$UCSORGTOP
 10
0.0
 20
0.0
 30
0.0
  9
$UCSORGBOTTOM
 10
0.0
 20
0.0
 30
0.0
  9
$UCSORGLEFT
 10
0.0
 20
0.0
 30
0.0
  9
$UCSORGRIGHT
 10
0.0
 20
0.0
 30
0.0
  9
$UCSORGFRONT
 10
0.0
 20
0.0
 30
0.0
  9
$UCSORGBACK
 10
0.0
 20
0.0
 30
0.0
  9
$PUCSBASE
  2

  9
$PUCSNAME
  2

  9
$PUCSORG
 10
0.0
 20
0.0
 30
0.0
  9
$PUCSXDIR
 10
1.0
 20
0.0
 30
0.0
  9
$PUCSYDIR
 10
0.0
 20
1.0
 30
0.0
  9
$PUCSORTHOREF
  2

  9
$PUCSORTHOVIEW
 70
     0
  9
$PUCSORGTOP
 10
0.0
 20
0.0
 30
0.0
  9
$PUCSORGBOTTOM
 10
0.0
 20
0.0
 30
0.0
  9
$PUCSORGLEFT
 10
0.0
 20
0.0
 30
0.0
  9
$PUCSORGRIGHT
 10
0.0
 20
0.0
 30
0.0
  9
$PUCSORGFRONT
 10
0.0
 20
0.0
 30
0.0
  9
$PUCSORGBACK
 10
0.0
 20
0.0
 30
0.0
  9
$USERI1
 70
     0
  9
$USERI2
 70
     0
  9
$USERI3
 70
     0
  9
$USERI4
 70
     0
  9
$USERI5
 70
     0
  9
$USERR1
 40
0.0
  9
$USERR2
 40
0.0
  9
$USERR3
 40
0.0
  9
$USERR4
 40
0.0
  9
$USERR5
 40
0.0
  9
$WORLDVIEW
 70
     1
  9
$SHADEDGE
 70
     3
  9
$SHADEDIF
 70
    70
  9
$TILEMODE
 70
     1
  9
$MAXACTVP
 70
    48
  9
$PINSBASE
 10
0.0
 20
0.0
 30
0.0
  9
$PLIMCHECK
 70
     0
  9
$PEXTMIN
 10
1.000000000000000E+20
 20
1.000000000000000E+20
 30
1.000000000000000E+20
  9
$PEXTMAX
 10
-1.000000000000000E+20
 20
-1.000000000000000E+20
 30
-1.000000000000000E+20
  9
$PLIMMIN
 10
0.0
 20
0.0
  9
$PLIMMAX
 10
12.0
 20
9.0
  9
$UNITMODE
 70
     0
  9
$VISRETAIN
 70
     1
  9
$PLINEGEN
 70
     0
  9
$PSLTSCALE
 70
     1
  9
$TREEDEPTH
 70
  3020
  9
$CMLSTYLE
  2
STANDARD
  9
$CMLJUST
 70
     0
  9
$CMLSCALE
 40
1.0
  9
$PROXYGRAPHICS
 70
     1
  9
$MEASUREMENT
 70
     0
  9
$CELWEIGHT
370
    -1
  9
$ENDCAPS
280
     0
  9
$JOINSTYLE
280
     0
  9
$LWDISPLAY
290
     0
  9
$INSUNITS
 70
     0
  9
$HYPERLINKBASE
  1

  9
$STYLESHEET
  1

  9
$XEDIT
290
     1
  9
$CEPSNTYPE
380
     0
  9
$PSTYLEMODE
290
     1
  9
$FINGERPRINTGUID
  2
{FA7B1D05-81C2-4406-B876-704AF9B0EC65}
  9
$VERSIONGUID
  2
{136CA166-DAE5-4B18-A3B0-D9ECD721F9B5}
  9
$EXTNAMES
290
     1
  9
$PSVPSCALE
 40
0.0
  9
$OLESTARTUP
290
     0
  0
ENDSEC
  0
SECTION
  2
CLASSES
  0
CLASS
  1
ACDBDICTIONARYWDFLT
  2
AcDbDictionaryWithDefault
  3
AutoCAD 2000
 90
        0
280
     0
281
     0
  0
CLASS
  1
ACDBPLACEHOLDER
  2
AcDbPlaceHolder
  3
AutoCAD 2000
 90
        0
280
     0
281
     0
  0
CLASS
  1
LAYOUT
  2
AcDbLayout
  3
AutoCAD 2000
 90
        0
280
     0
281
     0
  0
ENDSEC
  0
SECTION
  2
TABLES
  0
TABLE
  2
VPORT
  5
8
330
0
100
AcDbSymbolTable
 70
     2
  0
VPORT
  5
11D
330
8
100
AcDbSymbolTableRecord
100
AcDbViewportTableRecord
  2
*Active
 70
     0
 10
0.0
 20
0.0
 11
1.0
 21
1.0
 12
138.8711095848293
 22
127.4299999999999
 13
0.0
 23
0.0
 14
1.0
 24
1.0
 15
0.0
 25
0.0
 16
0.0
 26
0.0
 36
1.0
 17
0.0
 27
0.0
 37
0.0
 40
299.4939637713504
 41
1.912109374999999
 42
50.0
 43
0.0
 44
0.0
 50
0.0
 51
0.0
 71
     0
 72
   100
 73
     1
 74
     1
 75
     0
 76
     0
 77
     0
 78
     0
281
     0
 65
     1
110
0.0
120
0.0
130
0.0
111
1.0
121
0.0
131
0.0
112
0.0
122
1.0
132
0.0
 79
     0
146
0.0
  0
ENDTAB
  0
TABLE
  2
LTYPE
  5
5
330
0
100
AcDbSymbolTable
 70
     3
  0
LTYPE
  5
12
330
5
100
AcDbSymbolTableRecord
100
AcDbLinetypeTableRecord
  2
BYBLOCK
 70
     0
  3

 72
    65
 73
     0
 40
0.0
  0
LTYPE
  5
13
330
5
100
AcDbSymbolTableRecord
100
AcDbLinetypeTableRecord
  2
BYLAYER
 70
     0
  3

 72
    65
 73
     0
 40
0.0
  0
LTYPE
  5
14
330
5
100
AcDbSymbolTableRecord
100
AcDbLinetypeTableRecord
  2
CONTINUOUS
 70
     0
  3
Solid line
 72
    65
 73
     0
 40
0.0
  0
LTYPE
  5
1F
330
5
100
AcDbSymbolTableRecord
100
AcDbLinetypeTableRecord
  2
AIGENLINE001
 70
     0
  3
generate AI->DXF Converter
 72
    65
 73
     2
 40
1.552229999999999
 49
0.776115
 74
     0
 49
-0.776115
 74
     0
  0
LTYPE
  5
20
330
5
100
AcDbSymbolTableRecord
100
AcDbLinetypeTableRecord
  2
AIGENLINE002
 70
     0
  3
generate AI->DXF Converter
 72
    65
 73
     4
 40
5.856144999999999
 49
3.5278
 74
     0
 49
-0.776115
 74
     0
 49
0.776115
 74
     0
 49
-0.776115
 74
     0
  0
ENDTAB
  0
TABLE
  2
LAYER
  5
2
330
0
100
AcDbSymbolTable
 70
     2
  0
LAYER
  5
E
330
2
100
AcDbSymbolTableRecord
100
AcDbLayerTableRecord
  2
0
 70
     0
 62
     7
  6
CONTINUOUS
370
    -3
390
115
  0
LAYER
  5
21
330
2
100
AcDbSymbolTableRecord
100
AcDbLayerTableRecord
  2
_________2
 70
     0
 62
     7
  6
CONTINUOUS
370
    -3
390
115
  0
ENDTAB
  0
TABLE
  2
STYLE
  5
3
330
0
100
AcDbSymbolTable
 70
     1
  0
STYLE
  5
F
330
3
100
AcDbSymbolTableRecord
100
AcDbTextStyleTableRecord
  2
STANDARD
 70
     0
 40
0.0
 41
0.0
 50
0.0
 71
     0
 42
0.0
  3
TXT
  4
BIGFONT
  0
ENDTAB
  0
TABLE
  2
VIEW
  5
6
330
0
100
AcDbSymbolTable
 70
     0
  0
ENDTAB
  0
TABLE
  2
UCS
  5
7
330
0
100
AcDbSymbolTable
 70
     0
  0
ENDTAB
  0
TABLE
  2
APPID
  5
9
330
0
100
AcDbSymbolTable
 70
     1
  0
APPID
  5
10
330
9
100
AcDbSymbolTableRecord
100
AcDbRegAppTableRecord
  2
ACAD
 70
     0
  0
ENDTAB
  0
TABLE
  2
DIMSTYLE
  5
A
330
0
100
AcDbSymbolTable
 70
     1
100
AcDbDimStyleTable
 71
     0
  0
DIMSTYLE
105
111
330
A
100
AcDbSymbolTableRecord
100
AcDbDimStyleTableRecord
  2
STANDARD
 70
     0
340
F
  0
ENDTAB
  0
TABLE
  2
BLOCK_RECORD
  5
1
330
0
100
AcDbSymbolTable
 70
     0
  0
BLOCK_RECORD
  5
18
330
1
100
AcDbSymbolTableRecord
100
AcDbBlockTableRecord
  2
*MODEL_SPACE
340
118
  0
BLOCK_RECORD
  5
15
330
1
100
AcDbSymbolTableRecord
100
AcDbBlockTableRecord
  2
*PAPER_SPACE
340
119
  0
ENDTAB
  0
ENDSEC
  0
SECTION
  2
BLOCKS
  0
BLOCK
  5
19
330
18
100
AcDbEntity
  8
0
100
AcDbBlockBegin
  2
*MODEL_SPACE
 70
     0
 10
0.0
 20
0.0
 30
0.0
  3
*MODEL_SPACE
  1

  0
ENDBLK
  5
1A
330
18
100
AcDbEntity
  8
0
100
AcDbBlockEnd
  0
BLOCK
  5
16
330
15
100
AcDbEntity
 67
     1
  8
0
100
AcDbBlockBegin
  2
*PAPER_SPACE
 70
     0
 10
0.0
 20
0.0
 30
0.0
  3
*PAPER_SPACE
  1

  0
ENDBLK
  5
17
330
15
100
AcDbEntity
 67
     1
  8
0
100
AcDbBlockEnd
  0
ENDSEC
  0
SECTION
  2
ENTITIES
  0
TEXT
  5
23
330
18
100
AcDbEntity
  8
0
100
AcDbText
 10
87.57691800000001
 20
230.257
 30
0.0
 40
3.09234
  1
（%%c6×35 樹脂プラグ付）
 41
0.5
 72
     2
 11
110.151
 21
230.257
 31
0.0
100
AcDbText
  0
TEXT
  5
24
330
18
100
AcDbEntity
  8
0
100
AcDbText
 10
81.441075
 20
235.5529999999999
 30
0.0
 40
3.09234
  1
%%c3.8×50 十字穴付SUS丸木ねじ
 41
0.5
 72
     2
 11
111.076
 21
235.5529999999999
 31
0.0
100
AcDbText
  0
TEXT
  5
25
330
18
100
AcDbEntity
  8
0
100
AcDbText
 10
79.2003
 20
73.75822499999999
 30
0.0
 40
3.09234
  1
22
 50
90.0
 41
0.5
 72
     1
 11
79.2003
 21
75.0467
 31
0.0
100
AcDbText
  0
TEXT
  5
26
330
18
100
AcDbEntity
  8
0
100
AcDbText
 10
86.0034
 20
123.13844
 30
0.0
 40
3.09234
  1
338
 50
90.0
 41
0.5
 72
     1
 11
86.0034
 21
125.2
 31
0.0
100
AcDbText
  0
TEXT
  5
27
330
18
100
AcDbEntity
  8
0
100
AcDbText
 10
127.836525
 20
58.2952
 30
0.0
 40
3.09234
  1
66
 41
0.5
 72
     1
 11
129.125
 21
58.2952
 31
0.0
100
AcDbText
  0
TEXT
  5
28
330
18
100
AcDbEntity
  8
0
100
AcDbText
 10
65.89042499999999
 20
58.761
 30
0.0
 40
3.09234
  1
38
 41
0.5
 72
     1
 11
67.1789
 21
58.761
 31
0.0
100
AcDbText
  0
LINE
  5
29
330
18
100
AcDbEntity
  8
0
100
AcDbLine
 10
111.2379999999999
 20
234.254
 30
0.0
 11
75.6705
 21
234.254
 31
0.0
  0
LINE
  5
2A
330
18
100
AcDbEntity
  8
0
100
AcDbLine
 10
69.5101
 20
230.1759999999999
 30
0.0
 11
68.1343
 21
228.347
 31
0.0
  0
LINE
  5
2B
330
18
100
AcDbEntity
  8
0
100
AcDbLine
 10
68.1343
 20
228.347
 30
0.0
 11
70.2403
 21
229.2429999999999
 31
0.0
  0
LINE
  5
2C
330
18
100
AcDbEntity
  8
0
100
AcDbLine
 10
70.2403
 20
229.2429999999999
 30
0.0
 11
69.5101
 21
230.1759999999999
 31
0.0
  0
LINE
  5
2D
330
18
100
AcDbEntity
  8
0
100
AcDbLine
 10
75.6705
 20
234.254
 30
0.0
 11
68.1298
 21
228.352
 31
0.0
  0
LINE
  5
2E
330
18
100
AcDbEntity
  8
0
  6
AIGENLINE001
100
AcDbLine
 10
66.8768
 20
172.4509999999999
 30
0.0
 11
67.3767
 21
172.4509999999999
 31
0.0
  0
LINE
  5
2F
330
18
100
AcDbEntity
  8
0
100
AcDbLine
 10
66.8768
 20
170.9509999999999
 30
0.0
 11
67.3767
 21
170.9509999999999
 31
0.0
  0
ARC
  5
30
330
18
100
AcDbEntity
  8
0
  6
AIGENLINE001
100
AcDbCircle
 10
66.90573399999999
 20
171.7298139999999
 30
0.0
 40
0.7794979999999999
100
AcDbArc
 50
182.1544209999999
 51
267.871934
  0
ARC
  5
31
330
18
100
AcDbEntity
  8
0
  6
AIGENLINE001
100
AcDbCircle
 10
66.905715
 20
171.6719419999999
 30
0.0
 40
0.7794520000000001
100
AcDbArc
 50
92.126785
 51
177.899498
  0
ARC
  5
32
330
18
100
AcDbEntity
  8
0
  6
AIGENLINE001
100
AcDbCircle
 10
67.34767099999999
 20
171.671864
 30
0.0
 40
0.779533
100
AcDbArc
 50
2.106006
 51
87.867671
  0
ARC
  5
33
330
18
100
AcDbEntity
  8
0
  6
AIGENLINE001
100
AcDbCircle
 10
67.34843599999999
 20
171.7291069999999
 30
0.0
 40
0.7787670000000001
100
AcDbArc
 50
272.0781039999999
 51
357.895581
  0
LINE
  5
34
330
18
100
AcDbEntity
  8
0
  6
AIGENLINE002
100
AcDbLine
 10
65.36399999999999
 20
171.7009999999999
 30
0.0
 11
68.87220000000001
 21
171.7009999999999
 31
0.0
  0
LINE
  5
35
330
18
100
AcDbEntity
  8
0
  6
AIGENLINE002
100
AcDbLine
 10
67.12659999999999
 20
173.767
 30
0.0
 11
67.12659999999999
 21
169.887
 31
0.0
  0
LINE
  5
36
330
18
100
AcDbEntity
  8
0
  6
AIGENLINE001
100
AcDbLine
 10
67.87690000000001
 20
179.284
 30
0.0
 11
67.87690000000001
 21
178.784
 31
0.0
  0
LINE
  5
37
330
18
100
AcDbEntity
  8
0
100
AcDbLine
 10
66.3769
 20
179.284
 30
0.0
 11
66.3769
 21
178.784
 31
0.0
  0
ARC
  5
38
330
18
100
AcDbEntity
  8
0
  6
AIGENLINE001
100
AcDbCircle
 10
67.15581
 20
179.2550239999999
 30
0.0
 40
0.7794300000000001
100
AcDbArc
 50
92.150654
 51
177.901953
  0
ARC
  5
39
330
18
100
AcDbEntity
  8
0
  6
AIGENLINE001
100
AcDbCircle
 10
67.09757399999999
 20
179.254573
 30
0.0
 40
0.779871
100
AcDbArc
 50
2.129982
 51
87.87000799999999
  0
ARC
  5
3A
330
18
100
AcDbEntity
  8
0
  6
AIGENLINE001
100
AcDbCircle
 10
67.09795699999999
 20
178.8126189999999
 30
0.0
 40
0.7794750000000001
100
AcDbArc
 50
272.1029649999999
 51
357.897045
  0
ARC
  5
3B
330
18
100
AcDbEntity
  8
0
  6
AIGENLINE001
100
AcDbCircle
 10
67.155573
 20
178.8123139999999
 30
0.0
 40
0.7791850000000001
100
AcDbArc
 50
182.081295
 51
267.866097
  0
LINE
  5
3C
330
18
100
AcDbEntity
  8
0
  6
AIGENLINE002
100
AcDbLine
 10
67.12659999999999
 20
180.797
 30
0.0
 11
67.12659999999999
 21
177.2879999999999
 31
0.0
  0
LINE
  5
3D
330
18
100
AcDbEntity
  8
0
  6
AIGENLINE002
100
AcDbLine
 10
69.19329999999999
 20
179.034
 30
0.0
 11
65.31270000000001
 21
179.034
 31
0.0
  0
LINE
  5
3E
330
18
100
AcDbEntity
  8
0
100
AcDbLine
 10
73.4608
 20
181.534
 30
0.0
 11
60.7932
 21
181.534
 31
0.0
  0
LINE
  5
3F
330
18
100
AcDbEntity
  8
0
100
AcDbLine
 10
79.6888
 20
73.57769999999999
 30
0.0
 11
80.28109999999999
 21
71.3673
 31
0.0
  0
LINE
  5
40
330
18
100
AcDbEntity
  8
0
100
AcDbLine
 10
80.28109999999999
 20
71.3673
 30
0.0
 11
80.87329999999999
 21
73.57769999999999
 31
0.0
  0
LINE
  5
41
330
18
100
AcDbEntity
  8
0
100
AcDbLine
 10
80.87329999999999
 20
73.57769999999999
 30
0.0
 11
79.6888
 21
73.57769999999999
 31
0.0
  0
LINE
  5
42
330
18
100
AcDbEntity
  8
0
100
AcDbLine
 10
80.85880000000001
 20
76.4881
 30
0.0
 11
80.26659999999999
 21
78.69889999999999
 31
0.0
  0
LINE
  5
43
330
18
100
AcDbEntity
  8
0
100
AcDbLine
 10
80.26659999999999
 20
78.69889999999999
 30
0.0
 11
79.6744
 21
76.4881
 31
0.0
  0
LINE
  5
44
330
18
100
AcDbEntity
  8
0
100
AcDbLine
 10
79.6744
 20
76.4881
 30
0.0
 11
80.85880000000001
 21
76.4881
 31
0.0
  0
LINE
  5
45
330
18
100
AcDbEntity
  8
0
100
AcDbLine
 10
80.28109999999999
 20
71.3663
 30
0.0
 11
80.28109999999999
 21
78.6999
 31
0.0
  0
LINE
  5
46
330
18
100
AcDbEntity
  8
0
  6
AIGENLINE001
100
AcDbLine
 10
67.87690000000001
 20
71.6161
 30
0.0
 11
67.87690000000001
 21
71.11620000000001
 31
0.0
  0
LINE
  5
47
330
18
100
AcDbEntity
  8
0
100
AcDbLine
 10
66.3769
 20
71.6161
 30
0.0
 11
66.3769
 21
71.11620000000001
 31
0.0
  0
ARC
  5
48
330
18
100
AcDbEntity
  8
0
  6
AIGENLINE001
100
AcDbCircle
 10
67.15547099999999
 20
71.58751099999999
 30
0.0
 40
0.779092
100
AcDbArc
 50
92.12664800000002
 51
177.8996469999999
  0
ARC
  5
49
330
18
100
AcDbEntity
  8
0
  6
AIGENLINE001
100
AcDbCircle
 10
67.09799100000001
 20
71.587138
 30
0.0
 40
0.7794520000000001
100
AcDbArc
 50
2.126811999999999
 51
87.89949099999999
  0
ARC
  5
4A
330
18
100
AcDbEntity
  8
0
  6
AIGENLINE001
100
AcDbCircle
 10
67.09830500000001
 20
71.14479
 30
0.0
 40
0.779127
100
AcDbArc
 50
272.0782639999999
 51
357.895433
  0
ARC
  5
4B
330
18
100
AcDbEntity
  8
0
  6
AIGENLINE001
100
AcDbCircle
 10
67.155156
 20
71.144417
 30
0.0
 40
0.778766
100
AcDbArc
 50
182.0780969999999
 51
267.8956079999999
  0
LINE
  5
4C
330
18
100
AcDbEntity
  8
0
  6
AIGENLINE002
100
AcDbLine
 10
67.12659999999999
 20
73.12879999999999
 30
0.0
 11
67.12659999999999
 21
69.6207
 31
0.0
  0
LINE
  5
4D
330
18
100
AcDbEntity
  8
0
100
AcDbLine
 10
80.9811
 20
71.3663
 30
0.0
 11
70.15550000000001
 21
71.3663
 31
0.0
  0
LINE
  5
4E
330
18
100
AcDbEntity
  8
0
100
AcDbLine
 10
80.9811
 20
78.6999
 30
0.0
 11
70.15550000000001
 21
78.6999
 31
0.0
  0
LINE
  5
4F
330
18
100
AcDbEntity
  8
0
  6
AIGENLINE002
100
AcDbLine
 10
69.19329999999999
 20
71.3663
 30
0.0
 11
65.31270000000001
 21
71.3663
 31
0.0
  0
LINE
  5
50
330
18
100
AcDbEntity
  8
0
  6
AIGENLINE001
100
AcDbLine
 10
66.8771
 20
79.4503
 30
0.0
 11
67.3767
 21
79.4503
 31
0.0
  0
LINE
  5
51
330
18
100
AcDbEntity
  8
0
100
AcDbLine
 10
66.8771
 20
77.9503
 30
0.0
 11
67.3767
 21
77.9503
 31
0.0
  0
ARC
  5
52
330
18
100
AcDbEntity
  8
0
  6
AIGENLINE001
100
AcDbCircle
 10
66.90567299999999
 20
78.72916899999999
 30
0.0
 40
0.779435
100
AcDbArc
 50
182.151049
 51
267.901618
  0
ARC
  5
53
330
18
100
AcDbEntity
  8
0
  6
AIGENLINE001
100
AcDbCircle
 10
66.905726
 20
78.67132099999999
 30
0.0
 40
0.7794640000000001
100
AcDbArc
 50
92.10223100000002
 51
177.897739
  0
ARC
  5
54
330
18
100
AcDbEntity
  8
0
  6
AIGENLINE001
100
AcDbCircle
 10
67.348072
 20
78.671311
 30
0.0
 40
0.7794750000000001
100
AcDbArc
 50
2.102955
 51
87.89703499999999
  0
ARC
  5
55
330
18
100
AcDbEntity
  8
0
  6
AIGENLINE001
100
AcDbCircle
 10
67.34876899999999
 20
78.728536
 30
0.0
 40
0.7787790000000001
100
AcDbArc
 50
272.0535529999999
 51
357.89382
  0
LINE
  5
56
330
18
100
AcDbEntity
  8
0
  6
AIGENLINE002
100
AcDbLine
 10
65.36399999999999
 20
78.6999
 30
0.0
 11
68.87220000000001
 21
78.6999
 31
0.0
  0
LINE
  5
57
330
18
100
AcDbEntity
  8
0
  6
AIGENLINE002
100
AcDbLine
 10
67.12659999999999
 20
80.7666
 30
0.0
 11
67.12659999999999
 21
76.8861
 31
0.0
  0
LINE
  5
58
330
18
100
AcDbEntity
  8
0
100
AcDbLine
 10
87.74089999999999
 20
68.8662
 30
0.0
 11
75.2594
 21
68.8662
 31
0.0
  0
LINE
  5
59
330
18
100
AcDbEntity
  8
0
100
AcDbLine
 10
153.021
 20
172.709
 30
0.0
 11
153.7589999999999
 21
170.6929999999999
 31
0.0
  0
LINE
  5
5A
330
18
100
AcDbEntity
  8
0
100
AcDbLine
 10
151.8029999999999
 20
172.709
 30
0.0
 11
152.543
 21
170.6929999999999
 31
0.0
  0
LINE
  5
5B
330
18
100
AcDbEntity
  8
0
100
AcDbLine
 10
150.587
 20
172.709
 30
0.0
 11
151.326
 21
170.6929999999999
 31
0.0
  0
LINE
  5
5C
330
18
100
AcDbEntity
  8
0
100
AcDbLine
 10
149.37
 20
172.709
 30
0.0
 11
150.1079999999999
 21
170.6929999999999
 31
0.0
  0
LINE
  5
5D
330
18
100
AcDbEntity
  8
0
100
AcDbLine
 10
148.153
 20
172.709
 30
0.0
 11
148.8909999999999
 21
170.6929999999999
 31
0.0
  0
LINE
  5
5E
330
18
100
AcDbEntity
  8
0
100
AcDbLine
 10
146.935
 20
172.709
 30
0.0
 11
147.675
 21
170.6929999999999
 31
0.0
  0
LINE
  5
5F
330
18
100
AcDbEntity
  8
0
100
AcDbLine
 10
145.7189999999999
 20
172.709
 30
0.0
 11
146.4579999999999
 21
170.6929999999999
 31
0.0
  0
LINE
  5
60
330
18
100
AcDbEntity
  8
0
100
AcDbLine
 10
144.502
 20
172.709
 30
0.0
 11
145.24
 21
170.6929999999999
 31
0.0
  0
LINE
  5
61
330
18
100
AcDbEntity
  8
0
100
AcDbLine
 10
143.285
 20
172.709
 30
0.0
 11
144.024
 21
170.6929999999999
 31
0.0
  0
LINE
  5
62
330
18
100
AcDbEntity
  8
0
100
AcDbLine
 10
142.067
 20
172.709
 30
0.0
 11
142.807
 21
170.6929999999999
 31
0.0
  0
LINE
  5
63
330
18
100
AcDbEntity
  8
0
100
AcDbLine
 10
140.8509999999999
 20
172.709
 30
0.0
 11
141.59
 21
170.6929999999999
 31
0.0
  0
LINE
  5
64
330
18
100
AcDbEntity
  8
0
100
AcDbLine
 10
153.725
 20
171.201
 30
0.0
 11
140.271
 21
171.201
 31
0.0
  0
LINE
  5
65
330
18
100
AcDbEntity
  8
0
100
AcDbLine
 10
153.725
 20
171.201
 30
0.0
 11
155.271
 21
171.7009999999999
 31
0.0
  0
LINE
  5
66
330
18
100
AcDbEntity
  8
0
100
AcDbLine
 10
155.271
 20
171.7009999999999
 30
0.0
 11
153.725
 21
172.201
 31
0.0
  0
LINE
  5
67
330
18
100
AcDbEntity
  8
0
  6
AIGENLINE002
100
AcDbLine
 10
138.2889999999999
 20
171.7009999999999
 30
0.0
 11
157.001
 21
171.7009999999999
 31
0.0
  0
LINE
  5
68
330
18
100
AcDbEntity
  8
0
100
AcDbLine
 10
140.271
 20
172.201
 30
0.0
 11
153.725
 21
172.201
 31
0.0
  0
LINE
  5
69
330
18
100
AcDbEntity
  8
0
100
AcDbLine
 10
153.021
 20
180.043
 30
0.0
 11
153.7589999999999
 21
178.027
 31
0.0
  0
LINE
  5
6A
330
18
100
AcDbEntity
  8
0
100
AcDbLine
 10
151.8029999999999
 20
180.043
 30
0.0
 11
152.543
 21
178.027
 31
0.0
  0
LINE
  5
6B
330
18
100
AcDbEntity
  8
0
100
AcDbLine
 10
150.587
 20
180.043
 30
0.0
 11
151.326
 21
178.027
 31
0.0
  0
LINE
  5
6C
330
18
100
AcDbEntity
  8
0
100
AcDbLine
 10
149.37
 20
180.043
 30
0.0
 11
150.1079999999999
 21
178.027
 31
0.0
  0
LINE
  5
6D
330
18
100
AcDbEntity
  8
0
100
AcDbLine
 10
148.153
 20
180.043
 30
0.0
 11
148.8909999999999
 21
178.027
 31
0.0
  0
LINE
  5
6E
330
18
100
AcDbEntity
  8
0
100
AcDbLine
 10
146.935
 20
180.043
 30
0.0
 11
147.675
 21
178.027
 31
0.0
  0
LINE
  5
6F
330
18
100
AcDbEntity
  8
0
100
AcDbLine
 10
145.7189999999999
 20
180.043
 30
0.0
 11
146.4579999999999
 21
178.027
 31
0.0
  0
LINE
  5
70
330
18
100
AcDbEntity
  8
0
100
AcDbLine
 10
144.502
 20
180.043
 30
0.0
 11
145.24
 21
178.027
 31
0.0
  0
LINE
  5
71
330
18
100
AcDbEntity
  8
0
100
AcDbLine
 10
143.285
 20
180.043
 30
0.0
 11
144.024
 21
178.027
 31
0.0
  0
LINE
  5
72
330
18
100
AcDbEntity
  8
0
100
AcDbLine
 10
142.067
 20
180.043
 30
0.0
 11
142.807
 21
178.027
 31
0.0
  0
LINE
  5
73
330
18
100
AcDbEntity
  8
0
100
AcDbLine
 10
140.8509999999999
 20
180.043
 30
0.0
 11
141.59
 21
178.027
 31
0.0
  0
LINE
  5
74
330
18
100
AcDbEntity
  8
0
100
AcDbLine
 10
153.725
 20
178.534
 30
0.0
 11
140.271
 21
178.534
 31
0.0
  0
LINE
  5
75
330
18
100
AcDbEntity
  8
0
100
AcDbLine
 10
153.725
 20
178.534
 30
0.0
 11
155.271
 21
179.034
 31
0.0
  0
LINE
  5
76
330
18
100
AcDbEntity
  8
0
100
AcDbLine
 10
155.271
 20
179.034
 30
0.0
 11
153.725
 21
179.535
 31
0.0
  0
LINE
  5
77
330
18
100
AcDbEntity
  8
0
  6
AIGENLINE002
100
AcDbLine
 10
138.2889999999999
 20
179.034
 30
0.0
 11
157.001
 21
179.034
 31
0.0
  0
LINE
  5
78
330
18
100
AcDbEntity
  8
0
100
AcDbLine
 10
140.271
 20
179.535
 30
0.0
 11
153.725
 21
179.535
 31
0.0
  0
LINE
  5
79
330
18
100
AcDbEntity
  8
0
100
AcDbLine
 10
153.021
 20
72.3747
 30
0.0
 11
153.7589999999999
 21
70.35890000000001
 31
0.0
  0
LINE
  5
7A
330
18
100
AcDbEntity
  8
0
100
AcDbLine
 10
151.8029999999999
 20
72.3747
 30
0.0
 11
152.543
 21
70.35890000000001
 31
0.0
  0
LINE
  5
7B
330
18
100
AcDbEntity
  8
0
100
AcDbLine
 10
150.587
 20
72.3747
 30
0.0
 11
151.326
 21
70.35890000000001
 31
0.0
  0
LINE
  5
7C
330
18
100
AcDbEntity
  8
0
100
AcDbLine
 10
149.37
 20
72.3747
 30
0.0
 11
150.1079999999999
 21
70.35890000000001
 31
0.0
  0
LINE
  5
7D
330
18
100
AcDbEntity
  8
0
100
AcDbLine
 10
148.153
 20
72.3747
 30
0.0
 11
148.8909999999999
 21
70.35890000000001
 31
0.0
  0
LINE
  5
7E
330
18
100
AcDbEntity
  8
0
100
AcDbLine
 10
146.935
 20
72.3747
 30
0.0
 11
147.675
 21
70.35890000000001
 31
0.0
  0
LINE
  5
7F
330
18
100
AcDbEntity
  8
0
100
AcDbLine
 10
145.7189999999999
 20
72.3747
 30
0.0
 11
146.4579999999999
 21
70.35890000000001
 31
0.0
  0
LINE
  5
80
330
18
100
AcDbEntity
  8
0
100
AcDbLine
 10
144.502
 20
72.3747
 30
0.0
 11
145.24
 21
70.35890000000001
 31
0.0
  0
LINE
  5
81
330
18
100
AcDbEntity
  8
0
100
AcDbLine
 10
143.285
 20
72.3747
 30
0.0
 11
144.024
 21
70.35890000000001
 31
0.0
  0
LINE
  5
82
330
18
100
AcDbEntity
  8
0
100
AcDbLine
 10
142.067
 20
72.3747
 30
0.0
 11
142.807
 21
70.35890000000001
 31
0.0
  0
LINE
  5
83
330
18
100
AcDbEntity
  8
0
100
AcDbLine
 10
140.8509999999999
 20
72.3747
 30
0.0
 11
141.59
 21
70.35890000000001
 31
0.0
  0
LINE
  5
84
330
18
100
AcDbEntity
  8
0
100
AcDbLine
 10
153.725
 20
70.8664
 30
0.0
 11
140.271
 21
70.8664
 31
0.0
  0
LINE
  5
85
330
18
100
AcDbEntity
  8
0
100
AcDbLine
 10
153.725
 20
70.8664
 30
0.0
 11
155.271
 21
71.3663
 31
0.0
  0
LINE
  5
86
330
18
100
AcDbEntity
  8
0
100
AcDbLine
 10
155.271
 20
71.3663
 30
0.0
 11
153.725
 21
71.8669
 31
0.0
  0
LINE
  5
87
330
18
100
AcDbEntity
  8
0
  6
AIGENLINE002
100
AcDbLine
 10
138.2889999999999
 20
71.3663
 30
0.0
 11
157.001
 21
71.3663
 31
0.0
  0
LINE
  5
88
330
18
100
AcDbEntity
  8
0
100
AcDbLine
 10
140.271
 20
71.8669
 30
0.0
 11
153.725
 21
71.8669
 31
0.0
  0
LINE
  5
89
330
18
100
AcDbEntity
  8
0
100
AcDbLine
 10
153.021
 20
79.70829999999999
 30
0.0
 11
153.7589999999999
 21
77.6926
 31
0.0
  0
LINE
  5
8A
330
18
100
AcDbEntity
  8
0
100
AcDbLine
 10
151.8029999999999
 20
79.70829999999999
 30
0.0
 11
152.543
 21
77.6926
 31
0.0
  0
LINE
  5
8B
330
18
100
AcDbEntity
  8
0
100
AcDbLine
 10
150.587
 20
79.70829999999999
 30
0.0
 11
151.326
 21
77.6926
 31
0.0
  0
LINE
  5
8C
330
18
100
AcDbEntity
  8
0
100
AcDbLine
 10
149.37
 20
79.70829999999999
 30
0.0
 11
150.1079999999999
 21
77.6926
 31
0.0
  0
LINE
  5
8D
330
18
100
AcDbEntity
  8
0
100
AcDbLine
 10
148.153
 20
79.70829999999999
 30
0.0
 11
148.8909999999999
 21
77.6926
 31
0.0
  0
LINE
  5
8E
330
18
100
AcDbEntity
  8
0
100
AcDbLine
 10
146.935
 20
79.70829999999999
 30
0.0
 11
147.675
 21
77.6926
 31
0.0
  0
LINE
  5
8F
330
18
100
AcDbEntity
  8
0
100
AcDbLine
 10
145.7189999999999
 20
79.70829999999999
 30
0.0
 11
146.4579999999999
 21
77.6926
 31
0.0
  0
LINE
  5
90
330
18
100
AcDbEntity
  8
0
100
AcDbLine
 10
144.502
 20
79.70829999999999
 30
0.0
 11
145.24
 21
77.6926
 31
0.0
  0
LINE
  5
91
330
18
100
AcDbEntity
  8
0
100
AcDbLine
 10
143.285
 20
79.70829999999999
 30
0.0
 11
144.024
 21
77.6926
 31
0.0
  0
LINE
  5
92
330
18
100
AcDbEntity
  8
0
100
AcDbLine
 10
142.067
 20
79.70829999999999
 30
0.0
 11
142.807
 21
77.6926
 31
0.0
  0
LINE
  5
93
330
18
100
AcDbEntity
  8
0
100
AcDbLine
 10
140.8509999999999
 20
79.70829999999999
 30
0.0
 11
141.59
 21
77.6926
 31
0.0
  0
LINE
  5
94
330
18
100
AcDbEntity
  8
0
100
AcDbLine
 10
153.725
 20
78.2
 30
0.0
 11
140.271
 21
78.2
 31
0.0
  0
LINE
  5
95
330
18
100
AcDbEntity
  8
0
100
AcDbLine
 10
153.725
 20
78.2
 30
0.0
 11
155.271
 21
78.6999
 31
0.0
  0
LINE
  5
96
330
18
100
AcDbEntity
  8
0
100
AcDbLine
 10
155.271
 20
78.6999
 30
0.0
 11
153.725
 21
79.2005
 31
0.0
  0
LINE
  5
97
330
18
100
AcDbEntity
  8
0
  6
AIGENLINE002
100
AcDbLine
 10
138.2889999999999
 20
78.6999
 30
0.0
 11
157.001
 21
78.6999
 31
0.0
  0
LINE
  5
98
330
18
100
AcDbEntity
  8
0
100
AcDbLine
 10
140.271
 20
79.2005
 30
0.0
 11
153.725
 21
79.2005
 31
0.0
  0
LINE
  5
99
330
18
100
AcDbEntity
  8
0
100
AcDbLine
 10
118.2709999999999
 20
56.7535
 30
0.0
 11
118.2709999999999
 21
68.0507
 31
0.0
  0
LINE
  5
9A
330
18
100
AcDbEntity
  8
0
100
AcDbLine
 10
140.271
 20
56.5974
 30
0.0
 11
140.271
 21
67.98869999999999
 31
0.0
  0
LINE
  5
9B
330
18
100
AcDbEntity
  8
0
100
AcDbLine
 10
120.481
 20
58.0385
 30
0.0
 11
118.27
 21
57.4463
 31
0.0
  0
LINE
  5
9C
330
18
100
AcDbEntity
  8
0
100
AcDbLine
 10
118.27
 20
57.4463
 30
0.0
 11
120.481
 21
56.8541
 31
0.0
  0
LINE
  5
9D
330
18
100
AcDbEntity
  8
0
100
AcDbLine
 10
120.481
 20
56.8541
 30
0.0
 11
120.481
 21
58.0385
 31
0.0
  0
LINE
  5
9E
330
18
100
AcDbEntity
  8
0
100
AcDbLine
 10
138.06
 20
56.8686
 30
0.0
 11
140.271
 21
57.4608
 31
0.0
  0
LINE
  5
9F
330
18
100
AcDbEntity
  8
0
100
AcDbLine
 10
140.271
 20
57.4608
 30
0.0
 11
138.06
 21
58.053
 31
0.0
  0
LINE
  5
A0
330
18
100
AcDbEntity
  8
0
100
AcDbLine
 10
138.06
 20
58.053
 30
0.0
 11
138.06
 21
56.8686
 31
0.0
  0
LINE
  5
A1
330
18
100
AcDbEntity
  8
0
100
AcDbLine
 10
118.2709999999999
 20
57.4535
 30
0.0
 11
140.271
 21
57.4535
 31
0.0
  0
LINE
  5
A2
330
18
100
AcDbEntity
  8
0
100
AcDbLine
 10
120.2709999999999
 20
70.8668
 30
0.0
 11
140.271
 21
70.8668
 31
0.0
  0
LINE
  5
A3
330
18
100
AcDbEntity
  8
0
100
AcDbLine
 10
140.271
 20
81.1997
 30
0.0
 11
140.271
 21
68.8662
 31
0.0
  0
LINE
  5
A4
330
18
100
AcDbEntity
  8
0
100
AcDbLine
 10
118.2709999999999
 20
81.1997
 30
0.0
 11
140.271
 21
81.1997
 31
0.0
  0
LINE
  5
A5
330
18
100
AcDbEntity
  8
0
100
AcDbLine
 10
118.2709999999999
 20
68.8662
 30
0.0
 11
140.271
 21
68.8662
 31
0.0
  0
LINE
  5
A6
330
18
100
AcDbEntity
  8
0
100
AcDbLine
 10
73.4608
 20
56.5919
 30
0.0
 11
73.4608
 21
67.91979999999999
 31
0.0
  0
LINE
  5
A7
330
18
100
AcDbEntity
  8
0
100
AcDbLine
 10
60.7932
 20
56.5919
 30
0.0
 11
60.7932
 21
67.91979999999999
 31
0.0
  0
LINE
  5
A8
330
18
100
AcDbEntity
  8
0
100
AcDbLine
 10
63.0036
 20
58.0385
 30
0.0
 11
60.7932
 21
57.4463
 31
0.0
  0
LINE
  5
A9
330
18
100
AcDbEntity
  8
0
100
AcDbLine
 10
60.7932
 20
57.4463
 30
0.0
 11
63.0036
 21
56.8541
 31
0.0
  0
LINE
  5
AA
330
18
100
AcDbEntity
  8
0
100
AcDbLine
 10
63.0036
 20
56.8541
 30
0.0
 11
63.0036
 21
58.0385
 31
0.0
  0
LINE
  5
AB
330
18
100
AcDbEntity
  8
0
100
AcDbLine
 10
71.25020000000001
 20
56.8686
 30
0.0
 11
73.4608
 21
57.4608
 31
0.0
  0
LINE
  5
AC
330
18
100
AcDbEntity
  8
0
100
AcDbLine
 10
73.4608
 20
57.4608
 30
0.0
 11
71.25020000000001
 21
58.053
 31
0.0
  0
LINE
  5
AD
330
18
100
AcDbEntity
  8
0
100
AcDbLine
 10
71.25020000000001
 20
58.053
 30
0.0
 11
71.25020000000001
 21
56.8686
 31
0.0
  0
LINE
  5
AE
330
18
100
AcDbEntity
  8
0
100
AcDbLine
 10
60.7932
 20
57.4535
 30
0.0
 11
73.4608
 21
57.4535
 31
0.0
  0
LINE
  5
AF
330
18
100
AcDbEntity
  8
0
100
AcDbLine
 10
73.4608
 20
81.1997
 30
0.0
 11
60.7932
 21
81.1997
 31
0.0
  0
LINE
  5
B0
330
18
100
AcDbEntity
  8
0
100
AcDbLine
 10
60.7932
 20
68.8662
 30
0.0
 11
73.4608
 21
68.8662
 31
0.0
  0
LINE
  5
B1
330
18
100
AcDbEntity
  8
0
100
AcDbLine
 10
87.74089999999999
 20
181.534
 30
0.0
 11
75.2594
 21
181.534
 31
0.0
  0
LINE
  5
B2
330
18
100
AcDbEntity
  8
0
100
AcDbLine
 10
87.62590000000001
 20
179.3229999999999
 30
0.0
 11
87.03369999999999
 21
181.534
 31
0.0
  0
LINE
  5
B3
330
18
100
AcDbEntity
  8
0
100
AcDbLine
 10
87.03369999999999
 20
181.534
 30
0.0
 11
86.4413
 21
179.3229999999999
 31
0.0
  0
LINE
  5
B4
330
18
100
AcDbEntity
  8
0
100
AcDbLine
 10
86.4413
 20
179.3229999999999
 30
0.0
 11
87.62590000000001
 21
179.3229999999999
 31
0.0
  0
LINE
  5
B5
330
18
100
AcDbEntity
  8
0
100
AcDbLine
 10
86.4559
 20
71.07689999999999
 30
0.0
 11
87.0481
 21
68.86579999999999
 31
0.0
  0
LINE
  5
B6
330
18
100
AcDbEntity
  8
0
100
AcDbLine
 10
87.0481
 20
68.86579999999999
 30
0.0
 11
87.64050000000001
 21
71.07689999999999
 31
0.0
  0
LINE
  5
B7
330
18
100
AcDbEntity
  8
0
100
AcDbLine
 10
87.64050000000001
 20
71.07689999999999
 30
0.0
 11
86.4559
 21
71.07689999999999
 31
0.0
  0
LINE
  5
B8
330
18
100
AcDbEntity
  8
0
100
AcDbLine
 10
87.04089999999998
 20
181.534
 30
0.0
 11
87.04089999999998
 21
68.8662
 31
0.0
  0
LINE
  5
B9
330
18
100
AcDbEntity
  8
0
100
AcDbLine
 10
66.11920000000001
 20
233.6929999999999
 30
0.0
 11
68.1343
 21
234.432
 31
0.0
  0
LINE
  5
BA
330
18
100
AcDbEntity
  8
0
100
AcDbLine
 10
66.11920000000001
 20
232.4759999999999
 30
0.0
 11
68.1343
 21
233.2149999999999
 31
0.0
  0
LINE
  5
BB
330
18
100
AcDbEntity
  8
0
100
AcDbLine
 10
66.11920000000001
 20
231.259
 30
0.0
 11
68.1343
 21
231.998
 31
0.0
  0
LINE
  5
BC
330
18
100
AcDbEntity
  8
0
100
AcDbLine
 10
66.11920000000001
 20
230.0419999999999
 30
0.0
 11
68.1343
 21
230.7809999999999
 31
0.0
  0
LINE
  5
BD
330
18
100
AcDbEntity
  8
0
100
AcDbLine
 10
66.11920000000001
 20
228.825
 30
0.0
 11
68.1343
 21
229.564
 31
0.0
  0
LINE
  5
BE
330
18
100
AcDbEntity
  8
0
100
AcDbLine
 10
66.11920000000001
 20
227.6079999999999
 30
0.0
 11
68.1343
 21
228.347
 31
0.0
  0
LINE
  5
BF
330
18
100
AcDbEntity
  8
0
100
AcDbLine
 10
66.11920000000001
 20
226.391
 30
0.0
 11
68.1343
 21
227.13
 31
0.0
  0
LINE
  5
C0
330
18
100
AcDbEntity
  8
0
100
AcDbLine
 10
66.11920000000001
 20
225.174
 30
0.0
 11
68.1343
 21
225.9129999999999
 31
0.0
  0
LINE
  5
C1
330
18
100
AcDbEntity
  8
0
100
AcDbLine
 10
66.11920000000001
 20
223.957
 30
0.0
 11
68.1343
 21
224.696
 31
0.0
  0
LINE
  5
C2
330
18
100
AcDbEntity
  8
0
100
AcDbLine
 10
66.11920000000001
 20
222.74
 30
0.0
 11
68.1343
 21
223.479
 31
0.0
  0
LINE
  5
C3
330
18
100
AcDbEntity
  8
0
100
AcDbLine
 10
66.11920000000001
 20
221.523
 30
0.0
 11
68.1343
 21
222.262
 31
0.0
  0
LINE
  5
C4
330
18
100
AcDbEntity
  8
0
100
AcDbLine
 10
67.6268
 20
234.397
 30
0.0
 11
67.6268
 21
220.9429999999999
 31
0.0
  0
LINE
  5
C5
330
18
100
AcDbEntity
  8
0
100
AcDbLine
 10
67.6268
 20
234.397
 30
0.0
 11
67.12659999999999
 21
235.944
 31
0.0
  0
LINE
  5
C6
330
18
100
AcDbEntity
  8
0
100
AcDbLine
 10
67.12659999999999
 20
235.944
 30
0.0
 11
66.6267
 21
234.397
 31
0.0
  0
LINE
  5
C7
330
18
100
AcDbEntity
  8
0
  6
AIGENLINE002
100
AcDbLine
 10
67.12659999999999
 20
218.961
 30
0.0
 11
67.12659999999999
 21
237.673
 31
0.0
  0
LINE
  5
C8
330
18
100
AcDbEntity
  8
0
100
AcDbLine
 10
66.6267
 20
220.9429999999999
 30
0.0
 11
66.6267
 21
234.397
 31
0.0
  0
LINE
  5
C9
330
18
100
AcDbEntity
  8
0
100
AcDbLine
 10
73.4608
 20
220.9429999999999
 30
0.0
 11
73.4608
 21
198.9429999999999
 31
0.0
  0
LINE
  5
CA
330
18
100
AcDbEntity
  8
0
100
AcDbLine
 10
60.7932
 20
220.9429999999999
 30
0.0
 11
60.7932
 21
198.9429999999999
 31
0.0
  0
LINE
  5
CB
330
18
100
AcDbEntity
  8
0
100
AcDbLine
 10
60.7932
 20
220.9429999999999
 30
0.0
 11
73.4608
 21
220.9429999999999
 31
0.0
  0
LINE
  5
CC
330
18
100
AcDbEntity
  8
0
100
AcDbLine
 10
60.7932
 20
198.9429999999999
 30
0.0
 11
73.4608
 21
198.9429999999999
 31
0.0
  0
LINE
  5
CD
330
18
100
AcDbEntity
  8
0
100
AcDbLine
 10
60.7932
 20
169.1999999999999
 30
0.0
 11
73.4608
 21
169.1999999999999
 31
0.0
  0
LINE
  5
CE
330
18
100
AcDbEntity
  8
0
100
AcDbLine
 10
60.7932
 20
181.534
 30
0.0
 11
60.7932
 21
68.8662
 31
0.0
  0
LINE
  5
CF
330
18
100
AcDbEntity
  8
0
100
AcDbLine
 10
73.4608
 20
181.534
 30
0.0
 11
73.4608
 21
68.8662
 31
0.0
  0
LINE
  5
D0
330
18
100
AcDbEntity
  8
0
100
AcDbLine
 10
120.2709999999999
 20
179.534
 30
0.0
 11
140.271
 21
179.534
 31
0.0
  0
LINE
  5
D1
330
18
100
AcDbEntity
  8
0
100
AcDbLine
 10
140.271
 20
169.1999999999999
 30
0.0
 11
140.271
 21
181.534
 31
0.0
  0
LINE
  5
D2
330
18
100
AcDbEntity
  8
0
100
AcDbLine
 10
118.2709999999999
 20
169.1999999999999
 30
0.0
 11
140.271
 21
169.1999999999999
 31
0.0
  0
LINE
  5
D3
330
18
100
AcDbEntity
  8
0
100
AcDbLine
 10
118.2709999999999
 20
181.534
 30
0.0
 11
140.271
 21
181.534
 31
0.0
  0
LINE
  5
D4
330
18
100
AcDbEntity
  8
0
100
AcDbLine
 10
120.2709999999999
 20
179.534
 30
0.0
 11
120.2709999999999
 21
70.8668
 31
0.0
  0
LINE
  5
D5
330
18
100
AcDbEntity
  8
0
100
AcDbLine
 10
118.2709999999999
 20
181.534
 30
0.0
 11
118.2709999999999
 21
68.8662
 31
0.0
  0
LINE
  5
D6
330
18
100
AcDbEntity
  8
_________2
100
AcDbLine
 10
205.301
 20
127.411
 30
0.0
 11
183.551
 21
127.411
 31
0.0
  0
LINE
  5
D7
330
18
100
AcDbEntity
  8
_________2
100
AcDbLine
 10
100.2999999999999
 20
-4.09108
 30
0.0
 11
100.2999999999999
 21
-21.07099999999999
 31
0.0
  0
LINE
  5
D8
330
18
100
AcDbEntity
  8
_________2
100
AcDbLine
 10
100.2999999999999
 20
275.9309999999999
 30
0.0
 11
100.2999999999999
 21
258.911
 31
0.0
  0
LINE
  5
D9
330
18
100
AcDbEntity
  8
_________2
100
AcDbLine
 10
17.04939999999999
 20
127.411
 30
0.0
 11
-4.70103
 21
127.411
 31
0.0
  0
LINE
  5
DA
330
18
100
AcDbEntity
  8
_________2
100
AcDbLine
 10
76.7408
 20
29.8047
 30
0.0
 11
74.55459999999999
 21
29.8047
 31
0.0
  0
LINE
  5
DB
330
18
100
AcDbEntity
  8
_________2
100
AcDbLine
 10
77.2335
 20
29.8047
 30
0.0
 11
76.9813
 21
29.8047
 31
0.0
  0
LINE
  5
DC
330
18
100
AcDbEntity
  8
_________2
100
AcDbLine
 10
77.7262
 20
29.8047
 30
0.0
 11
80.6511
 21
29.8047
 31
0.0
  0
LINE
  5
DD
330
18
100
AcDbEntity
  8
_________2
100
AcDbLine
 10
77.2335
 20
29.8047
 30
0.0
 11
77.48569999999999
 21
29.8047
 31
0.0
  0
LINE
  5
DE
330
18
100
AcDbEntity
  8
_________2
100
AcDbLine
 10
70.8373
 20
29.8047
 30
0.0
 11
68.6503
 21
29.8047
 31
0.0
  0
LINE
  5
DF
330
18
100
AcDbEntity
  8
_________2
100
AcDbLine
 10
71.3293
 20
29.8047
 30
0.0
 11
71.07779999999999
 21
29.8047
 31
0.0
  0
LINE
  5
E0
330
18
100
AcDbEntity
  8
_________2
100
AcDbLine
 10
71.3293
 20
30.2974
 30
0.0
 11
71.3293
 21
32.4844
 31
0.0
  0
LINE
  5
E1
330
18
100
AcDbEntity
  8
_________2
100
AcDbLine
 10
71.3293
 20
29.8047
 30
0.0
 11
71.3293
 21
30.0573
 31
0.0
  0
LINE
  5
E2
330
18
100
AcDbEntity
  8
_________2
100
AcDbLine
 10
71.8219
 20
29.8047
 30
0.0
 11
74.0089
 21
29.8047
 31
0.0
  0
LINE
  5
E3
330
18
100
AcDbEntity
  8
_________2
100
AcDbLine
 10
71.3293
 20
29.8047
 30
0.0
 11
71.5814
 21
29.8047
 31
0.0
  0
LINE
  5
E4
330
18
100
AcDbEntity
  8
_________2
100
AcDbLine
 10
71.3293
 20
29.3128
 30
0.0
 11
71.3293
 21
27.1262
 31
0.0
  0
LINE
  5
E5
330
18
100
AcDbEntity
  8
_________2
100
AcDbLine
 10
71.3293
 20
29.8047
 30
0.0
 11
71.3293
 21
29.5532
 31
0.0
  0
LINE
  5
E6
330
18
100
AcDbEntity
  8
_________2
100
AcDbLine
 10
75.0403
 20
28.5852
 30
0.0
 11
80.21829999999999
 21
27.7204
 31
0.0
  0
LINE
  5
E7
330
18
100
AcDbEntity
  8
_________2
100
AcDbLine
 10
75.0403
 20
31.0247
 30
0.0
 11
80.21829999999999
 21
31.8901
 31
0.0
  0
LINE
  5
E8
330
18
100
AcDbEntity
  8
_________2
100
AcDbLine
 10
80.21829999999999
 20
27.7204
 30
0.0
 11
80.21829999999999
 21
31.8901
 31
0.0
  0
LINE
  5
E9
330
18
100
AcDbEntity
  8
_________2
100
AcDbLine
 10
75.0403
 20
28.5852
 30
0.0
 11
75.0403
 21
31.0247
 31
0.0
  0
ARC
  5
EA
330
18
100
AcDbEntity
  8
_________2
100
AcDbCircle
 10
71.282674
 20
29.757801
 30
0.0
 40
1.267714
100
AcDbArc
 50
2.122084
 51
87.89408399999999
  0
ARC
  5
EB
330
18
100
AcDbEntity
  8
_________2
100
AcDbCircle
 10
71.37581299999999
 20
29.758546
 30
0.0
 40
1.266968
100
AcDbArc
 50
92.10578299999999
 51
177.91037
  0
ARC
  5
EC
330
18
100
AcDbEntity
  8
_________2
100
AcDbCircle
 10
71.376186
 20
29.851671
 30
0.0
 40
1.267368
100
AcDbArc
 50
182.122036
 51
267.877993
  0
ARC
  5
ED
330
18
100
AcDbEntity
  8
_________2
100
AcDbCircle
 10
71.28236899999999
 20
29.852348
 30
0.0
 40
1.268043999999999
100
AcDbArc
 50
272.119164
 51
357.8484849999999
  0
ARC
  5
EE
330
18
100
AcDbEntity
  8
_________2
100
AcDbCircle
 10
71.24889
 20
29.72473199999999
 30
0.0
 40
2.166831
100
AcDbArc
 50
2.116143999999999
 51
87.874379
  0
ARC
  5
EF
330
18
100
AcDbEntity
  8
_________2
100
AcDbCircle
 10
71.408928
 20
29.726146
 30
0.0
 40
2.165392999999999
100
AcDbArc
 50
92.108509
 51
177.919865
  0
ARC
  5
F0
330
18
100
AcDbEntity
  8
_________2
100
AcDbCircle
 10
71.409267
 20
29.884752
 30
0.0
 40
2.165783
100
AcDbArc
 50
182.117133
 51
267.882897
  0
ARC
  5
F1
330
18
100
AcDbEntity
  8
_________2
100
AcDbCircle
 10
71.24928699999999
 20
29.88542999999999
 30
0.0
 40
2.166459
100
AcDbArc
 50
272.115468
 51
357.865604
  0
TEXT
  5
F2
330
18
100
AcDbEntity
  8
_________2
100
AcDbText
 10
104.605
 20
1.67949
 30
0.0
 40
3.09234
  1
図番
 41
0.5
100
AcDbText
  0
LINE
  5
F3
330
18
100
AcDbEntity
  8
_________2
100
AcDbLine
 10
103.55
 20
5.908719999999999
 30
0.0
 11
183.551
 21
5.908719999999999
 31
0.0
  0
TEXT
  5
F4
330
18
100
AcDbEntity
  8
_________2
100
AcDbText
 10
104.605
 20
11.67929999999999
 30
0.0
 40
3.09234
  1
品番
 41
0.5
100
AcDbText
  0
TEXT
  5
F5
330
18
100
AcDbEntity
  8
_________2
100
AcDbText
 10
104.605
 20
31.8184
 30
0.0
 40
3.09234
  1
名称
 41
0.5
100
AcDbText
  0
TEXT
  5
F6
330
18
100
AcDbEntity
  8
_________2
100
AcDbText
 10
91.84495833333334
 20
26.8223
 30
0.0
 40
3.65458
  1
mm
 41
0.5
 72
     1
 11
93.36769999999999
 21
26.8223
 31
0.0
100
AcDbText
  0
TEXT
  5
F7
330
18
100
AcDbEntity
  8
_________2
100
AcDbText
 10
85.64299999999999
 20
31.8184
 30
0.0
 40
3.09234
  1
単位
 41
0.5
100
AcDbText
  0
TEXT
  5
F8
330
18
100
AcDbEntity
  8
_________2
100
AcDbText
 10
85.64299999999999
 20
19.41079999999999
 30
0.0
 40
3.09234
  1
尺度
 41
0.5
100
AcDbText
  0
TEXT
  5
F9
330
18
100
AcDbEntity
  8
_________2
100
AcDbText
 10
90.54855866666668
 20
13.21819999999999
 30
0.0
 40
3.65458
  1
1 ： 3
 41
0.5
 72
     1
 11
93.9595
 21
13.21819999999999
 31
0.0
100
AcDbText
  0
TEXT
  5
FA
330
18
100
AcDbEntity
  8
_________2
100
AcDbText
 10
136.1705625
 20
9.1082
 30
0.0
 40
3.9357
  1
EC.S1770R
 41
0.5
 72
     1
 11
143.55
 21
9.1082
 31
0.0
100
AcDbText
  0
TEXT
  5
FB
330
18
100
AcDbEntity
  8
_________2
100
AcDbText
 10
136.4985375
 20
-0.8926299999999999
 30
0.0
 40
3.9357
  1
ECS1770R
 41
0.5
 72
     1
 11
143.55
 21
-0.8926299999999999
 31
0.0
100
AcDbText
  0
TEXT
  5
FC
330
18
100
AcDbEntity
  8
_________2
100
AcDbText
 10
109.179
 20
24.2261
 30
0.0
 40
3.9357
  1
タオルバー
 41
0.5
100
AcDbText
  0
TEXT
  5
FD
330
18
100
AcDbEntity
  8
_________2
100
AcDbText
 10
39.303281
 20
13.6034
 30
0.0
 40
3.65458
  1
田尻
 41
0.5
 72
     1
 11
41.3133
 21
13.6034
 31
0.0
100
AcDbText
  0
TEXT
  5
FE
330
18
100
AcDbEntity
  8
_________2
100
AcDbText
 10
20.79019066666667
 20
13.6034
 30
0.0
 40
3.65458
  1
石原
 41
0.5
 72
     1
 11
22.7393
 21
13.6034
 31
0.0
100
AcDbText
  0
TEXT
  5
FF
330
18
100
AcDbEntity
  8
_________2
100
AcDbText
 10
67.7856
 20
13.21819999999999
 30
0.0
 40
3.65458
  1
09.06.09
 41
0.5
100
AcDbText
  0
TEXT
  5
100
330
18
100
AcDbEntity
  8
_________2
100
AcDbText
 10
66.5929
 20
19.41079999999999
 30
0.0
 40
3.09234
  1
日付
 41
0.5
100
AcDbText
  0
TEXT
  5
101
330
18
100
AcDbEntity
  8
_________2
100
AcDbText
 10
29.63919999999999
 20
19.41079999999999
 30
0.0
 40
3.09234
  1
検図
 41
0.5
100
AcDbText
  0
TEXT
  5
102
330
18
100
AcDbEntity
  8
_________2
100
AcDbText
 10
18.0209
 20
5.21143
 30
0.0
 40
3.09234
  1
備考
 41
0.5
100
AcDbText
  0
TEXT
  5
103
330
18
100
AcDbEntity
  8
_________2
100
AcDbText
 10
18.0209
 20
19.41079999999999
 30
0.0
 40
3.09234
  1
製図
 41
0.5
100
AcDbText
  0
TEXT
  5
104
330
18
100
AcDbEntity
  8
_________2
100
AcDbText
 10
23.863231
 20
27.9368
 30
0.0
 40
4.497939999999999
  1
セラトレーディング株式会社
 41
0.5
 72
     1
 11
41.1803
 21
27.9368
 31
0.0
100
AcDbText
  0
LINE
  5
105
330
18
100
AcDbEntity
  8
_________2
100
AcDbLine
 10
183.551
 20
-4.09108
 30
0.0
 11
17.04939999999999
 21
-4.09108
 31
0.0
  0
LINE
  5
106
330
18
100
AcDbEntity
  8
_________2
100
AcDbLine
 10
17.04939999999999
 20
-4.09108
 30
0.0
 11
17.04939999999999
 21
258.911
 31
0.0
  0
LINE
  5
107
330
18
100
AcDbEntity
  8
_________2
100
AcDbLine
 10
17.04939999999999
 20
258.911
 30
0.0
 11
183.551
 21
258.911
 31
0.0
  0
LINE
  5
108
330
18
100
AcDbEntity
  8
_________2
100
AcDbLine
 10
183.551
 20
258.911
 30
0.0
 11
183.551
 21
-4.09108
 31
0.0
  0
LINE
  5
109
330
18
100
AcDbEntity
  8
_________2
100
AcDbLine
 10
65.5497
 20
9.409299999999999
 30
0.0
 11
65.5497
 21
35.9091
 31
0.0
  0
LINE
  5
10A
330
18
100
AcDbEntity
  8
_________2
100
AcDbLine
 10
84.54959999999999
 20
9.409299999999999
 30
0.0
 11
84.54959999999999
 21
35.9091
 31
0.0
  0
LINE
  5
10B
330
18
100
AcDbEntity
  8
_________2
100
AcDbLine
 10
103.55
 20
-4.09108
 30
0.0
 11
103.55
 21
35.9091
 31
0.0
  0
LINE
  5
10C
330
18
100
AcDbEntity
  8
_________2
100
AcDbLine
 10
28.54919999999999
 20
9.409299999999999
 30
0.0
 11
28.54919999999999
 21
23.4092
 31
0.0
  0
LINE
  5
10D
330
18
100
AcDbEntity
  8
_________2
100
AcDbLine
 10
17.04939999999999
 20
9.409299999999999
 30
0.0
 11
103.55
 21
9.409299999999999
 31
0.0
  0
LINE
  5
10E
330
18
100
AcDbEntity
  8
_________2
100
AcDbLine
 10
17.04939999999999
 20
23.4092
 30
0.0
 11
103.55
 21
23.4092
 31
0.0
  0
LINE
  5
10F
330
18
100
AcDbEntity
  8
_________2
100
AcDbLine
 10
103.55
 20
15.9085
 30
0.0
 11
183.551
 21
15.9085
 31
0.0
  0
LINE
  5
110
330
18
100
AcDbEntity
  8
_________2
100
AcDbLine
 10
17.04939999999999
 20
35.9091
 30
0.0
 11
183.551
 21
35.9091
 31
0.0
  0
ENDSEC
  0
SECTION
  2
OBJECTS
  0
DICTIONARY
  5
C
330
0
100
AcDbDictionary
281
     1
  3
ACAD_GROUP
350
D
  3
ACAD_MLINESTYLE
350
1B
  3
ACAD_PLOTSTYLENAME
350
114
  3
ACAD_LAYOUT
350
116
  3
ACAD_PLOTSETTINGS
350
117
  0
DICTIONARY
  5
D
102
{ACAD_REACTORS
330
C
102
}
330
C
100
AcDbDictionary
281
     1
  0
DICTIONARY
  5
1B
102
{ACAD_REACTORS
330
C
102
}
330
C
100
AcDbDictionary
281
     1
  3
STANDARD
350
1C
  0
ACDBDICTIONARYWDFLT
  5
114
102
{ACAD_REACTORS
330
C
102
}
330
C
100
AcDbDictionary
281
     1
  3
Normal
350
115
100
AcDbDictionaryWithDefault
340
115
  0
DICTIONARY
  5
116
102
{ACAD_REACTORS
330
C
102
}
330
C
100
AcDbDictionary
281
     1
  3
Model
350
118
  3
ﾚｲｱｳﾄ1
350
119
  0
DICTIONARY
  5
117
102
{ACAD_REACTORS
330
C
102
}
330
C
100
AcDbDictionary
281
     1
  0
MLINESTYLE
  5
1C
102
{ACAD_REACTORS
330
1B
102
}
330
1B
100
AcDbMlineStyle
  2
STANDARD
 70
     0
  3

 62
   256
 51
90.0
 52
90.0
 71
     2
 49
0.5
 62
   256
  6
BYLAYER
 49
-0.5
 62
   256
  6
BYLAYER
  0
ACDBPLACEHOLDER
  5
115
102
{ACAD_REACTORS
330
114
102
}
330
114
  0
LAYOUT
  5
118
102
{ACAD_REACTORS
330
116
102
}
330
116
100
AcDbPlotSettings
  1

  2
Canon LASER SHOT LBP-880
  4

  6

 40
0.0
 41
0.0
 42
0.0
 43
0.0
 44
0.0
 45
0.0
 46
0.0
 47
0.0
 48
0.0
 49
0.0
140
0.0
141
0.0
142
1.0
143
1.0
 70
  1712
 72
     0
 73
     0
 74
     0
  7

 75
     0
147
1.0
148
0.0
149
0.0
100
AcDbLayout
  1
Model
 70
     1
 71
     0
 10
0.0
 20
0.0
 11
12.0
 21
9.0
 12
0.0
 22
0.0
 32
0.0
 14
0.0
 24
0.0
 34
0.0
 15
0.0
 25
0.0
 35
0.0
146
0.0
 13
0.0
 23
0.0
 33
0.0
 16
1.0
 26
0.0
 36
0.0
 17
0.0
 27
1.0
 37
0.0
 76
     0
330
18
  0
LAYOUT
  5
119
102
{ACAD_REACTORS
330
116
102
}
330
116
100
AcDbPlotSettings
  1

  2
Canon LASER SHOT LBP-880
  4

  6

 40
0.0
 41
0.0
 42
0.0
 43
0.0
 44
0.0
 45
0.0
 46
0.0
 47
0.0
 48
0.0
 49
0.0
140
0.0
141
0.0
142
1.0
143
1.0
 70
   688
 72
     0
 73
     0
 74
     5
  7

 75
    16
147
1.0
148
0.0
149
0.0
100
AcDbLayout
  1
ﾚｲｱｳﾄ1
 70
     1
 71
     1
 10
0.0
 20
0.0
 11
12.0
 21
9.0
 12
0.0
 22
0.0
 32
0.0
 14
1.000000000000000E+20
 24
1.000000000000000E+20
 34
1.000000000000000E+20
 15
-1.000000000000000E+20
 25
-1.000000000000000E+20
 35
-1.000000000000000E+20
146
0.0
 13
0.0
 23
0.0
 33
0.0
 16
1.0
 26
0.0
 36
0.0
 17
0.0
 27
1.0
 37
0.0
 76
     0
330
15
  0
ENDSEC
  0
EOF
