  0
SECTION
  2
HEADER
  9
$ACADVER
  1
AC1015
  9
$ACADMAINTVER
 70
     6
  9
$DWGCODEPAGE
  3
ANSI_932
  9
$INSBASE
 10
0.0
 20
0.0
 30
0.0
  9
$EXTMIN
 10
-4.70052
 20
-21.0714
 30
0.0
  9
$EXTMAX
 10
205.301
 20
275.9309999999999
 30
0.0
  9
$LIMMIN
 10
0.0
 20
0.0
  9
$LIMMAX
 10
12.0
 20
9.0
  9
$ORTHOMODE
 70
     0
  9
$REGENMODE
 70
     1
  9
$FILLMODE
 70
     1
  9
$QTEXTMODE
 70
     0
  9
$MIRRTEXT
 70
     1
  9
$LTSCALE
 40
1.0
  9
$ATTMODE
 70
     1
  9
$TEXTSIZE
 40
0.0
  9
$TRACEWID
 40
0.05
  9
$TEXTSTYLE
  7
STANDARD
  9
$CLAYER
  8
0
  9
$CELTYPE
  6
CONTINUOUS
  9
$CECOLOR
 62
   256
  9
$CELTSCALE
 40
1.0
  9
$DISPSILH
 70
     0
  9
$DIMSCALE
 40
1.0
  9
$DIMASZ
 40
0.18
  9
$DIMEXO
 40
0.0625
  9
$DIMDLI
 40
0.38
  9
$DIMRND
 40
0.0
  9
$DIMDLE
 40
0.0
  9
$DIMEXE
 40
0.18
  9
$DIMTP
 40
0.0
  9
$DIMTM
 40
0.0
  9
$DIMTXT
 40
0.18
  9
$DIMCEN
 40
0.09
  9
$DIMTSZ
 40
0.0
  9
$DIMTOL
 70
     0
  9
$DIMLIM
 70
     0
  9
$DIMTIH
 70
     1
  9
$DIMTOH
 70
     1
  9
$DIMSE1
 70
     0
  9
$DIMSE2
 70
     0
  9
$DIMTAD
 70
     0
  9
$DIMZIN
 70
     0
  9
$DIMBLK
  1

  9
$DIMASO
 70
     1
  9
$DIMSHO
 70
     1
  9
$DIMPOST
  1

  9
$DIMAPOST
  1

  9
$DIMALT
 70
     0
  9
$DIMALTD
 70
     2
  9
$DIMALTF
 40
25.4
  9
$DIMLFAC
 40
1.0
  9
$DIMTOFL
 70
     0
  9
$DIMTVP
 40
0.0
  9
$DIMTIX
 70
     0
  9
$DIMSOXD
 70
     0
  9
$DIMSAH
 70
     0
  9
$DIMBLK1
  1

  9
$DIMBLK2
  1

  9
$DIMSTYLE
  2
STANDARD
  9
$DIMCLRD
 70
     0
  9
$DIMCLRE
 70
     0
  9
$DIMCLRT
 70
     0
  9
$DIMTFAC
 40
1.0
  9
$DIMGAP
 40
0.09
  9
$DIMJUST
 70
     0
  9
$DIMSD1
 70
     0
  9
$DIMSD2
 70
     0
  9
$DIMTOLJ
 70
     1
  9
$DIMTZIN
 70
     0
  9
$DIMALTZ
 70
     0
  9
$DIMALTTZ
 70
     0
  9
$DIMUPT
 70
     0
  9
$DIMDEC
 70
     4
  9
$DIMTDEC
 70
     4
  9
$DIMALTU
 70
     2
  9
$DIMALTTD
 70
     2
  9
$DIMTXSTY
  7
STANDARD
  9
$DIMAUNIT
 70
     0
  9
$DIMADEC
 70
     0
  9
$DIMALTRND
 40
0.0
  9
$DIMAZIN
 70
     0
  9
$DIMDSEP
 70
    46
  9
$DIMATFIT
 70
     3
  9
$DIMFRAC
 70
     0
  9
$DIMLDRBLK
  1

  9
$DIMLUNIT
 70
     2
  9
$DIMLWD
 70
    -2
  9
$DIMLWE
 70
    -2
  9
$DIMTMOVE
 70
     0
  9
$LUNITS
 70
     2
  9
$LUPREC
 70
     4
  9
$SKETCHINC
 40
0.1
  9
$FILLETRAD
 40
0.0
  9
$AUNITS
 70
     0
  9
$AUPREC
 70
     0
  9
$MENU
  1
.
  9
$ELEVATION
 40
0.0
  9
$PELEVATION
 40
0.0
  9
$THICKNESS
 40
0.0
  9
$LIMCHECK
 70
     0
  9
$CHAMFERA
 40
0.0
  9
$CHAMFERB
 40
0.0
  9
$CHAMFERC
 40
0.0
  9
$CHAMFERD
 40
0.0
  9
$SKPOLY
 70
     0
  9
$TDCREATE
 40
2444972.375000000
  9
$TDUCREATE
 40
2444972.000000000
  9
$TDUPDATE
 40
2455216.787949606
  9
$TDUUPDATE
 40
2455216.412949606
  9
$TDINDWG
 40
0.0135397917
  9
$TDUSRTIMER
 40
0.0135397917
  9
$USRTIMER
 70
     1
  9
$ANGBASE
 50
0.0
  9
$ANGDIR
 70
     0
  9
$PDMODE
 70
     0
  9
$PDSIZE
 40
0.0
  9
$PLINEWID
 40
0.0
  9
$SPLFRAME
 70
     0
  9
$SPLINETYPE
 70
     6
  9
$SPLINESEGS
 70
     8
  9
$HANDSEED
  5
AE
  9
$SURFTAB1
 70
     6
  9
$SURFTAB2
 70
     6
  9
$SURFTYPE
 70
     6
  9
$SURFU
 70
     6
  9
$SURFV
 70
     6
  9
$UCSBASE
  2

  9
$UCSNAME
  2

  9
$UCSORG
 10
0.0
 20
0.0
 30
0.0
  9
$UCSXDIR
 10
1.0
 20
0.0
 30
0.0
  9
$UCSYDIR
 10
0.0
 20
1.0
 30
0.0
  9
$UCSORTHOREF
  2

  9
$UCSORTHOVIEW
 70
     0
  9
$UCSORGTOP
 10
0.0
 20
0.0
 30
0.0
  9
$UCSORGBOTTOM
 10
0.0
 20
0.0
 30
0.0
  9
$UCSORGLEFT
 10
0.0
 20
0.0
 30
0.0
  9
$UCSORGRIGHT
 10
0.0
 20
0.0
 30
0.0
  9
$UCSORGFRONT
 10
0.0
 20
0.0
 30
0.0
  9
$UCSORGBACK
 10
0.0
 20
0.0
 30
0.0
  9
$PUCSBASE
  2

  9
$PUCSNAME
  2

  9
$PUCSORG
 10
0.0
 20
0.0
 30
0.0
  9
$PUCSXDIR
 10
1.0
 20
0.0
 30
0.0
  9
$PUCSYDIR
 10
0.0
 20
1.0
 30
0.0
  9
$PUCSORTHOREF
  2

  9
$PUCSORTHOVIEW
 70
     0
  9
$PUCSORGTOP
 10
0.0
 20
0.0
 30
0.0
  9
$PUCSORGBOTTOM
 10
0.0
 20
0.0
 30
0.0
  9
$PUCSORGLEFT
 10
0.0
 20
0.0
 30
0.0
  9
$PUCSORGRIGHT
 10
0.0
 20
0.0
 30
0.0
  9
$PUCSORGFRONT
 10
0.0
 20
0.0
 30
0.0
  9
$PUCSORGBACK
 10
0.0
 20
0.0
 30
0.0
  9
$USERI1
 70
     0
  9
$USERI2
 70
     0
  9
$USERI3
 70
     0
  9
$USERI4
 70
     0
  9
$USERI5
 70
     0
  9
$USERR1
 40
0.0
  9
$USERR2
 40
0.0
  9
$USERR3
 40
0.0
  9
$USERR4
 40
0.0
  9
$USERR5
 40
0.0
  9
$WORLDVIEW
 70
     1
  9
$SHADEDGE
 70
     3
  9
$SHADEDIF
 70
    70
  9
$TILEMODE
 70
     1
  9
$MAXACTVP
 70
    48
  9
$PINSBASE
 10
0.0
 20
0.0
 30
0.0
  9
$PLIMCHECK
 70
     0
  9
$PEXTMIN
 10
1.000000000000000E+20
 20
1.000000000000000E+20
 30
1.000000000000000E+20
  9
$PEXTMAX
 10
-1.000000000000000E+20
 20
-1.000000000000000E+20
 30
-1.000000000000000E+20
  9
$PLIMMIN
 10
0.0
 20
0.0
  9
$PLIMMAX
 10
12.0
 20
9.0
  9
$UNITMODE
 70
     0
  9
$VISRETAIN
 70
     1
  9
$PLINEGEN
 70
     0
  9
$PSLTSCALE
 70
     1
  9
$TREEDEPTH
 70
  3020
  9
$CMLSTYLE
  2
STANDARD
  9
$CMLJUST
 70
     0
  9
$CMLSCALE
 40
1.0
  9
$PROXYGRAPHICS
 70
     1
  9
$MEASUREMENT
 70
     0
  9
$CELWEIGHT
370
    -1
  9
$ENDCAPS
280
     0
  9
$JOINSTYLE
280
     0
  9
$LWDISPLAY
290
     0
  9
$INSUNITS
 70
     0
  9
$HYPERLINKBASE
  1

  9
$STYLESHEET
  1

  9
$XEDIT
290
     1
  9
$CEPSNTYPE
380
     0
  9
$PSTYLEMODE
290
     1
  9
$FINGERPRINTGUID
  2
{7218898A-BFF0-4327-B06B-59C02748A435}
  9
$VERSIONGUID
  2
{D99C490C-0297-4DF0-B0DF-AAF89584F34A}
  9
$EXTNAMES
290
     1
  9
$PSVPSCALE
 40
0.0
  9
$OLESTARTUP
290
     0
  0
ENDSEC
  0
SECTION
  2
CLASSES
  0
CLASS
  1
ACDBDICTIONARYWDFLT
  2
AcDbDictionaryWithDefault
  3
AutoCAD 2000
 90
        0
280
     0
281
     0
  0
CLASS
  1
ACDBPLACEHOLDER
  2
AcDbPlaceHolder
  3
AutoCAD 2000
 90
        0
280
     0
281
     0
  0
CLASS
  1
LAYOUT
  2
AcDbLayout
  3
AutoCAD 2000
 90
        0
280
     0
281
     0
  0
ENDSEC
  0
SECTION
  2
TABLES
  0
TABLE
  2
VPORT
  5
8
330
0
100
AcDbSymbolTable
 70
     2
  0
VPORT
  5
AD
330
8
100
AcDbSymbolTableRecord
100
AcDbViewportTableRecord
  2
*Active
 70
     0
 10
0.0
 20
0.0
 11
1.0
 21
1.0
 12
124.5026516713374
 22
127.4298006915125
 13
0.0
 23
0.0
 14
1.0
 24
1.0
 15
0.0
 25
0.0
 16
0.0
 26
0.0
 36
1.0
 17
0.0
 27
0.0
 37
0.0
 40
300.5422922767558
 41
1.912109375
 42
50.0
 43
0.0
 44
0.0
 50
0.0
 51
0.0
 71
     0
 72
   100
 73
     1
 74
     1
 75
     0
 76
     0
 77
     0
 78
     0
281
     0
 65
     1
110
0.0
120
0.0
130
0.0
111
1.0
121
0.0
131
0.0
112
0.0
122
1.0
132
0.0
 79
     0
146
0.0
  0
ENDTAB
  0
TABLE
  2
LTYPE
  5
5
330
0
100
AcDbSymbolTable
 70
     2
  0
LTYPE
  5
12
330
5
100
AcDbSymbolTableRecord
100
AcDbLinetypeTableRecord
  2
BYBLOCK
 70
     0
  3

 72
    65
 73
     0
 40
0.0
  0
LTYPE
  5
13
330
5
100
AcDbSymbolTableRecord
100
AcDbLinetypeTableRecord
  2
BYLAYER
 70
     0
  3

 72
    65
 73
     0
 40
0.0
  0
LTYPE
  5
14
330
5
100
AcDbSymbolTableRecord
100
AcDbLinetypeTableRecord
  2
CONTINUOUS
 70
     0
  3
Solid line
 72
    65
 73
     0
 40
0.0
  0
LTYPE
  5
1F
330
5
100
AcDbSymbolTableRecord
100
AcDbLinetypeTableRecord
  2
AIGENLINE001
 70
     0
  3
generate AI->DXF Converter
 72
    65
 73
     4
 40
5.856144999999999
 49
3.5278
 74
     0
 49
-0.776115
 74
     0
 49
0.776115
 74
     0
 49
-0.776115
 74
     0
  0
ENDTAB
  0
TABLE
  2
LAYER
  5
2
330
0
100
AcDbSymbolTable
 70
     2
  0
LAYER
  5
E
330
2
100
AcDbSymbolTableRecord
100
AcDbLayerTableRecord
  2
0
 70
     0
 62
     7
  6
CONTINUOUS
370
    -3
390
A0
  0
LAYER
  5
20
330
2
100
AcDbSymbolTableRecord
100
AcDbLayerTableRecord
  2
_________2
 70
     0
 62
     7
  6
CONTINUOUS
370
    -3
390
A0
  0
ENDTAB
  0
TABLE
  2
STYLE
  5
3
330
0
100
AcDbSymbolTable
 70
     1
  0
STYLE
  5
F
330
3
100
AcDbSymbolTableRecord
100
AcDbTextStyleTableRecord
  2
STANDARD
 70
     0
 40
0.0
 41
0.0
 50
0.0
 71
     0
 42
0.0
  3
TXT
  4
BIGFONT
  0
ENDTAB
  0
TABLE
  2
VIEW
  5
6
330
0
100
AcDbSymbolTable
 70
     0
  0
ENDTAB
  0
TABLE
  2
UCS
  5
7
330
0
100
AcDbSymbolTable
 70
     0
  0
ENDTAB
  0
TABLE
  2
APPID
  5
9
330
0
100
AcDbSymbolTable
 70
     1
  0
APPID
  5
10
330
9
100
AcDbSymbolTableRecord
100
AcDbRegAppTableRecord
  2
ACAD
 70
     0
  0
ENDTAB
  0
TABLE
  2
DIMSTYLE
  5
A
330
0
100
AcDbSymbolTable
 70
     1
100
AcDbDimStyleTable
 71
     0
  0
DIMSTYLE
105
9C
330
A
100
AcDbSymbolTableRecord
100
AcDbDimStyleTableRecord
  2
STANDARD
 70
     0
340
F
  0
ENDTAB
  0
TABLE
  2
BLOCK_RECORD
  5
1
330
0
100
AcDbSymbolTable
 70
     0
  0
BLOCK_RECORD
  5
18
330
1
100
AcDbSymbolTableRecord
100
AcDbBlockTableRecord
  2
*MODEL_SPACE
340
A3
  0
BLOCK_RECORD
  5
15
330
1
100
AcDbSymbolTableRecord
100
AcDbBlockTableRecord
  2
*PAPER_SPACE
340
A4
  0
ENDTAB
  0
ENDSEC
  0
SECTION
  2
BLOCKS
  0
BLOCK
  5
19
330
18
100
AcDbEntity
  8
0
100
AcDbBlockBegin
  2
*MODEL_SPACE
 70
     0
 10
0.0
 20
0.0
 30
0.0
  3
*MODEL_SPACE
  1

  0
ENDBLK
  5
1A
330
18
100
AcDbEntity
  8
0
100
AcDbBlockEnd
  0
BLOCK
  5
16
330
15
100
AcDbEntity
 67
     1
  8
0
100
AcDbBlockBegin
  2
*PAPER_SPACE
 70
     0
 10
0.0
 20
0.0
 30
0.0
  3
*PAPER_SPACE
  1

  0
ENDBLK
  5
17
330
15
100
AcDbEntity
 67
     1
  8
0
100
AcDbBlockEnd
  0
ENDSEC
  0
SECTION
  2
ENTITIES
  0
TEXT
  5
22
330
18
100
AcDbEntity
  8
0
100
AcDbText
 10
41.4186
 20
140.99722
 30
0.0
 40
3.09234
  1
16
 50
90.0
 41
0.5
 72
     1
 11
41.4186
 21
142.0279999999999
 31
0.0
100
AcDbText
  0
TEXT
  5
23
330
18
100
AcDbEntity
  8
0
100
AcDbText
 10
63.13612
 20
119.524
 30
0.0
 40
3.09234
  1
16
 41
0.5
 72
     1
 11
64.1669
 21
119.524
 31
0.0
100
AcDbText
  0
TEXT
  5
24
330
18
100
AcDbEntity
  8
0
100
AcDbText
 10
113.9555249999999
 20
119.524
 30
0.0
 40
3.09234
  1
45
 41
0.5
 72
     1
 11
115.244
 21
119.524
 31
0.0
100
AcDbText
  0
LINE
  5
25
330
18
100
AcDbEntity
  8
0
100
AcDbLine
 10
135.5329999999999
 20
117.974
 30
0.0
 11
137.7439999999999
 21
118.567
 31
0.0
  0
LINE
  5
26
330
18
100
AcDbEntity
  8
0
100
AcDbLine
 10
137.7439999999999
 20
118.567
 30
0.0
 11
135.5329999999999
 21
119.1589999999999
 31
0.0
  0
LINE
  5
27
330
18
100
AcDbEntity
  8
0
100
AcDbLine
 10
135.5329999999999
 20
119.1589999999999
 30
0.0
 11
135.5329999999999
 21
117.974
 31
0.0
  0
LINE
  5
28
330
18
100
AcDbEntity
  8
0
100
AcDbLine
 10
94.95549999999999
 20
119.1449999999999
 30
0.0
 11
92.7439
 21
118.552
 31
0.0
  0
LINE
  5
29
330
18
100
AcDbEntity
  8
0
100
AcDbLine
 10
92.7439
 20
118.552
 30
0.0
 11
94.95549999999999
 21
117.9599999999999
 31
0.0
  0
LINE
  5
2A
330
18
100
AcDbEntity
  8
0
100
AcDbLine
 10
94.95549999999999
 20
117.9599999999999
 30
0.0
 11
94.95549999999999
 21
119.1449999999999
 31
0.0
  0
LINE
  5
2B
330
18
100
AcDbEntity
  8
0
100
AcDbLine
 10
137.7439999999999
 20
118.552
 30
0.0
 11
92.7439
 21
118.552
 31
0.0
  0
LINE
  5
2C
330
18
100
AcDbEntity
  8
0
100
AcDbLine
 10
137.7439999999999
 20
117.552
 30
0.0
 11
137.7439999999999
 21
133.0279999999999
 31
0.0
  0
LINE
  5
2D
330
18
100
AcDbEntity
  8
0
100
AcDbLine
 10
92.7439
 20
117.552
 30
0.0
 11
92.7439
 21
133.0279999999999
 31
0.0
  0
LINE
  5
2E
330
18
100
AcDbEntity
  8
0
100
AcDbLine
 10
41.9713
 20
136.2389999999999
 30
0.0
 11
42.56389999999999
 21
134.0279999999999
 31
0.0
  0
LINE
  5
2F
330
18
100
AcDbEntity
  8
0
100
AcDbLine
 10
42.56389999999999
 20
134.0279999999999
 30
0.0
 11
43.1565
 21
136.2389999999999
 31
0.0
  0
LINE
  5
30
330
18
100
AcDbEntity
  8
0
100
AcDbLine
 10
43.1565
 20
136.2389999999999
 30
0.0
 11
41.9713
 21
136.2389999999999
 31
0.0
  0
LINE
  5
31
330
18
100
AcDbEntity
  8
0
100
AcDbLine
 10
43.14199999999999
 20
147.816
 30
0.0
 11
42.5494
 21
150.028
 31
0.0
  0
LINE
  5
32
330
18
100
AcDbEntity
  8
0
100
AcDbLine
 10
42.5494
 20
150.028
 30
0.0
 11
41.95689999999999
 21
147.816
 31
0.0
  0
LINE
  5
33
330
18
100
AcDbEntity
  8
0
100
AcDbLine
 10
41.95689999999999
 20
147.816
 30
0.0
 11
43.14199999999999
 21
147.816
 31
0.0
  0
LINE
  5
34
330
18
100
AcDbEntity
  8
0
100
AcDbLine
 10
42.5494
 20
134.0279999999999
 30
0.0
 11
42.5494
 21
150.028
 31
0.0
  0
LINE
  5
35
330
18
100
AcDbEntity
  8
0
100
AcDbLine
 10
41.56399999999999
 20
134.0279999999999
 30
0.0
 11
55.0668
 21
134.0279999999999
 31
0.0
  0
LINE
  5
36
330
18
100
AcDbEntity
  8
0
100
AcDbLine
 10
41.56399999999999
 20
150.028
 30
0.0
 11
55.0668
 21
150.028
 31
0.0
  0
LINE
  5
37
330
18
100
AcDbEntity
  8
0
100
AcDbLine
 10
69.95529999999999
 20
117.974
 30
0.0
 11
72.16689999999999
 21
118.567
 31
0.0
  0
LINE
  5
38
330
18
100
AcDbEntity
  8
0
100
AcDbLine
 10
72.16689999999999
 20
118.567
 30
0.0
 11
69.95529999999999
 21
119.1589999999999
 31
0.0
  0
LINE
  5
39
330
18
100
AcDbEntity
  8
0
100
AcDbLine
 10
69.95529999999999
 20
119.1589999999999
 30
0.0
 11
69.95529999999999
 21
117.974
 31
0.0
  0
LINE
  5
3A
330
18
100
AcDbEntity
  8
0
100
AcDbLine
 10
58.37839999999999
 20
119.1449999999999
 30
0.0
 11
56.1668
 21
118.552
 31
0.0
  0
LINE
  5
3B
330
18
100
AcDbEntity
  8
0
100
AcDbLine
 10
56.1668
 20
118.552
 30
0.0
 11
58.37839999999999
 21
117.9599999999999
 31
0.0
  0
LINE
  5
3C
330
18
100
AcDbEntity
  8
0
100
AcDbLine
 10
58.37839999999999
 20
117.9599999999999
 30
0.0
 11
58.37839999999999
 21
119.1449999999999
 31
0.0
  0
LINE
  5
3D
330
18
100
AcDbEntity
  8
0
100
AcDbLine
 10
72.16689999999999
 20
118.552
 30
0.0
 11
56.1668
 21
118.552
 31
0.0
  0
LINE
  5
3E
330
18
100
AcDbEntity
  8
0
100
AcDbLine
 10
72.16689999999999
 20
117.552
 30
0.0
 11
72.16689999999999
 21
133.0279999999999
 31
0.0
  0
LINE
  5
3F
330
18
100
AcDbEntity
  8
0
100
AcDbLine
 10
56.1668
 20
117.552
 30
0.0
 11
56.1668
 21
133.0279999999999
 31
0.0
  0
LINE
  5
40
330
18
100
AcDbEntity
  8
0
100
AcDbLine
 10
158.2089999999999
 20
144.7939999999999
 30
0.0
 11
156.472
 21
139.2609999999999
 31
0.0
  0
LINE
  5
41
330
18
100
AcDbEntity
  8
0
100
AcDbLine
 10
156.2089999999999
 20
144.7939999999999
 30
0.0
 11
154.4729999999999
 21
139.2609999999999
 31
0.0
  0
LINE
  5
42
330
18
100
AcDbEntity
  8
0
100
AcDbLine
 10
154.2089999999999
 20
144.7939999999999
 30
0.0
 11
152.472
 21
139.2609999999999
 31
0.0
  0
LINE
  5
43
330
18
100
AcDbEntity
  8
0
100
AcDbLine
 10
152.209
 20
144.7939999999999
 30
0.0
 11
150.472
 21
139.2609999999999
 31
0.0
  0
LINE
  5
44
330
18
100
AcDbEntity
  8
0
100
AcDbLine
 10
150.209
 20
144.7939999999999
 30
0.0
 11
148.472
 21
139.2609999999999
 31
0.0
  0
LINE
  5
45
330
18
100
AcDbEntity
  8
0
100
AcDbLine
 10
148.209
 20
144.7939999999999
 30
0.0
 11
146.4719999999999
 21
139.2609999999999
 31
0.0
  0
LINE
  5
46
330
18
100
AcDbEntity
  8
0
100
AcDbLine
 10
146.209
 20
144.7939999999999
 30
0.0
 11
144.472
 21
139.2609999999999
 31
0.0
  0
LINE
  5
47
330
18
100
AcDbEntity
  8
0
100
AcDbLine
 10
144.209
 20
144.7939999999999
 30
0.0
 11
142.472
 21
139.2609999999999
 31
0.0
  0
LINE
  5
48
330
18
100
AcDbEntity
  8
0
100
AcDbLine
 10
142.209
 20
144.7939999999999
 30
0.0
 11
140.472
 21
139.2609999999999
 31
0.0
  0
LINE
  5
49
330
18
100
AcDbEntity
  8
0
100
AcDbLine
 10
140.209
 20
144.7939999999999
 30
0.0
 11
138.472
 21
139.2609999999999
 31
0.0
  0
LINE
  5
4A
330
18
100
AcDbEntity
  8
0
100
AcDbLine
 10
162.745
 20
142.0279999999999
 30
0.0
 11
157.7449999999999
 21
140.1279999999999
 31
0.0
  0
LINE
  5
4B
330
18
100
AcDbEntity
  8
0
100
AcDbLine
 10
162.745
 20
142.0279999999999
 30
0.0
 11
157.7439999999999
 21
143.9279999999999
 31
0.0
  0
LINE
  5
4C
330
18
100
AcDbEntity
  8
0
100
AcDbLine
 10
137.7439999999999
 20
140.1279999999999
 30
0.0
 11
157.7449999999999
 21
140.1279999999999
 31
0.0
  0
LINE
  5
4D
330
18
100
AcDbEntity
  8
0
100
AcDbLine
 10
137.7439999999999
 20
143.9279999999999
 30
0.0
 11
157.7439999999999
 21
143.9279999999999
 31
0.0
  0
LINE
  5
4E
330
18
100
AcDbEntity
  8
0
100
AcDbLine
 10
100.744
 20
150.028
 30
0.0
 11
100.744
 21
134.0279999999999
 31
0.0
  0
LINE
  5
4F
330
18
100
AcDbEntity
  8
0
100
AcDbLine
 10
100.744
 20
134.0279999999999
 30
0.0
 11
92.7439
 21
134.0279999999999
 31
0.0
  0
LINE
  5
50
330
18
100
AcDbEntity
  8
0
100
AcDbLine
 10
92.7439
 20
134.0279999999999
 30
0.0
 11
92.7439
 21
150.028
 31
0.0
  0
LINE
  5
51
330
18
100
AcDbEntity
  8
0
100
AcDbLine
 10
92.7439
 20
150.028
 30
0.0
 11
100.744
 21
150.028
 31
0.0
  0
LINE
  5
52
330
18
100
AcDbEntity
  8
0
100
AcDbLine
 10
112.7439999999999
 20
146.028
 30
0.0
 11
112.7439999999999
 21
138.0279999999999
 31
0.0
  0
LINE
  5
53
330
18
100
AcDbEntity
  8
0
100
AcDbLine
 10
112.7439999999999
 20
138.0279999999999
 30
0.0
 11
100.744
 21
138.0279999999999
 31
0.0
  0
LINE
  5
54
330
18
100
AcDbEntity
  8
0
100
AcDbLine
 10
100.744
 20
138.0279999999999
 30
0.0
 11
100.744
 21
146.028
 31
0.0
  0
LINE
  5
55
330
18
100
AcDbEntity
  8
0
100
AcDbLine
 10
100.744
 20
146.028
 30
0.0
 11
112.7439999999999
 21
146.028
 31
0.0
  0
LINE
  5
56
330
18
100
AcDbEntity
  8
0
  6
AIGENLINE001
100
AcDbLine
 10
165.997
 20
142.0279999999999
 30
0.0
 11
90.0164
 21
142.0279999999999
 31
0.0
  0
LINE
  5
57
330
18
100
AcDbEntity
  8
0
100
AcDbLine
 10
137.7439999999999
 20
150.028
 30
0.0
 11
137.7439999999999
 21
134.0279999999999
 31
0.0
  0
LINE
  5
58
330
18
100
AcDbEntity
  8
0
100
AcDbLine
 10
137.7439999999999
 20
134.0279999999999
 30
0.0
 11
112.7439999999999
 21
134.0279999999999
 31
0.0
  0
LINE
  5
59
330
18
100
AcDbEntity
  8
0
100
AcDbLine
 10
112.7439999999999
 20
134.0279999999999
 30
0.0
 11
112.7439999999999
 21
150.028
 31
0.0
  0
LINE
  5
5A
330
18
100
AcDbEntity
  8
0
100
AcDbLine
 10
112.7439999999999
 20
150.028
 30
0.0
 11
137.7439999999999
 21
150.028
 31
0.0
  0
LINE
  5
5B
330
18
100
AcDbEntity
  8
0
  6
AIGENLINE001
100
AcDbLine
 10
51.6666
 20
142.0279999999999
 30
0.0
 11
76.66679999999999
 21
142.0279999999999
 31
0.0
  0
LINE
  5
5C
330
18
100
AcDbEntity
  8
0
  6
AIGENLINE001
100
AcDbLine
 10
64.1667
 20
129.5279999999999
 30
0.0
 11
64.1667
 21
154.5279999999999
 31
0.0
  0
LINE
  5
5D
330
18
100
AcDbEntity
  8
0
100
AcDbLine
 10
56.1668
 20
150.028
 30
0.0
 11
56.1668
 21
134.0279999999999
 31
0.0
  0
LINE
  5
5E
330
18
100
AcDbEntity
  8
0
100
AcDbLine
 10
56.1668
 20
134.0279999999999
 30
0.0
 11
72.16689999999999
 21
134.0279999999999
 31
0.0
  0
LINE
  5
5F
330
18
100
AcDbEntity
  8
0
100
AcDbLine
 10
72.16689999999999
 20
134.0279999999999
 30
0.0
 11
72.16689999999999
 21
150.028
 31
0.0
  0
LINE
  5
60
330
18
100
AcDbEntity
  8
0
100
AcDbLine
 10
72.16689999999999
 20
150.028
 30
0.0
 11
56.1668
 21
150.028
 31
0.0
  0
LINE
  5
61
330
18
100
AcDbEntity
  8
_________2
100
AcDbLine
 10
205.301
 20
127.411
 30
0.0
 11
183.55
 21
127.411
 31
0.0
  0
LINE
  5
62
330
18
100
AcDbEntity
  8
_________2
100
AcDbLine
 10
100.2999999999999
 20
-4.09108
 30
0.0
 11
100.2999999999999
 21
-21.0714
 31
0.0
  0
LINE
  5
63
330
18
100
AcDbEntity
  8
_________2
100
AcDbLine
 10
100.2999999999999
 20
275.9309999999999
 30
0.0
 11
100.2999999999999
 21
258.911
 31
0.0
  0
LINE
  5
64
330
18
100
AcDbEntity
  8
_________2
100
AcDbLine
 10
17.0495
 20
127.411
 30
0.0
 11
-4.70052
 21
127.411
 31
0.0
  0
LINE
  5
65
330
18
100
AcDbEntity
  8
_________2
100
AcDbLine
 10
76.741
 20
29.8047
 30
0.0
 11
74.5547
 21
29.8047
 31
0.0
  0
LINE
  5
66
330
18
100
AcDbEntity
  8
_________2
100
AcDbLine
 10
77.2337
 20
29.8047
 30
0.0
 11
76.9815
 21
29.8047
 31
0.0
  0
LINE
  5
67
330
18
100
AcDbEntity
  8
_________2
100
AcDbLine
 10
77.72629999999999
 20
29.8047
 30
0.0
 11
80.6512
 21
29.8047
 31
0.0
  0
LINE
  5
68
330
18
100
AcDbEntity
  8
_________2
100
AcDbLine
 10
77.2337
 20
29.8047
 30
0.0
 11
77.4855
 21
29.8047
 31
0.0
  0
LINE
  5
69
330
18
100
AcDbEntity
  8
_________2
100
AcDbLine
 10
70.8371
 20
29.8047
 30
0.0
 11
68.6505
 21
29.8047
 31
0.0
  0
LINE
  5
6A
330
18
100
AcDbEntity
  8
_________2
100
AcDbLine
 10
71.32940000000001
 20
29.8047
 30
0.0
 11
71.0776
 21
29.8047
 31
0.0
  0
LINE
  5
6B
330
18
100
AcDbEntity
  8
_________2
100
AcDbLine
 10
71.32940000000001
 20
30.2974
 30
0.0
 11
71.32940000000001
 21
32.4844
 31
0.0
  0
LINE
  5
6C
330
18
100
AcDbEntity
  8
_________2
100
AcDbLine
 10
71.32940000000001
 20
29.8047
 30
0.0
 11
71.32940000000001
 21
30.05689999999999
 31
0.0
  0
LINE
  5
6D
330
18
100
AcDbEntity
  8
_________2
100
AcDbLine
 10
71.82210000000001
 20
29.8047
 30
0.0
 11
74.009
 21
29.8047
 31
0.0
  0
LINE
  5
6E
330
18
100
AcDbEntity
  8
_________2
100
AcDbLine
 10
71.32940000000001
 20
29.8047
 30
0.0
 11
71.58159999999999
 21
29.8047
 31
0.0
  0
LINE
  5
6F
330
18
100
AcDbEntity
  8
_________2
100
AcDbLine
 10
71.32940000000001
 20
29.3128
 30
0.0
 11
71.32940000000001
 21
27.1258
 31
0.0
  0
LINE
  5
70
330
18
100
AcDbEntity
  8
_________2
100
AcDbLine
 10
71.32940000000001
 20
29.8047
 30
0.0
 11
71.32940000000001
 21
29.5532
 31
0.0
  0
LINE
  5
71
330
18
100
AcDbEntity
  8
_________2
100
AcDbLine
 10
75.04049999999999
 20
28.5852
 30
0.0
 11
80.2185
 21
27.7204
 31
0.0
  0
LINE
  5
72
330
18
100
AcDbEntity
  8
_________2
100
AcDbLine
 10
75.04049999999999
 20
31.0243
 30
0.0
 11
80.2185
 21
31.8897
 31
0.0
  0
LINE
  5
73
330
18
100
AcDbEntity
  8
_________2
100
AcDbLine
 10
80.2185
 20
27.7204
 30
0.0
 11
80.2185
 21
31.8897
 31
0.0
  0
LINE
  5
74
330
18
100
AcDbEntity
  8
_________2
100
AcDbLine
 10
75.04049999999999
 20
28.5852
 30
0.0
 11
75.04049999999999
 21
31.0243
 31
0.0
  0
ARC
  5
75
330
18
100
AcDbEntity
  8
_________2
100
AcDbCircle
 10
71.28285600000001
 20
29.757811
 30
0.0
 40
1.267359
100
AcDbArc
 50
2.122214
 51
87.893959
  0
ARC
  5
76
330
18
100
AcDbEntity
  8
_________2
100
AcDbCircle
 10
71.37595999999999
 20
29.758213
 30
0.0
 40
1.266955999999999
100
AcDbArc
 50
92.104701
 51
177.8952689999999
  0
ARC
  5
77
330
18
100
AcDbEntity
  8
_________2
100
AcDbCircle
 10
71.37635799999999
 20
29.851671
 30
0.0
 40
1.267368
100
AcDbArc
 50
182.122036
 51
267.877993
  0
ARC
  5
78
330
18
100
AcDbEntity
  8
_________2
100
AcDbCircle
 10
71.28253199999999
 20
29.85199899999999
 30
0.0
 40
1.267695999999999
100
AcDbArc
 50
272.120153
 51
357.863674
  0
ARC
  5
79
330
18
100
AcDbEntity
  8
_________2
100
AcDbCircle
 10
71.32943
 20
29.804743
 30
0.0
 40
2.084984999999999
100
AcDbArc
 50
0.00001
 51
89.99998000000001
  0
ARC
  5
7A
330
18
100
AcDbEntity
  8
_________2
100
AcDbCircle
 10
71.329603
 20
29.804915
 30
0.0
 40
2.084813
100
AcDbArc
 50
90.004734
 51
180.004744
  0
ARC
  5
7B
330
18
100
AcDbEntity
  8
_________2
100
AcDbCircle
 10
71.40910600000001
 20
29.884776
 30
0.0
 40
2.165795
100
AcDbArc
 50
182.117766
 51
267.891734
  0
ARC
  5
7C
330
18
100
AcDbEntity
  8
_________2
100
AcDbCircle
 10
71.249459
 20
29.88542999999999
 30
0.0
 40
2.166459
100
AcDbArc
 50
272.115468
 51
357.865604
  0
TEXT
  5
7D
330
18
100
AcDbEntity
  8
_________2
100
AcDbText
 10
104.605
 20
1.67949
 30
0.0
 40
3.09234
  1
図番
 41
0.5
100
AcDbText
  0
LINE
  5
7E
330
18
100
AcDbEntity
  8
_________2
100
AcDbLine
 10
103.55
 20
5.908719999999999
 30
0.0
 11
183.551
 21
5.908719999999999
 31
0.0
  0
TEXT
  5
7F
330
18
100
AcDbEntity
  8
_________2
100
AcDbText
 10
104.605
 20
11.67929999999999
 30
0.0
 40
3.09234
  1
品番
 41
0.5
100
AcDbText
  0
TEXT
  5
80
330
18
100
AcDbEntity
  8
_________2
100
AcDbText
 10
104.605
 20
31.8181
 30
0.0
 40
3.09234
  1
名称
 41
0.5
100
AcDbText
  0
TEXT
  5
81
330
18
100
AcDbEntity
  8
_________2
100
AcDbText
 10
91.84505833333334
 20
26.82199999999999
 30
0.0
 40
3.65458
  1
mm
 41
0.5
 72
     1
 11
93.3678
 21
26.82199999999999
 31
0.0
100
AcDbText
  0
TEXT
  5
82
330
18
100
AcDbEntity
  8
_________2
100
AcDbText
 10
85.6432
 20
31.8181
 30
0.0
 40
3.09234
  1
単位
 41
0.5
100
AcDbText
  0
TEXT
  5
83
330
18
100
AcDbEntity
  8
_________2
100
AcDbText
 10
85.6432
 20
19.41079999999999
 30
0.0
 40
3.09234
  1
尺度
 41
0.5
100
AcDbText
  0
TEXT
  5
84
330
18
100
AcDbEntity
  8
_________2
100
AcDbText
 10
90.853307
 20
13.2179
 30
0.0
 40
3.65458
  1
1 ： 1
 41
0.5
 72
     1
 11
93.9597
 21
13.2179
 31
0.0
100
AcDbText
  0
TEXT
  5
85
330
18
100
AcDbEntity
  8
_________2
100
AcDbText
 10
136.9904999999999
 20
9.10786
 30
0.0
 40
3.9357
  1
EC.S1775
 41
0.5
 72
     1
 11
143.55
 21
9.10786
 31
0.0
100
AcDbText
  0
TEXT
  5
86
330
18
100
AcDbEntity
  8
_________2
100
AcDbText
 10
137.318475
 20
-0.8926299999999999
 30
0.0
 40
3.9357
  1
ECS1775
 41
0.5
 72
     1
 11
143.55
 21
-0.8926299999999999
 31
0.0
100
AcDbText
  0
TEXT
  5
87
330
18
100
AcDbEntity
  8
_________2
100
AcDbText
 10
109.179
 20
24.2257
 30
0.0
 40
3.9357
  1
　　　　リエゾン　フック
 41
0.5
100
AcDbText
  0
TEXT
  5
88
330
18
100
AcDbEntity
  8
_________2
100
AcDbText
 10
39.30348099999999
 20
13.603
 30
0.0
 40
3.65458
  1
田尻
 41
0.5
 72
     1
 11
41.3135
 21
13.603
 31
0.0
100
AcDbText
  0
TEXT
  5
89
330
18
100
AcDbEntity
  8
_________2
100
AcDbText
 10
20.79009066666666
 20
13.603
 30
0.0
 40
3.65458
  1
石原
 41
0.5
 72
     1
 11
22.73919999999999
 21
13.603
 31
0.0
100
AcDbText
  0
TEXT
  5
8A
330
18
100
AcDbEntity
  8
_________2
100
AcDbText
 10
67.78539999999999
 20
13.2179
 30
0.0
 40
3.65458
  1
09.10.01
 41
0.5
100
AcDbText
  0
TEXT
  5
8B
330
18
100
AcDbEntity
  8
_________2
100
AcDbText
 10
66.59310000000001
 20
19.41079999999999
 30
0.0
 40
3.09234
  1
日付
 41
0.5
100
AcDbText
  0
TEXT
  5
8C
330
18
100
AcDbEntity
  8
_________2
100
AcDbText
 10
29.6394
 20
19.41079999999999
 30
0.0
 40
3.09234
  1
検図
 41
0.5
100
AcDbText
  0
TEXT
  5
8D
330
18
100
AcDbEntity
  8
_________2
100
AcDbText
 10
18.0211
 20
5.21143
 30
0.0
 40
3.09234
  1
備考
 41
0.5
100
AcDbText
  0
TEXT
  5
8E
330
18
100
AcDbEntity
  8
_________2
100
AcDbText
 10
18.0211
 20
19.41079999999999
 30
0.0
 40
3.09234
  1
製図
 41
0.5
100
AcDbText
  0
TEXT
  5
8F
330
18
100
AcDbEntity
  8
_________2
100
AcDbText
 10
23.863431
 20
27.9368
 30
0.0
 40
4.497939999999999
  1
セラトレーディング株式会社
 41
0.5
 72
     1
 11
41.1805
 21
27.9368
 31
0.0
100
AcDbText
  0
LINE
  5
90
330
18
100
AcDbEntity
  8
_________2
100
AcDbLine
 10
183.551
 20
-3.091299999999999
 30
0.0
 11
17.0495
 21
-3.091299999999999
 31
0.0
  0
LINE
  5
91
330
18
100
AcDbEntity
  8
_________2
100
AcDbLine
 10
17.0495
 20
-3.091299999999999
 30
0.0
 11
17.0495
 21
259.911
 31
0.0
  0
LINE
  5
92
330
18
100
AcDbEntity
  8
_________2
100
AcDbLine
 10
17.0495
 20
259.911
 30
0.0
 11
183.551
 21
259.911
 31
0.0
  0
LINE
  5
93
330
18
100
AcDbEntity
  8
_________2
100
AcDbLine
 10
183.551
 20
259.911
 30
0.0
 11
183.551
 21
-3.091299999999999
 31
0.0
  0
LINE
  5
94
330
18
100
AcDbEntity
  8
_________2
100
AcDbLine
 10
65.5496
 20
9.40896
 30
0.0
 11
65.5496
 21
35.9088
 31
0.0
  0
LINE
  5
95
330
18
100
AcDbEntity
  8
_________2
100
AcDbLine
 10
84.54970000000001
 20
9.40896
 30
0.0
 11
84.54970000000001
 21
35.9088
 31
0.0
  0
LINE
  5
96
330
18
100
AcDbEntity
  8
_________2
100
AcDbLine
 10
103.55
 20
-4.09108
 30
0.0
 11
103.55
 21
35.9088
 31
0.0
  0
LINE
  5
97
330
18
100
AcDbEntity
  8
_________2
100
AcDbLine
 10
28.54929999999999
 20
9.40896
 30
0.0
 11
28.54929999999999
 21
23.4092
 31
0.0
  0
LINE
  5
98
330
18
100
AcDbEntity
  8
_________2
100
AcDbLine
 10
17.0495
 20
9.40896
 30
0.0
 11
103.55
 21
9.40896
 31
0.0
  0
LINE
  5
99
330
18
100
AcDbEntity
  8
_________2
100
AcDbLine
 10
17.0495
 20
23.4092
 30
0.0
 11
103.55
 21
23.4092
 31
0.0
  0
LINE
  5
9A
330
18
100
AcDbEntity
  8
_________2
100
AcDbLine
 10
103.55
 20
15.9085
 30
0.0
 11
183.551
 21
15.9085
 31
0.0
  0
LINE
  5
9B
330
18
100
AcDbEntity
  8
_________2
100
AcDbLine
 10
17.0495
 20
35.9088
 30
0.0
 11
183.551
 21
35.9088
 31
0.0
  0
ENDSEC
  0
SECTION
  2
OBJECTS
  0
DICTIONARY
  5
C
330
0
100
AcDbDictionary
281
     1
  3
ACAD_GROUP
350
D
  3
ACAD_LAYOUT
350
A1
  3
ACAD_MLINESTYLE
350
1B
  3
ACAD_PLOTSETTINGS
350
A2
  3
ACAD_PLOTSTYLENAME
350
9F
  0
DICTIONARY
  5
D
102
{ACAD_REACTORS
330
C
102
}
330
C
100
AcDbDictionary
281
     1
  0
DICTIONARY
  5
A1
102
{ACAD_REACTORS
330
C
102
}
330
C
100
AcDbDictionary
281
     1
  3
Model
350
A3
  3
ﾚｲｱｳﾄ1
350
A4
  0
DICTIONARY
  5
1B
102
{ACAD_REACTORS
330
C
102
}
330
C
100
AcDbDictionary
281
     1
  3
STANDARD
350
1C
  0
DICTIONARY
  5
A2
102
{ACAD_REACTORS
330
C
102
}
330
C
100
AcDbDictionary
281
     1
  0
ACDBDICTIONARYWDFLT
  5
9F
102
{ACAD_REACTORS
330
C
102
}
330
C
100
AcDbDictionary
281
     1
  3
Normal
350
A0
100
AcDbDictionaryWithDefault
340
A0
  0
LAYOUT
  5
A3
102
{ACAD_REACTORS
330
A1
102
}
330
A1
100
AcDbPlotSettings
  1

  2
DocuPrint2060
  4

  6

 40
0.0
 41
0.0
 42
0.0
 43
0.0
 44
0.0
 45
0.0
 46
0.0
 47
0.0
 48
0.0
 49
0.0
140
0.0
141
0.0
142
1.0
143
1.0
 70
  1712
 72
     0
 73
     0
 74
     0
  7

 75
     0
147
1.0
148
0.0
149
0.0
100
AcDbLayout
  1
Model
 70
     1
 71
     0
 10
0.0
 20
0.0
 11
12.0
 21
9.0
 12
0.0
 22
0.0
 32
0.0
 14
0.0
 24
0.0
 34
0.0
 15
0.0
 25
0.0
 35
0.0
146
0.0
 13
0.0
 23
0.0
 33
0.0
 16
1.0
 26
0.0
 36
0.0
 17
0.0
 27
1.0
 37
0.0
 76
     0
330
18
  0
LAYOUT
  5
A4
102
{ACAD_REACTORS
330
A1
102
}
330
A1
100
AcDbPlotSettings
  1

  2
DocuPrint2060
  4

  6

 40
0.0
 41
0.0
 42
0.0
 43
0.0
 44
0.0
 45
0.0
 46
0.0
 47
0.0
 48
0.0
 49
0.0
140
0.0
141
0.0
142
1.0
143
1.0
 70
   688
 72
     0
 73
     0
 74
     5
  7

 75
    16
147
1.0
148
0.0
149
0.0
100
AcDbLayout
  1
ﾚｲｱｳﾄ1
 70
     1
 71
     1
 10
0.0
 20
0.0
 11
12.0
 21
9.0
 12
0.0
 22
0.0
 32
0.0
 14
1.000000000000000E+20
 24
1.000000000000000E+20
 34
1.000000000000000E+20
 15
-1.000000000000000E+20
 25
-1.000000000000000E+20
 35
-1.000000000000000E+20
146
0.0
 13
0.0
 23
0.0
 33
0.0
 16
1.0
 26
0.0
 36
0.0
 17
0.0
 27
1.0
 37
0.0
 76
     0
330
15
  0
MLINESTYLE
  5
1C
102
{ACAD_REACTORS
330
1B
102
}
330
1B
100
AcDbMlineStyle
  2
STANDARD
 70
     0
  3

 62
   256
 51
90.0
 52
90.0
 71
     2
 49
0.5
 62
   256
  6
BYLAYER
 49
-0.5
 62
   256
  6
BYLAYER
  0
ACDBPLACEHOLDER
  5
A0
102
{ACAD_REACTORS
330
9F
102
}
330
9F
  0
ENDSEC
  0
EOF
