  0
SECTION
  2
HEADER
  9
$ACADVER
  1
AC1009
  9
$INSBASE
 10
0.0
 20
0.0
 30
0.0
  9
$EXTMIN
 10
-4.7000000000000002
 20
-21.070699999999992
 30
0.0
  9
$EXTMAX
 10
205.30099999999999
 20
275.93099999999993
 30
0.0
  9
$LIMMIN
 10
0.0
 20
0.0
  9
$LIMMAX
 10
12.0
 20
9.0
  9
$ORTHOMODE
 70
     0
  9
$REGENMODE
 70
     1
  9
$FILLMODE
 70
     1
  9
$QTEXTMODE
 70
     0
  9
$MIRRTEXT
 70
     1
  9
$DRAGMODE
 70
     2
  9
$LTSCALE
 40
1.0
  9
$OSMODE
 70
    37
  9
$ATTMODE
 70
     1
  9
$TEXTSIZE
 40
0.0
  9
$TRACEWID
 40
0.05
  9
$TEXTSTYLE
  7
STANDARD
  9
$CLAYER
  8
0
  9
$CELTYPE
  6
CONTINUOUS
  9
$CECOLOR
 62
   256
  9
$DIMSCALE
 40
1.0
  9
$DIMASZ
 40
0.18
  9
$DIMEXO
 40
0.0625
  9
$DIMDLI
 40
0.38
  9
$DIMRND
 40
0.0
  9
$DIMDLE
 40
0.0
  9
$DIMEXE
 40
0.18
  9
$DIMTP
 40
0.0
  9
$DIMTM
 40
0.0
  9
$DIMTXT
 40
0.18
  9
$DIMCEN
 40
0.09
  9
$DIMTSZ
 40
0.0
  9
$DIMTOL
 70
     0
  9
$DIMLIM
 70
     0
  9
$DIMTIH
 70
     1
  9
$DIMTOH
 70
     1
  9
$DIMSE1
 70
     0
  9
$DIMSE2
 70
     0
  9
$DIMTAD
 70
     0
  9
$DIMZIN
 70
     0
  9
$DIMBLK
  1

  9
$DIMASO
 70
     1
  9
$DIMSHO
 70
     1
  9
$DIMPOST
  1

  9
$DIMAPOST
  1

  9
$DIMALT
 70
     0
  9
$DIMALTD
 70
     2
  9
$DIMALTF
 40
25.399999999999999
  9
$DIMLFAC
 40
1.0
  9
$DIMTOFL
 70
     0
  9
$DIMTVP
 40
0.0
  9
$DIMTIX
 70
     0
  9
$DIMSOXD
 70
     0
  9
$DIMSAH
 70
     0
  9
$DIMBLK1
  1

  9
$DIMBLK2
  1

  9
$DIMSTYLE
  2
STANDARD
  9
$DIMCLRD
 70
     0
  9
$DIMCLRE
 70
     0
  9
$DIMCLRT
 70
     0
  9
$DIMTFAC
 40
1.0
  9
$DIMGAP
 40
0.09
  9
$LUNITS
 70
     2
  9
$LUPREC
 70
     4
  9
$SKETCHINC
 40
0.1
  9
$FILLETRAD
 40
0.0
  9
$AUNITS
 70
     0
  9
$AUPREC
 70
     0
  9
$MENU
  1
.
  9
$ELEVATION
 40
0.0
  9
$PELEVATION
 40
0.0
  9
$THICKNESS
 40
0.0
  9
$LIMCHECK
 70
     0
  9
$BLIPMODE
 70
     0
  9
$CHAMFERA
 40
0.0
  9
$CHAMFERB
 40
0.0
  9
$SKPOLY
 70
     0
  9
$TDCREATE
 40
2444972.375
  9
$TDUPDATE
 40
2455386.232590775
  9
$TDINDWG
 40
0.0000066898
  9
$TDUSRTIMER
 40
0.0000066898
  9
$USRTIMER
 70
     1
  9
$ANGBASE
 50
0.0
  9
$ANGDIR
 70
     0
  9
$PDMODE
 70
     0
  9
$PDSIZE
 40
0.0
  9
$PLINEWID
 40
0.0
  9
$COORDS
 70
     1
  9
$SPLFRAME
 70
     0
  9
$SPLINETYPE
 70
     6
  9
$SPLINESEGS
 70
     8
  9
$ATTDIA
 70
     0
  9
$ATTREQ
 70
     1
  9
$HANDLING
 70
     1
  9
$HANDSEED
  5
18E
  9
$SURFTAB1
 70
     6
  9
$SURFTAB2
 70
     6
  9
$SURFTYPE
 70
     6
  9
$SURFU
 70
     6
  9
$SURFV
 70
     6
  9
$UCSNAME
  2

  9
$UCSORG
 10
0.0
 20
0.0
 30
0.0
  9
$UCSXDIR
 10
1.0
 20
0.0
 30
0.0
  9
$UCSYDIR
 10
0.0
 20
1.0
 30
0.0
  9
$PUCSNAME
  2

  9
$PUCSORG
 10
0.0
 20
0.0
 30
0.0
  9
$PUCSXDIR
 10
1.0
 20
0.0
 30
0.0
  9
$PUCSYDIR
 10
0.0
 20
1.0
 30
0.0
  9
$USERI1
 70
     0
  9
$USERI2
 70
     0
  9
$USERI3
 70
     0
  9
$USERI4
 70
     0
  9
$USERI5
 70
     0
  9
$USERR1
 40
0.0
  9
$USERR2
 40
0.0
  9
$USERR3
 40
0.0
  9
$USERR4
 40
0.0
  9
$USERR5
 40
0.0
  9
$WORLDVIEW
 70
     1
  9
$SHADEDGE
 70
     3
  9
$SHADEDIF
 70
    70
  9
$TILEMODE
 70
     1
  9
$MAXACTVP
 70
    48
  9
$PLIMCHECK
 70
     0
  9
$PEXTMIN
 10
1.0000000000000000E+020
 20
1.0000000000000000E+020
 30
1.0000000000000000E+020
  9
$PEXTMAX
 10
-1.0000000000000000E+020
 20
-1.0000000000000000E+020
 30
-1.0000000000000000E+020
  9
$PLIMMIN
 10
0.0
 20
0.0
  9
$PLIMMAX
 10
12.0
 20
9.0
  9
$UNITMODE
 70
     0
  9
$VISRETAIN
 70
     1
  9
$PLINEGEN
 70
     0
  9
$PSLTSCALE
 70
     1
  0
ENDSEC
  0
SECTION
  2
TABLES
  0
TABLE
  2
VPORT
 70
     2
  0
VPORT
  2
*ACTIVE
 70
     0
 10
0.0
 20
0.0
 11
1.0
 21
1.0
 12
205.31069799722439
 22
127.4301499999999
 13
0.0
 23
0.0
 14
1.0
 24
1.0
 15
0.0
 25
0.0
 16
0.0
 26
0.0
 36
1.0
 17
0.0
 27
0.0
 37
0.0
 40
299.24604534005027
 41
2.2894736842105261
 42
50.0
 43
0.0
 44
0.0
 50
0.0
 51
0.0
 71
     0
 72
   100
 73
     1
 74
     1
 75
     0
 76
     0
 77
     0
 78
     0
  0
ENDTAB
  0
TABLE
  2
LTYPE
 70
     3
  0
LTYPE
  2
CONTINUOUS
 70
     0
  3
Solid line
 72
    65
 73
     0
 40
0.0
  0
LTYPE
  2
AIGENLINE001
 70
     0
  3
generate AI->DXF Converter
 72
    65
 73
     4
 40
5.8561449999999988
 49
3.5278
 49
-0.776115
 49
0.776115
 49
-0.776115
  0
LTYPE
  2
AIGENLINE002
 70
     0
  3
generate AI->DXF Converter
 72
    65
 73
     3
 40
1.5522299999999991
 49
0.776115
 49
-0.776115
 49
0.0
  0
ENDTAB
  0
TABLE
  2
LAYER
 70
     2
  0
LAYER
  2
0
 70
     0
 62
     7
  6
CONTINUOUS
  0
LAYER
  2
_________2
 70
     0
 62
     7
  6
CONTINUOUS
  0
ENDTAB
  0
TABLE
  2
STYLE
 70
     1
  0
STYLE
  2
STANDARD
 70
     0
 40
0.0
 41
0.0
 50
0.0
 71
     0
 42
0.0
  3
TXT
  4
EXTFONT.SHX
  0
ENDTAB
  0
TABLE
  2
VIEW
 70
     0
  0
ENDTAB
  0
TABLE
  2
UCS
 70
     0
  0
ENDTAB
  0
TABLE
  2
APPID
 70
     1
  0
APPID
  2
ACAD
 70
     0
  0
ENDTAB
  0
TABLE
  2
DIMSTYLE
 70
     1
  0
DIMSTYLE
  2
STANDARD
 70
     0
  3

  4

  5

  6

  7

 40
1.0
 41
0.18
 42
0.0625
 43
0.38
 44
0.18
 45
0.0
 46
0.0
 47
0.0
 48
0.0
140
0.18
141
0.09
142
0.0
143
25.399999999999999
144
1.0
145
0.0
146
1.0
147
0.09
 71
     0
 72
     0
 73
     1
 74
     1
 75
     0
 76
     0
 77
     0
 78
     0
170
     0
171
     2
172
     0
173
     0
174
     0
175
     0
176
     0
177
     0
178
     0
  0
ENDTAB
  0
ENDSEC
  0
SECTION
  2
BLOCKS
  0
BLOCK
  8
0
  2
$MODEL_SPACE
 70
     0
 10
0.0
 20
0.0
 30
0.0
  3
$MODEL_SPACE
  1

  0
ENDBLK
  5
1A
  8
0
  0
BLOCK
 67
     1
  8
0
  2
$PAPER_SPACE
 70
     0
 10
0.0
 20
0.0
 30
0.0
  3
$PAPER_SPACE
  1

  0
ENDBLK
  5
17
 67
     1
  8
0
  0
ENDSEC
  0
SECTION
  2
ENTITIES
  0
TEXT
  5
23
  8
0
 62
     7
 10
85.936400000000006
 20
161.49899999999991
 30
0.0
 40
3.0923400000000001
  1
%%c10
 50
90.0
 41
0.5
  0
TEXT
  5
24
  8
0
 62
     7
 10
74.633799999999994
 20
151.941
 30
0.0
 40
3.0923400000000001
  1
%%c19
 50
90.0
 41
0.5
  0
TEXT
  5
25
  8
0
 62
     7
 10
86.035799999999995
 20
96.436099999999996
 30
0.0
 40
3.0923400000000001
  1
%%c12
 50
90.0
 41
0.5
  0
TEXT
  5
26
  8
0
 62
     7
 10
34.845100000000002
 20
170.9684399999999
 30
0.0
 40
3.0923400000000001
  1
235
 50
90.0
 41
0.5
 72
     1
 11
34.845100000000002
 21
173.02999999999989
 31
0.0
  0
TEXT
  5
27
  8
0
 62
     7
 10
41.178807499999998
 20
196.79599999999991
 30
0.0
 40
3.0923400000000001
  1
%%c50.5
 41
0.5
 72
     1
 11
44.142299999999992
 21
196.79599999999991
 31
0.0
  0
TEXT
  5
28
  8
0
 62
     7
 10
160.92737249999999
 20
96.83880000000002
 30
0.0
 40
3.0923400000000001
  1
80
 41
0.5
 72
     1
 11
162.08699999999999
 21
96.83880000000002
 31
0.0
  0
TEXT
  5
29
  8
0
 62
     7
 10
132.05149900000001
 20
197.28399999999999
 30
0.0
 40
3.0923400000000001
  1
樹脂プラグ%%c6×30付
 41
0.5
 72
     2
 11
150.554
 21
197.28399999999999
 31
0.0
  0
TEXT
  5
2A
  8
0
 62
     7
 10
131.22687500000001
 20
202.3479999999999
 30
0.0
 40
3.0923400000000001
  1
SUS丸木ねじ%%c4×50
 41
0.5
 72
     2
 11
150.554
 21
202.3479999999999
 31
0.0
  0
TEXT
  5
2B
  8
0
 62
     7
 10
79.772234999999995
 20
124.6159999999999
 30
0.0
 40
3.0923400000000001
  1
600
 41
0.5
 72
     1
 11
81.576099999999997
 21
124.6159999999999
 31
0.0
  0
TEXT
  5
2C
  8
0
 62
     7
 10
34.8904
 20
108.51983
 30
0.0
 40
3.0923400000000001
  1
112
 50
90.0
 41
0.5
 72
     1
 11
34.8904
 21
110.0659999999999
 31
0.0
  0
LINE
  5
2D
  8
0
 62
     7
 10
164.87499999999989
 20
95.539000000000001
 30
0.0
 11
167.0859999999999
 21
96.131200000000021
 31
0.0
  0
LINE
  5
2E
  8
0
 62
     7
 10
167.0859999999999
 20
96.131200000000021
 30
0.0
 11
164.87499999999989
 21
96.723399999999998
 31
0.0
  0
LINE
  5
2F
  8
0
 62
     7
 10
164.87499999999989
 20
96.723399999999998
 30
0.0
 11
164.87499999999989
 21
95.539000000000001
 31
0.0
  0
LINE
  5
30
  8
0
 62
     7
 10
159.298
 20
96.708899999999986
 30
0.0
 11
157.08799999999999
 21
96.116699999999994
 31
0.0
  0
LINE
  5
31
  8
0
 62
     7
 10
157.08799999999999
 20
96.116699999999994
 30
0.0
 11
159.298
 21
95.524500000000003
 31
0.0
  0
LINE
  5
32
  8
0
 62
     7
 10
159.298
 20
95.524500000000003
 30
0.0
 11
159.298
 21
96.708899999999986
 31
0.0
  0
LINE
  5
33
  8
0
 62
     7
 10
167.08699999999999
 20
96.116699999999994
 30
0.0
 11
157.08699999999999
 21
96.116699999999994
 31
0.0
  0
ARC
  5
34
  8
0
 62
     7
 10
157.05770899999999
 20
103.8444539999999
 30
0.0
 40
0.7794979999999999
 50
272.15441099999993
 51
357.87192399999998
  0
ARC
  5
35
  8
0
 62
     7
 10
157.115962
 20
103.84481700000001
 30
0.0
 40
0.779848
 50
182.15383
 51
267.87251199999997
  0
ARC
  5
36
  8
0
 62
     7
 10
138.94437699999989
 20
113.954504
 30
0.0
 40
1.2335179999999999
 50
182.081479
 51
267.88530700000001
  0
ARC
  5
37
  8
0
 62
     7
 10
138.94432800000001
 20
113.864233
 30
0.0
 40
1.2334940000000001
 50
92.112470999999985
 51
177.88749899999999
  0
ARC
  5
38
  8
0
 62
     7
 10
116.179344
 20
106.7121629999999
 30
0.0
 40
3.6466569999999989
 50
270.00543299999993
 51
0.005403
  0
ARC
  5
39
  8
0
 62
     7
 10
116.1796889999999
 20
106.712508
 30
0.0
 40
2.1469969999999998
 50
270.00002000000001
 51
359.99998999999991
  0
ARC
  5
3A
  8
0
 62
     7
 10
119.11666200000001
 20
113.956231
 30
0.0
 40
3.2125360000000001
 50
202.5969969999999
 51
255.7520769999999
  0
ARC
  5
3B
  8
0
 62
     7
 10
118.9832159999999
 20
113.98150200000001
 30
0.0
 40
3.2503380000000002
 50
285.04062900000002
 51
358.73422599999992
  0
ARC
  5
3C
  8
0
 62
     7
 10
118.9560729999999
 20
113.788715
 30
0.0
 40
3.2789209999999991
 50
2.1146020000000001
 51
87.897897000000015
  0
ARC
  5
3D
  8
0
 62
     7
 10
119.129451
 20
113.8284169999999
 30
0.0
 40
3.2374480000000001
 50
90.939901000000006
 51
156.90614899999991
  0
ARC
  5
3E
  8
0
  6
AIGENLINE001
 62
     7
 10
116.068684
 20
106.82351299999991
 30
0.0
 40
3.0097079999999998
 50
272.11370499999992
 51
357.88630499999988
  0
LINE
  5
3F
  8
0
 62
     7
 10
157.83699999999999
 20
112.72199999999999
 30
0.0
 11
157.83699999999999
 21
103.8159999999999
 31
0.0
  0
LINE
  5
40
  8
0
 62
     7
 10
156.33699999999999
 20
112.72199999999999
 30
0.0
 11
156.33699999999999
 21
103.8159999999999
 31
0.0
  0
LINE
  5
41
  8
0
  6
AIGENLINE001
 62
     7
 10
157.08699999999999
 20
113.91
 30
0.0
 11
157.08699999999999
 21
101.795
 31
0.0
  0
LINE
  5
42
  8
0
 62
     7
 10
119.82599999999999
 20
112.9889999999999
 30
0.0
 11
119.82599999999999
 21
106.71299999999989
 31
0.0
  0
LINE
  5
43
  8
0
 62
     7
 10
118.32599999999999
 20
112.72199999999999
 30
0.0
 11
118.32599999999999
 21
106.71299999999989
 31
0.0
  0
LINE
  5
44
  8
0
  6
AIGENLINE001
 62
     7
 10
119.07599999999999
 20
117.816
 30
0.0
 11
119.07599999999999
 21
106.71299999999989
 31
0.0
  0
ARC
  5
45
  8
0
 62
     7
 10
46.972881000000001
 20
106.71242100000001
 30
0.0
 40
3.6469139999999989
 50
179.99861699999991
 51
269.99866700000001
  0
ARC
  5
46
  8
0
 62
     7
 10
46.972709000000002
 20
106.71242100000001
 30
0.0
 40
2.1469109999999998
 50
179.99767199999999
 51
269.99772100000001
  0
ARC
  5
47
  8
0
 62
     7
 10
44.034187000000003
 20
113.9573289999999
 30
0.0
 40
3.2138330000000002
 50
284.25950899999992
 51
337.391457
  0
ARC
  5
48
  8
0
 62
     7
 10
44.169096000000003
 20
113.98150099999989
 30
0.0
 40
3.250337
 50
181.26577599999999
 51
254.95940899999991
  0
ARC
  5
49
  8
0
 62
     7
 10
44.196233999999997
 20
113.78872800000001
 30
0.0
 40
3.278913999999999
 50
92.104984000000016
 51
177.88560499999991
  0
ARC
  5
4A
  8
0
 62
     7
 10
44.022684999999989
 20
113.82840899999999
 30
0.0
 40
3.2374559999999999
 50
23.093920999999991
 51
89.059989000000002
  0
ARC
  5
4B
  8
0
  6
AIGENLINE001
 62
     7
 10
46.972537000000003
 20
106.712593
 30
0.0
 40
2.8967399999999999
 50
180.001713
 51
270.00172299999991
  0
ARC
  5
4C
  8
0
 62
     7
 10
119.030827
 20
113.954504
 30
0.0
 40
1.233519
 50
272.11473000000001
 51
357.91852299999999
  0
ARC
  5
4D
  8
0
 62
     7
 10
119.03087499999999
 20
113.864233
 30
0.0
 40
1.2334940000000001
 50
2.1124979999999991
 51
87.887492000000009
  0
ARC
  5
4E
  8
0
 62
     7
 10
44.07605499999999
 20
113.9094429999999
 30
0.0
 40
1.1876180000000001
 50
179.98750499999991
 51
269.98755399999988
  0
ARC
  5
4F
  8
0
 62
     7
 10
44.121097999999989
 20
113.8642209999999
 30
0.0
 40
1.2335
 50
92.104714000000016
 51
177.886944
  0
ARC
  5
50
  8
0
 62
     7
 10
112.970045
 20
165.636416
 30
0.0
 40
7.2934869999999989
 50
270.001373
 51
0.001343
  0
ARC
  5
51
  8
0
 62
     7
 10
112.9699589999999
 20
165.63632999999999
 30
0.0
 40
4.9185089999999994
 50
270.00302999999991
 51
0.003
  0
ARC
  5
52
  8
0
  6
AIGENLINE001
 62
     7
 10
112.97013099999999
 20
165.63650200000001
 30
0.0
 40
6.1062129999999986
 50
270.0008279999999
 51
0.000798
  0
LINE
  5
53
  8
0
 62
     7
 10
165.45899999999989
 20
115.09699999999999
 30
0.0
 11
138.89899999999989
 21
115.09699999999999
 31
0.0
  0
LINE
  5
54
  8
0
  6
AIGENLINE001
 62
     7
 10
171.29599999999991
 20
113.91
 30
0.0
 11
136.48099999999999
 21
113.91
 31
0.0
  0
LINE
  5
55
  8
0
 62
     7
 10
165.45899999999989
 20
112.72199999999999
 30
0.0
 11
138.89899999999989
 21
112.72199999999999
 31
0.0
  0
LINE
  5
56
  8
0
 62
     7
 10
167.52199999999999
 20
114.30200000000001
 30
0.0
 11
167.0679999999999
 21
113.54299999999991
 31
0.0
  0
LINE
  5
57
  8
0
 62
     7
 10
167.965
 20
114.30200000000001
 30
0.0
 11
167.50999999999999
 21
113.54299999999991
 31
0.0
  0
LINE
  5
58
  8
0
 62
     7
 10
168.40700000000001
 20
114.30200000000001
 30
0.0
 11
167.952
 21
113.54299999999991
 31
0.0
  0
LINE
  5
59
  8
0
 62
     7
 10
168.84899999999999
 20
114.30200000000001
 30
0.0
 11
168.39500000000001
 21
113.54299999999991
 31
0.0
  0
LINE
  5
5A
  8
0
 62
     7
 10
169.29199999999989
 20
114.30200000000001
 30
0.0
 11
168.83699999999999
 21
113.54299999999991
 31
0.0
  0
LINE
  5
5B
  8
0
 62
     7
 10
169.73400000000001
 20
114.30200000000001
 30
0.0
 11
169.279
 21
113.54299999999991
 31
0.0
  0
LINE
  5
5C
  8
0
 62
     7
 10
170.1759999999999
 20
114.30200000000001
 30
0.0
 11
169.72200000000001
 21
113.54299999999991
 31
0.0
  0
LINE
  5
5D
  8
0
 62
     7
 10
170.61799999999991
 20
114.30200000000001
 30
0.0
 11
170.16399999999999
 21
113.54299999999991
 31
0.0
  0
LINE
  5
5E
  8
0
 62
     7
 10
167.08699999999999
 20
113.715
 30
0.0
 11
170.19599999999991
 21
113.715
 31
0.0
  0
LINE
  5
5F
  8
0
 62
     7
 10
170.19599999999991
 20
113.715
 30
0.0
 11
170.8359999999999
 21
113.91
 31
0.0
  0
LINE
  5
60
  8
0
 62
     7
 10
167.08699999999999
 20
114.104
 30
0.0
 11
170.1999999999999
 21
114.104
 31
0.0
  0
LINE
  5
61
  8
0
 62
     7
 10
170.1999999999999
 20
114.104
 30
0.0
 11
170.8359999999999
 21
113.91
 31
0.0
  0
LINE
  5
62
  8
0
 62
     7
 10
167.52199999999999
 20
116.0349999999999
 30
0.0
 11
167.0679999999999
 21
115.276
 31
0.0
  0
LINE
  5
63
  8
0
 62
     7
 10
167.965
 20
116.0349999999999
 30
0.0
 11
167.50999999999999
 21
115.276
 31
0.0
  0
LINE
  5
64
  8
0
 62
     7
 10
168.40700000000001
 20
116.0349999999999
 30
0.0
 11
167.952
 21
115.276
 31
0.0
  0
LINE
  5
65
  8
0
 62
     7
 10
168.84899999999999
 20
116.0349999999999
 30
0.0
 11
168.39500000000001
 21
115.276
 31
0.0
  0
LINE
  5
66
  8
0
 62
     7
 10
169.29199999999989
 20
116.0349999999999
 30
0.0
 11
168.83699999999999
 21
115.276
 31
0.0
  0
LINE
  5
67
  8
0
 62
     7
 10
169.73400000000001
 20
116.0349999999999
 30
0.0
 11
169.279
 21
115.276
 31
0.0
  0
LINE
  5
68
  8
0
 62
     7
 10
170.1759999999999
 20
116.0349999999999
 30
0.0
 11
169.72200000000001
 21
115.276
 31
0.0
  0
LINE
  5
69
  8
0
 62
     7
 10
170.61799999999991
 20
116.0349999999999
 30
0.0
 11
170.16399999999999
 21
115.276
 31
0.0
  0
LINE
  5
6A
  8
0
 62
     7
 10
167.08699999999999
 20
115.44799999999989
 30
0.0
 11
170.19599999999991
 21
115.44799999999989
 31
0.0
  0
LINE
  5
6B
  8
0
 62
     7
 10
170.19599999999991
 20
115.44799999999989
 30
0.0
 11
170.8359999999999
 21
115.6429999999999
 31
0.0
  0
LINE
  5
6C
  8
0
 62
     7
 10
167.08699999999999
 20
115.837
 30
0.0
 11
170.1999999999999
 21
115.837
 31
0.0
  0
LINE
  5
6D
  8
0
 62
     7
 10
170.1999999999999
 20
115.837
 30
0.0
 11
170.8359999999999
 21
115.6429999999999
 31
0.0
  0
LINE
  5
6E
  8
0
  6
AIGENLINE001
 62
     7
 10
166.3309999999999
 20
115.6429999999999
 30
0.0
 11
171.13800000000001
 21
115.6429999999999
 31
0.0
  0
LINE
  5
6F
  8
0
 62
     7
 10
167.52199999999999
 20
112.569
 30
0.0
 11
167.0679999999999
 21
111.81100000000001
 31
0.0
  0
LINE
  5
70
  8
0
 62
     7
 10
167.965
 20
112.569
 30
0.0
 11
167.50999999999999
 21
111.81100000000001
 31
0.0
  0
LINE
  5
71
  8
0
 62
     7
 10
168.40700000000001
 20
112.569
 30
0.0
 11
167.952
 21
111.81100000000001
 31
0.0
  0
LINE
  5
72
  8
0
 62
     7
 10
168.84899999999999
 20
112.569
 30
0.0
 11
168.39500000000001
 21
111.81100000000001
 31
0.0
  0
LINE
  5
73
  8
0
 62
     7
 10
169.29199999999989
 20
112.569
 30
0.0
 11
168.83699999999999
 21
111.81100000000001
 31
0.0
  0
LINE
  5
74
  8
0
 62
     7
 10
169.73400000000001
 20
112.569
 30
0.0
 11
169.279
 21
111.81100000000001
 31
0.0
  0
LINE
  5
75
  8
0
 62
     7
 10
170.1759999999999
 20
112.569
 30
0.0
 11
169.72200000000001
 21
111.81100000000001
 31
0.0
  0
LINE
  5
76
  8
0
 62
     7
 10
170.61799999999991
 20
112.569
 30
0.0
 11
170.16399999999999
 21
111.81100000000001
 31
0.0
  0
LINE
  5
77
  8
0
 62
     7
 10
167.08699999999999
 20
111.982
 30
0.0
 11
170.19599999999991
 21
111.982
 31
0.0
  0
LINE
  5
78
  8
0
 62
     7
 10
170.19599999999991
 20
111.982
 30
0.0
 11
170.8359999999999
 21
112.17700000000001
 31
0.0
  0
LINE
  5
79
  8
0
 62
     7
 10
167.08699999999999
 20
112.371
 30
0.0
 11
170.1999999999999
 21
112.371
 31
0.0
  0
LINE
  5
7A
  8
0
 62
     7
 10
170.1999999999999
 20
112.371
 30
0.0
 11
170.8359999999999
 21
112.17700000000001
 31
0.0
  0
LINE
  5
7B
  8
0
  6
AIGENLINE001
 62
     7
 10
166.3309999999999
 20
112.176
 30
0.0
 11
171.13800000000001
 21
112.176
 31
0.0
  0
LINE
  5
7C
  8
0
 62
     7
 10
165.45899999999989
 20
110.75399999999991
 30
0.0
 11
165.45899999999989
 21
117.0649999999999
 31
0.0
  0
LINE
  5
7D
  8
0
 62
     7
 10
167.08699999999999
 20
117.0649999999999
 30
0.0
 11
165.45899999999989
 21
117.0649999999999
 31
0.0
  0
LINE
  5
7E
  8
0
 62
     7
 10
167.08699999999999
 20
117.0649999999999
 30
0.0
 11
167.08699999999999
 21
110.75399999999991
 31
0.0
  0
LINE
  5
7F
  8
0
 62
     7
 10
167.08699999999999
 20
110.75399999999991
 30
0.0
 11
165.45899999999989
 21
110.75399999999991
 31
0.0
  0
LINE
  5
80
  8
0
 62
     7
 10
117.88799999999991
 20
186.08999999999989
 30
0.0
 11
117.88799999999991
 21
165.637
 31
0.0
  0
LINE
  5
81
  8
0
  6
AIGENLINE001
 62
     7
 10
119.07599999999999
 20
188.78099999999989
 30
0.0
 11
119.07599999999999
 21
165.637
 31
0.0
  0
LINE
  5
82
  8
0
 62
     7
 10
120.2639999999999
 20
186.08999999999989
 30
0.0
 11
120.2639999999999
 21
165.637
 31
0.0
  0
ARC
  5
83
  8
0
 62
     7
 10
50.182093999999992
 20
165.63658599999999
 30
0.0
 40
7.2936559999999986
 50
179.99996999999991
 51
270.00002000000001
  0
ARC
  5
84
  8
0
 62
     7
 10
50.182093999999992
 20
165.63658599999999
 30
0.0
 40
4.9187649999999996
 50
179.99996999999991
 51
270.00002000000001
  0
ARC
  5
85
  8
0
  6
AIGENLINE001
 62
     7
 10
50.182093999999992
 20
165.63658599999999
 30
0.0
 40
6.1062969999999996
 50
179.99996999999991
 51
270.00002000000001
  0
LINE
  5
86
  8
0
 62
     7
 10
45.263300000000001
 20
180.53
 30
0.0
 11
117.88799999999991
 21
180.53
 31
0.0
  0
LINE
  5
87
  8
0
 62
     7
 10
45.263300000000001
 20
181.78
 30
0.0
 11
117.88799999999991
 21
181.78
 31
0.0
  0
LINE
  5
88
  8
0
 62
     7
 10
45.263300000000001
 20
173.655
 30
0.0
 11
117.88799999999991
 21
173.655
 31
0.0
  0
LINE
  5
89
  8
0
 62
     7
 10
45.263300000000001
 20
174.90499999999989
 30
0.0
 11
117.88799999999991
 21
174.90499999999989
 31
0.0
  0
LINE
  5
8A
  8
0
 62
     7
 10
45.263300000000001
 20
167.09299999999999
 30
0.0
 11
117.88799999999991
 21
167.09299999999999
 31
0.0
  0
LINE
  5
8B
  8
0
 62
     7
 10
45.263300000000001
 20
168.3429999999999
 30
0.0
 11
117.88799999999991
 21
168.3429999999999
 31
0.0
  0
LINE
  5
8C
  8
0
  6
AIGENLINE001
 62
     7
 10
118.07599999999999
 20
191.77000000000001
 30
0.0
 11
118.07599999999999
 21
187.11299999999989
 31
0.0
  0
LINE
  5
8D
  8
0
  6
AIGENLINE001
 62
     7
 10
121.077
 20
191.8899999999999
 30
0.0
 11
121.077
 21
187.11299999999989
 31
0.0
  0
LINE
  5
8E
  8
0
 62
     7
 10
120.6849999999999
 20
188.154
 30
0.0
 11
121.4439999999999
 21
187.69900000000001
 31
0.0
  0
LINE
  5
8F
  8
0
 62
     7
 10
120.6849999999999
 20
188.59599999999989
 30
0.0
 11
121.4439999999999
 21
188.14099999999991
 31
0.0
  0
LINE
  5
90
  8
0
 62
     7
 10
120.6849999999999
 20
189.03800000000001
 30
0.0
 11
121.4439999999999
 21
188.58399999999989
 31
0.0
  0
LINE
  5
91
  8
0
 62
     7
 10
120.6849999999999
 20
189.48099999999991
 30
0.0
 11
121.4439999999999
 21
189.0259999999999
 31
0.0
  0
LINE
  5
92
  8
0
 62
     7
 10
120.6849999999999
 20
189.923
 30
0.0
 11
121.4439999999999
 21
189.4679999999999
 31
0.0
  0
LINE
  5
93
  8
0
 62
     7
 10
120.6849999999999
 20
190.36500000000001
 30
0.0
 11
121.4439999999999
 21
189.91099999999989
 31
0.0
  0
LINE
  5
94
  8
0
 62
     7
 10
120.6849999999999
 20
190.80799999999991
 30
0.0
 11
121.4439999999999
 21
190.35299999999989
 31
0.0
  0
LINE
  5
95
  8
0
 62
     7
 10
120.6849999999999
 20
191.25
 30
0.0
 11
121.4439999999999
 21
190.7949999999999
 31
0.0
  0
LINE
  5
96
  8
0
 62
     7
 10
121.27200000000001
 20
187.7179999999999
 30
0.0
 11
121.27200000000001
 21
190.82699999999991
 31
0.0
  0
LINE
  5
97
  8
0
 62
     7
 10
121.27200000000001
 20
190.82699999999991
 30
0.0
 11
121.077
 21
191.4679999999999
 31
0.0
  0
LINE
  5
98
  8
0
 62
     7
 10
120.883
 20
187.7179999999999
 30
0.0
 11
120.883
 21
190.8309999999999
 31
0.0
  0
LINE
  5
99
  8
0
 62
     7
 10
120.883
 20
190.8309999999999
 30
0.0
 11
121.077
 21
191.4679999999999
 31
0.0
  0
LINE
  5
9A
  8
0
  6
AIGENLINE001
 62
     7
 10
121.077
 20
186.96199999999999
 30
0.0
 11
121.077
 21
191.77000000000001
 31
0.0
  0
LINE
  5
9B
  8
0
 62
     7
 10
117.684
 20
188.154
 30
0.0
 11
118.44199999999999
 21
187.69900000000001
 31
0.0
  0
LINE
  5
9C
  8
0
 62
     7
 10
117.684
 20
188.59599999999989
 30
0.0
 11
118.44199999999999
 21
188.14099999999991
 31
0.0
  0
LINE
  5
9D
  8
0
 62
     7
 10
117.684
 20
189.03800000000001
 30
0.0
 11
118.44199999999999
 21
188.58399999999989
 31
0.0
  0
LINE
  5
9E
  8
0
 62
     7
 10
117.684
 20
189.48099999999991
 30
0.0
 11
118.44199999999999
 21
189.0259999999999
 31
0.0
  0
LINE
  5
9F
  8
0
 62
     7
 10
117.684
 20
189.923
 30
0.0
 11
118.44199999999999
 21
189.4679999999999
 31
0.0
  0
LINE
  5
A0
  8
0
 62
     7
 10
117.684
 20
190.36500000000001
 30
0.0
 11
118.44199999999999
 21
189.91099999999989
 31
0.0
  0
LINE
  5
A1
  8
0
 62
     7
 10
117.684
 20
190.80799999999991
 30
0.0
 11
118.44199999999999
 21
190.35299999999989
 31
0.0
  0
LINE
  5
A2
  8
0
 62
     7
 10
117.684
 20
191.25
 30
0.0
 11
118.44199999999999
 21
190.7949999999999
 31
0.0
  0
LINE
  5
A3
  8
0
 62
     7
 10
118.27
 20
187.7179999999999
 30
0.0
 11
118.27
 21
190.82699999999991
 31
0.0
  0
LINE
  5
A4
  8
0
 62
     7
 10
118.27
 20
190.82699999999991
 30
0.0
 11
118.0749999999999
 21
191.4679999999999
 31
0.0
  0
LINE
  5
A5
  8
0
 62
     7
 10
117.88199999999991
 20
187.7179999999999
 30
0.0
 11
117.88199999999991
 21
190.8309999999999
 31
0.0
  0
LINE
  5
A6
  8
0
 62
     7
 10
117.88199999999991
 20
190.8309999999999
 30
0.0
 11
118.0749999999999
 21
191.4679999999999
 31
0.0
  0
LINE
  5
A7
  8
0
  6
AIGENLINE001
 62
     7
 10
118.07599999999999
 20
186.96199999999999
 30
0.0
 11
118.07599999999999
 21
191.77000000000001
 31
0.0
  0
LINE
  5
A8
  8
0
 62
     7
 10
122.232
 20
186.08999999999989
 30
0.0
 11
115.92
 21
186.08999999999989
 31
0.0
  0
LINE
  5
A9
  8
0
 62
     7
 10
115.92
 20
187.7179999999999
 30
0.0
 11
115.92
 21
186.08999999999989
 31
0.0
  0
LINE
  5
AA
  8
0
 62
     7
 10
115.92
 20
187.7179999999999
 30
0.0
 11
122.2329999999999
 21
187.7179999999999
 31
0.0
  0
LINE
  5
AB
  8
0
 62
     7
 10
122.232
 20
187.7179999999999
 30
0.0
 11
122.232
 21
186.08999999999989
 31
0.0
  0
LINE
  5
AC
  8
0
  6
AIGENLINE001
 62
     7
 10
45.07609999999999
 20
191.77000000000001
 30
0.0
 11
45.07609999999999
 21
187.11299999999989
 31
0.0
  0
LINE
  5
AD
  8
0
  6
AIGENLINE001
 62
     7
 10
42.074899999999992
 20
191.8899999999999
 30
0.0
 11
42.074899999999992
 21
187.11299999999989
 31
0.0
  0
LINE
  5
AE
  8
0
 62
     7
 10
42.467300000000002
 20
188.154
 30
0.0
 11
41.708699999999993
 21
187.69900000000001
 31
0.0
  0
LINE
  5
AF
  8
0
 62
     7
 10
42.467300000000002
 20
188.59599999999989
 30
0.0
 11
41.708699999999993
 21
188.14099999999991
 31
0.0
  0
LINE
  5
B0
  8
0
 62
     7
 10
42.467300000000002
 20
189.03800000000001
 30
0.0
 11
41.708699999999993
 21
188.58399999999989
 31
0.0
  0
LINE
  5
B1
  8
0
 62
     7
 10
42.467300000000002
 20
189.48099999999991
 30
0.0
 11
41.708699999999993
 21
189.0259999999999
 31
0.0
  0
LINE
  5
B2
  8
0
 62
     7
 10
42.467300000000002
 20
189.923
 30
0.0
 11
41.708699999999993
 21
189.4679999999999
 31
0.0
  0
LINE
  5
B3
  8
0
 62
     7
 10
42.467300000000002
 20
190.36500000000001
 30
0.0
 11
41.708699999999993
 21
189.91099999999989
 31
0.0
  0
LINE
  5
B4
  8
0
 62
     7
 10
42.467300000000002
 20
190.80799999999991
 30
0.0
 11
41.708699999999993
 21
190.35299999999989
 31
0.0
  0
LINE
  5
B5
  8
0
 62
     7
 10
42.467300000000002
 20
191.25
 30
0.0
 11
41.708699999999993
 21
190.7949999999999
 31
0.0
  0
LINE
  5
B6
  8
0
 62
     7
 10
41.88069999999999
 20
187.7179999999999
 30
0.0
 11
41.88069999999999
 21
190.82699999999991
 31
0.0
  0
LINE
  5
B7
  8
0
 62
     7
 10
41.88069999999999
 20
190.82699999999991
 30
0.0
 11
42.075599999999987
 21
191.4679999999999
 31
0.0
  0
LINE
  5
B8
  8
0
 62
     7
 10
42.268799999999999
 20
187.7179999999999
 30
0.0
 11
42.268799999999999
 21
190.8309999999999
 31
0.0
  0
LINE
  5
B9
  8
0
 62
     7
 10
42.268799999999999
 20
190.8309999999999
 30
0.0
 11
42.075599999999987
 21
191.4679999999999
 31
0.0
  0
LINE
  5
BA
  8
0
  6
AIGENLINE001
 62
     7
 10
42.074899999999992
 20
186.96199999999999
 30
0.0
 11
42.074899999999992
 21
191.77000000000001
 31
0.0
  0
LINE
  5
BB
  8
0
 62
     7
 10
45.468499999999999
 20
188.154
 30
0.0
 11
44.710000000000001
 21
187.69900000000001
 31
0.0
  0
LINE
  5
BC
  8
0
 62
     7
 10
45.468499999999999
 20
188.59599999999989
 30
0.0
 11
44.710000000000001
 21
188.14099999999991
 31
0.0
  0
LINE
  5
BD
  8
0
 62
     7
 10
45.468499999999999
 20
189.03800000000001
 30
0.0
 11
44.710000000000001
 21
188.58399999999989
 31
0.0
  0
LINE
  5
BE
  8
0
 62
     7
 10
45.468499999999999
 20
189.48099999999991
 30
0.0
 11
44.710000000000001
 21
189.0259999999999
 31
0.0
  0
LINE
  5
BF
  8
0
 62
     7
 10
45.468499999999999
 20
189.923
 30
0.0
 11
44.710000000000001
 21
189.4679999999999
 31
0.0
  0
LINE
  5
C0
  8
0
 62
     7
 10
45.468499999999999
 20
190.36500000000001
 30
0.0
 11
44.710000000000001
 21
189.91099999999989
 31
0.0
  0
LINE
  5
C1
  8
0
 62
     7
 10
45.468499999999999
 20
190.80799999999991
 30
0.0
 11
44.710000000000001
 21
190.35299999999989
 31
0.0
  0
LINE
  5
C2
  8
0
 62
     7
 10
45.468499999999999
 20
191.25
 30
0.0
 11
44.710000000000001
 21
190.7949999999999
 31
0.0
  0
LINE
  5
C3
  8
0
 62
     7
 10
44.881999999999991
 20
187.7179999999999
 30
0.0
 11
44.881999999999991
 21
190.82699999999991
 31
0.0
  0
LINE
  5
C4
  8
0
 62
     7
 10
44.881999999999991
 20
190.82699999999991
 30
0.0
 11
45.076900000000002
 21
191.4679999999999
 31
0.0
  0
LINE
  5
C5
  8
0
 62
     7
 10
45.270200000000003
 20
187.7179999999999
 30
0.0
 11
45.270200000000003
 21
190.8309999999999
 31
0.0
  0
LINE
  5
C6
  8
0
 62
     7
 10
45.270200000000003
 20
190.8309999999999
 30
0.0
 11
45.076900000000002
 21
191.4679999999999
 31
0.0
  0
LINE
  5
C7
  8
0
  6
AIGENLINE001
 62
     7
 10
45.07609999999999
 20
186.96199999999999
 30
0.0
 11
45.07609999999999
 21
191.77000000000001
 31
0.0
  0
LINE
  5
C8
  8
0
 62
     7
 10
40.919600000000003
 20
195.589
 30
0.0
 11
40.919600000000003
 21
188.4499999999999
 31
0.0
  0
LINE
  5
C9
  8
0
 62
     7
 10
45.020400000000002
 20
194.357
 30
0.0
 11
47.231000000000002
 21
194.94900000000001
 31
0.0
  0
LINE
  5
CA
  8
0
 62
     7
 10
47.231000000000002
 20
194.94900000000001
 30
0.0
 11
45.020400000000002
 21
195.542
 31
0.0
  0
LINE
  5
CB
  8
0
 62
     7
 10
45.020400000000002
 20
195.542
 30
0.0
 11
45.020400000000002
 21
194.357
 31
0.0
  0
LINE
  5
CC
  8
0
 62
     7
 10
43.164199999999987
 20
195.52699999999999
 30
0.0
 11
40.953800000000001
 21
194.935
 31
0.0
  0
LINE
  5
CD
  8
0
 62
     7
 10
40.953800000000001
 20
194.935
 30
0.0
 11
43.164199999999987
 21
194.34200000000001
 31
0.0
  0
LINE
  5
CE
  8
0
 62
     7
 10
43.164199999999987
 20
194.34200000000001
 30
0.0
 11
43.164199999999987
 21
195.52699999999999
 31
0.0
  0
LINE
  5
CF
  8
0
 62
     7
 10
47.231900000000003
 20
194.935
 30
0.0
 11
40.953000000000003
 21
194.935
 31
0.0
  0
LINE
  5
D0
  8
0
 62
     7
 10
47.231900000000003
 20
195.63499999999999
 30
0.0
 11
47.231900000000003
 21
188.4499999999999
 31
0.0
  0
LINE
  5
D1
  8
0
 62
     7
 10
40.919899999999998
 20
186.08999999999989
 30
0.0
 11
47.231900000000003
 21
186.08999999999989
 31
0.0
  0
LINE
  5
D2
  8
0
 62
     7
 10
47.231900000000003
 20
187.7179999999999
 30
0.0
 11
47.231900000000003
 21
186.08999999999989
 31
0.0
  0
LINE
  5
D3
  8
0
 62
     7
 10
47.231900000000003
 20
187.7179999999999
 30
0.0
 11
40.919600000000003
 21
187.7179999999999
 31
0.0
  0
LINE
  5
D4
  8
0
 62
     7
 10
40.919899999999998
 20
187.7179999999999
 30
0.0
 11
40.919899999999998
 21
186.08999999999989
 31
0.0
  0
LINE
  5
D5
  8
0
  6
AIGENLINE001
 62
     7
 10
45.830100000000002
 20
112.176
 30
0.0
 11
44.333100000000002
 21
112.176
 31
0.0
  0
LINE
  5
D6
  8
0
  6
AIGENLINE001
 62
     7
 10
45.783200000000001
 20
115.6429999999999
 30
0.0
 11
44.286299999999997
 21
115.6429999999999
 31
0.0
  0
ARC
  5
D7
  8
0
  6
AIGENLINE002
 62
     7
 10
45.087868
 20
112.1884239999999
 30
0.0
 40
0.324646
 50
182.111334
 51
267.92027200000001
  0
ARC
  5
D8
  8
0
  6
AIGENLINE002
 62
     7
 10
45.064267999999991
 20
112.18846000000001
 30
0.0
 40
0.324684
 50
272.08597999999989
 51
357.88245299999988
  0
ARC
  5
D9
  8
0
  6
AIGENLINE002
 62
     7
 10
45.064335999999997
 20
112.164534
 30
0.0
 40
0.324614
 50
2.1060929999999991
 51
87.925473999999994
  0
ARC
  5
DA
  8
0
  6
AIGENLINE002
 62
     7
 10
45.088008000000002
 20
112.1643629999999
 30
0.0
 40
0.324791
 50
92.103456000000008
 51
177.864937
  0
LINE
  5
DB
  8
0
  6
AIGENLINE001
 62
     7
 10
45.07609999999999
 20
112.98
 30
0.0
 11
45.07609999999999
 21
111.40000000000001
 31
0.0
  0
ARC
  5
DC
  8
0
  6
AIGENLINE002
 62
     7
 10
45.088160999999992
 20
115.65449199999991
 30
0.0
 40
0.324937
 50
182.09809300000001
 51
267.87037700000002
  0
ARC
  5
DD
  8
0
  6
AIGENLINE002
 62
     7
 10
45.064351000000002
 20
115.65415299999999
 30
0.0
 40
0.324586
 50
272.07208199999991
 51
357.95948700000002
  0
ARC
  5
DE
  8
0
  6
AIGENLINE002
 62
     7
 10
45.064659999999989
 20
115.630633
 30
0.0
 40
0.324292
 50
2.1141179999999991
 51
87.980654000000001
  0
ARC
  5
DF
  8
0
  6
AIGENLINE002
 62
     7
 10
45.087983000000001
 20
115.630162
 30
0.0
 40
0.324779
 50
92.099237000000002
 51
177.80595099999999
  0
LINE
  5
E0
  8
0
  6
AIGENLINE001
 62
     7
 10
45.07609999999999
 20
116.44499999999989
 30
0.0
 11
45.07609999999999
 21
114.866
 31
0.0
  0
ARC
  5
E1
  8
0
  6
AIGENLINE002
 62
     7
 10
42.086946999999988
 20
113.921598
 30
0.0
 40
0.324937
 50
182.09809300000001
 51
267.87037700000002
  0
ARC
  5
E2
  8
0
  6
AIGENLINE002
 62
     7
 10
42.06306699999999
 20
113.92115
 30
0.0
 40
0.32448
 50
272.08514699999989
 51
357.97799800000001
  0
ARC
  5
E3
  8
0
  6
AIGENLINE002
 62
     7
 10
42.063378999999998
 20
113.897851
 30
0.0
 40
0.324182
 50
2.0949450000000001
 51
87.968250999999995
  0
ARC
  5
E4
  8
0
  6
AIGENLINE002
 62
     7
 10
42.08676899999999
 20
113.8972679999999
 30
0.0
 40
0.324779
 50
92.099237000000002
 51
177.80595099999999
  0
LINE
  5
E5
  8
0
  6
AIGENLINE001
 62
     7
 10
42.074899999999992
 20
114.712
 30
0.0
 11
42.074899999999992
 21
113.1329999999999
 31
0.0
  0
LINE
  5
E6
  8
0
  6
AIGENLINE001
 62
     7
 10
117.322
 20
112.176
 30
0.0
 11
118.819
 21
112.176
 31
0.0
  0
LINE
  5
E7
  8
0
  6
AIGENLINE001
 62
     7
 10
117.369
 20
115.6429999999999
 30
0.0
 11
118.866
 21
115.6429999999999
 31
0.0
  0
ARC
  5
E8
  8
0
  6
AIGENLINE002
 62
     7
 10
118.0642669999999
 20
112.188436
 30
0.0
 40
0.324653
 50
272.050318
 51
357.88655599999998
  0
ARC
  5
E9
  8
0
  6
AIGENLINE002
 62
     7
 10
118.087833
 20
112.188057
 30
0.0
 40
0.324286
 50
182.0488
 51
267.88802399999997
  0
ARC
  5
EA
  8
0
  6
AIGENLINE002
 62
     7
 10
118.088133
 20
112.1645699999999
 30
0.0
 40
0.324596
 50
92.162936999999985
 51
177.900239
  0
ARC
  5
EB
  8
0
  6
AIGENLINE002
 62
     7
 10
118.064319
 20
112.1645419999999
 30
0.0
 40
0.324599
 50
2.10467
 51
87.958456000000012
  0
LINE
  5
EC
  8
0
  6
AIGENLINE001
 62
     7
 10
118.07599999999999
 20
112.98
 30
0.0
 11
118.07599999999999
 21
111.40000000000001
 31
0.0
  0
ARC
  5
ED
  8
0
  6
AIGENLINE002
 62
     7
 10
118.0639739999999
 20
115.654504
 30
0.0
 40
0.324943
 50
272.10021
 51
357.89980000000003
  0
ARC
  5
EE
  8
0
  6
AIGENLINE002
 62
     7
 10
118.0878569999999
 20
115.65385599999991
 30
0.0
 40
0.324298
 50
181.9898949999999
 51
267.88379399999991
  0
ARC
  5
EF
  8
0
  6
AIGENLINE002
 62
     7
 10
118.08780899999999
 20
115.630669
 30
0.0
 40
0.324273
 50
92.107746999999989
 51
177.892223
  0
ARC
  5
F0
  8
0
  6
AIGENLINE002
 62
     7
 10
118.064378
 20
115.630377
 30
0.0
 40
0.32455
 50
2.157608999999999
 51
87.968722999999997
  0
LINE
  5
F1
  8
0
  6
AIGENLINE001
 62
     7
 10
118.07599999999999
 20
116.44499999999989
 30
0.0
 11
118.07599999999999
 21
114.866
 31
0.0
  0
ARC
  5
F2
  8
0
  6
AIGENLINE002
 62
     7
 10
121.06536
 20
113.92161
 30
0.0
 40
0.324943
 50
272.10021
 51
357.89980000000003
  0
ARC
  5
F3
  8
0
  6
AIGENLINE002
 62
     7
 10
121.0892429999999
 20
113.920962
 30
0.0
 40
0.324298
 50
181.9898949999999
 51
267.88379399999991
  0
ARC
  5
F4
  8
0
  6
AIGENLINE002
 62
     7
 10
121.0891949999999
 20
113.897775
 30
0.0
 40
0.324273
 50
92.107746999999989
 51
177.892223
  0
ARC
  5
F5
  8
0
  6
AIGENLINE002
 62
     7
 10
121.0657649999999
 20
113.89748299999999
 30
0.0
 40
0.32455
 50
2.157608999999999
 51
87.968722999999997
  0
LINE
  5
F6
  8
0
  6
AIGENLINE001
 62
     7
 10
121.077
 20
114.712
 30
0.0
 11
121.077
 21
113.1329999999999
 31
0.0
  0
LINE
  5
F7
  8
0
  6
AIGENLINE001
 62
     7
 10
123.282
 20
113.91
 30
0.0
 11
39.111699999999999
 21
113.91
 31
0.0
  0
LINE
  5
F8
  8
0
 62
     7
 10
121.3659999999999
 20
193.738
 30
0.0
 11
121.077
 21
191.4679999999999
 31
0.0
  0
LINE
  5
F9
  8
0
 62
     7
 10
121.077
 20
191.4679999999999
 30
0.0
 11
122.46299999999989
 21
193.28899999999999
 31
0.0
  0
LINE
  5
FA
  8
0
 62
     7
 10
122.46299999999989
 20
193.28899999999999
 30
0.0
 11
121.3659999999999
 21
193.738
 31
0.0
  0
LINE
  5
FB
  8
0
 62
     7
 10
125.05200000000001
 20
201.17799999999991
 30
0.0
 11
121.077
 21
191.4679999999999
 31
0.0
  0
LINE
  5
FC
  8
0
 62
     7
 10
46.286999999999999
 20
124.3489999999999
 30
0.0
 11
44.076700000000002
 21
123.75700000000001
 31
0.0
  0
LINE
  5
FD
  8
0
 62
     7
 10
44.076700000000002
 20
123.75700000000001
 30
0.0
 11
46.286999999999999
 21
123.16500000000001
 31
0.0
  0
LINE
  5
FE
  8
0
 62
     7
 10
46.286999999999999
 20
123.16500000000001
 30
0.0
 11
46.286999999999999
 21
124.3489999999999
 31
0.0
  0
LINE
  5
FF
  8
0
 62
     7
 10
116.8479999999999
 20
123.1789999999999
 30
0.0
 11
119.059
 21
123.77200000000001
 31
0.0
  0
LINE
  5
100
  8
0
 62
     7
 10
119.059
 20
123.77200000000001
 30
0.0
 11
116.8479999999999
 21
124.3639999999999
 31
0.0
  0
LINE
  5
101
  8
0
 62
     7
 10
116.8479999999999
 20
124.3639999999999
 30
0.0
 11
116.8479999999999
 21
123.1789999999999
 31
0.0
  0
LINE
  5
102
  8
0
 62
     7
 10
125.05200000000001
 20
201.17799999999991
 30
0.0
 11
150.554
 21
201.17799999999991
 31
0.0
  0
LINE
  5
103
  8
0
 62
     7
 10
44.075800000000001
 20
123.75700000000001
 30
0.0
 11
119.06
 21
123.75700000000001
 31
0.0
  0
LINE
  5
104
  8
0
 62
     7
 10
167.08699999999999
 20
110.054
 30
0.0
 11
167.08699999999999
 21
95.416700000000006
 31
0.0
  0
LINE
  5
105
  8
0
 62
     7
 10
157.08699999999999
 20
101.095
 30
0.0
 11
157.08699999999999
 21
95.416700000000006
 31
0.0
  0
LINE
  5
106
  8
0
 62
     7
 10
119.07599999999999
 20
124.4609999999999
 30
0.0
 11
119.07599999999999
 21
118.432
 31
0.0
  0
LINE
  5
107
  8
0
 62
     7
 10
44.075800000000001
 20
124.45699999999999
 30
0.0
 11
44.075800000000001
 21
118.4829999999999
 31
0.0
  0
LINE
  5
108
  8
0
 62
     7
 10
45.263300000000001
 20
186.08999999999989
 30
0.0
 11
45.263300000000001
 21
165.637
 31
0.0
  0
LINE
  5
109
  8
0
  6
AIGENLINE001
 62
     7
 10
44.075800000000001
 20
188.78099999999989
 30
0.0
 11
44.075800000000001
 21
165.637
 31
0.0
  0
LINE
  5
10A
  8
0
 62
     7
 10
50.182099999999991
 20
160.7179999999999
 30
0.0
 11
112.9699999999999
 21
160.7179999999999
 31
0.0
  0
LINE
  5
10B
  8
0
 62
     7
 10
44.075800000000001
 20
112.72199999999999
 30
0.0
 11
119.07599999999999
 21
112.72199999999999
 31
0.0
  0
LINE
  5
10C
  8
0
 62
     7
 10
44.075800000000001
 20
115.09699999999999
 30
0.0
 11
119.07599999999999
 21
115.09699999999999
 31
0.0
  0
LINE
  5
10D
  8
0
 62
     7
 10
50.182099999999991
 20
158.3429999999999
 30
0.0
 11
112.9699999999999
 21
158.3429999999999
 31
0.0
  0
LINE
  5
10E
  8
0
  6
AIGENLINE001
 62
     7
 10
50.182099999999991
 20
159.52999999999989
 30
0.0
 11
112.9699999999999
 21
159.52999999999989
 31
0.0
  0
LINE
  5
10F
  8
0
 62
     7
 10
42.88839999999999
 20
186.08999999999989
 30
0.0
 11
42.88839999999999
 21
165.637
 31
0.0
  0
LINE
  5
110
  8
0
 62
     7
 10
86.701899999999995
 20
106.776
 30
0.0
 11
87.294099999999986
 21
104.566
 31
0.0
  0
LINE
  5
111
  8
0
 62
     7
 10
87.294099999999986
 20
104.566
 30
0.0
 11
87.886499999999998
 21
106.776
 31
0.0
  0
LINE
  5
112
  8
0
 62
     7
 10
87.886499999999998
 20
106.776
 30
0.0
 11
86.701899999999995
 21
106.776
 31
0.0
  0
LINE
  5
113
  8
0
 62
     7
 10
87.886300000000006
 20
100.855
 30
0.0
 11
87.294099999999986
 21
103.066
 31
0.0
  0
LINE
  5
114
  8
0
 62
     7
 10
87.294099999999986
 20
103.066
 30
0.0
 11
86.701700000000002
 21
100.855
 31
0.0
  0
LINE
  5
115
  8
0
 62
     7
 10
86.701700000000002
 20
100.855
 30
0.0
 11
87.886300000000006
 21
100.855
 31
0.0
  0
LINE
  5
116
  8
0
 62
     7
 10
87.294099999999986
 20
96.436099999999996
 30
0.0
 11
87.294099999999986
 21
107.682
 31
0.0
  0
LINE
  5
117
  8
0
 62
     7
 10
86.701899999999995
 20
170.55299999999991
 30
0.0
 11
87.294099999999986
 21
168.3429999999999
 31
0.0
  0
LINE
  5
118
  8
0
 62
     7
 10
87.294099999999986
 20
168.3429999999999
 30
0.0
 11
87.886499999999998
 21
170.55299999999991
 31
0.0
  0
LINE
  5
119
  8
0
 62
     7
 10
87.886499999999998
 20
170.55299999999991
 30
0.0
 11
86.701899999999995
 21
170.55299999999991
 31
0.0
  0
LINE
  5
11A
  8
0
 62
     7
 10
87.886300000000006
 20
164.88200000000001
 30
0.0
 11
87.294099999999986
 21
167.09299999999999
 31
0.0
  0
LINE
  5
11B
  8
0
 62
     7
 10
87.294099999999986
 20
167.09299999999999
 30
0.0
 11
86.701700000000002
 21
164.88200000000001
 31
0.0
  0
LINE
  5
11C
  8
0
 62
     7
 10
86.701700000000002
 20
164.88200000000001
 30
0.0
 11
87.886300000000006
 21
164.88200000000001
 31
0.0
  0
LINE
  5
11D
  8
0
 62
     7
 10
87.294099999999986
 20
161.49899999999991
 30
0.0
 11
87.294099999999986
 21
172.44200000000001
 31
0.0
  0
LINE
  5
11E
  8
0
 62
     7
 10
75.399299999999997
 20
162.928
 30
0.0
 11
75.991500000000002
 21
160.7179999999999
 31
0.0
  0
LINE
  5
11F
  8
0
 62
     7
 10
75.991500000000002
 20
160.7179999999999
 30
0.0
 11
76.5839
 21
162.928
 31
0.0
  0
LINE
  5
120
  8
0
 62
     7
 10
76.5839
 20
162.928
 30
0.0
 11
75.399299999999997
 21
162.928
 31
0.0
  0
LINE
  5
121
  8
0
 62
     7
 10
76.583799999999997
 20
156.1329999999999
 30
0.0
 11
75.991500000000002
 21
158.3429999999999
 31
0.0
  0
LINE
  5
122
  8
0
 62
     7
 10
75.991500000000002
 20
158.3429999999999
 30
0.0
 11
75.399100000000004
 21
156.1329999999999
 31
0.0
  0
LINE
  5
123
  8
0
 62
     7
 10
75.399100000000004
 20
156.1329999999999
 30
0.0
 11
76.583799999999997
 21
156.1329999999999
 31
0.0
  0
LINE
  5
124
  8
0
 62
     7
 10
75.991500000000002
 20
151.941
 30
0.0
 11
75.991500000000002
 21
165.31700000000001
 31
0.0
  0
LINE
  5
125
  8
0
 62
     7
 10
35.061999999999991
 20
160.55399999999989
 30
0.0
 11
35.654200000000003
 21
158.34399999999991
 31
0.0
  0
LINE
  5
126
  8
0
 62
     7
 10
35.654200000000003
 20
158.34399999999991
 30
0.0
 11
36.246600000000001
 21
160.55399999999989
 31
0.0
  0
LINE
  5
127
  8
0
 62
     7
 10
36.246600000000001
 20
160.55399999999989
 30
0.0
 11
35.061999999999991
 21
160.55399999999989
 31
0.0
  0
LINE
  5
128
  8
0
 62
     7
 10
36.231999999999999
 20
185.50699999999989
 30
0.0
 11
35.639699999999991
 21
187.71700000000001
 31
0.0
  0
LINE
  5
129
  8
0
 62
     7
 10
35.639699999999991
 20
187.71700000000001
 30
0.0
 11
35.047400000000003
 21
185.50699999999989
 31
0.0
  0
LINE
  5
12A
  8
0
 62
     7
 10
35.047400000000003
 20
185.50699999999989
 30
0.0
 11
36.231999999999999
 21
185.50699999999989
 31
0.0
  0
LINE
  5
12B
  8
0
 62
     7
 10
35.639699999999991
 20
158.3429999999999
 30
0.0
 11
35.639699999999991
 21
187.7179999999999
 31
0.0
  0
LINE
  5
12C
  8
0
 62
     7
 10
45.263300000000001
 20
176.9679999999999
 30
0.0
 11
117.88799999999991
 21
176.9679999999999
 31
0.0
  0
LINE
  5
12D
  8
0
 62
     7
 10
45.263300000000001
 20
178.4679999999999
 30
0.0
 11
117.88799999999991
 21
178.4679999999999
 31
0.0
  0
LINE
  5
12E
  8
0
 62
     7
 10
34.81819999999999
 20
158.3429999999999
 30
0.0
 11
47.1008
 21
158.3429999999999
 31
0.0
  0
LINE
  5
12F
  8
0
 62
     7
 10
40.496000000000002
 20
187.7179999999999
 30
0.0
 11
34.939700000000002
 21
187.7179999999999
 31
0.0
  0
LINE
  5
130
  8
0
 62
     7
 10
43.326000000000001
 20
112.9889999999999
 30
0.0
 11
43.326000000000001
 21
106.71299999999989
 31
0.0
  0
LINE
  5
131
  8
0
 62
     7
 10
44.825800000000001
 20
112.72199999999999
 30
0.0
 11
44.825800000000001
 21
106.71299999999989
 31
0.0
  0
LINE
  5
132
  8
0
  6
AIGENLINE001
 62
     7
 10
44.075800000000001
 20
117.816
 30
0.0
 11
44.075800000000001
 21
106.71299999999989
 31
0.0
  0
LINE
  5
133
  8
0
 62
     7
 10
46.972599999999993
 20
103.066
 30
0.0
 11
116.18000000000001
 21
103.066
 31
0.0
  0
LINE
  5
134
  8
0
 62
     7
 10
46.972599999999993
 20
104.566
 30
0.0
 11
116.18000000000001
 21
104.566
 31
0.0
  0
LINE
  5
135
  8
0
  6
AIGENLINE001
 62
     7
 10
46.972599999999993
 20
103.8159999999999
 30
0.0
 11
116.18000000000001
 21
103.8159999999999
 31
0.0
  0
LINE
  5
136
  8
0
 62
     7
 10
35.061999999999991
 20
105.2939999999999
 30
0.0
 11
35.654200000000003
 21
103.0829999999999
 31
0.0
  0
LINE
  5
137
  8
0
 62
     7
 10
35.654200000000003
 20
103.0829999999999
 30
0.0
 11
36.246600000000001
 21
105.2939999999999
 31
0.0
  0
LINE
  5
138
  8
0
 62
     7
 10
36.246600000000001
 20
105.2939999999999
 30
0.0
 11
35.061999999999991
 21
105.2939999999999
 31
0.0
  0
LINE
  5
139
  8
0
 62
     7
 10
36.231999999999999
 20
114.837
 30
0.0
 11
35.639699999999991
 21
117.0479999999999
 31
0.0
  0
LINE
  5
13A
  8
0
 62
     7
 10
35.639699999999991
 20
117.0479999999999
 30
0.0
 11
35.047400000000003
 21
114.837
 31
0.0
  0
LINE
  5
13B
  8
0
 62
     7
 10
35.047400000000003
 20
114.837
 30
0.0
 11
36.231999999999999
 21
114.837
 31
0.0
  0
LINE
  5
13C
  8
0
 62
     7
 10
35.639699999999991
 20
103.0829999999999
 30
0.0
 11
35.639699999999991
 21
117.04900000000001
 31
0.0
  0
LINE
  5
13D
  8
0
 62
     7
 10
42.249499999999991
 20
117.0649999999999
 30
0.0
 11
34.939700000000002
 21
117.0649999999999
 31
0.0
  0
LINE
  5
13E
  8
0
 62
     7
 10
45.187899999999999
 20
103.066
 30
0.0
 11
34.987900000000003
 21
103.066
 31
0.0
  0
LINE
  5
13F
  8
_________2
 62
     7
 10
205.30099999999999
 20
127.411
 30
0.0
 11
183.55099999999999
 21
127.411
 31
0.0
  0
LINE
  5
140
  8
_________2
 62
     7
 10
100.2999999999999
 20
-4.0903900000000002
 30
0.0
 11
100.2999999999999
 21
-21.070699999999992
 31
0.0
  0
LINE
  5
141
  8
_________2
 62
     7
 10
100.2999999999999
 20
275.93099999999993
 30
0.0
 11
100.2999999999999
 21
258.911
 31
0.0
  0
LINE
  5
142
  8
_________2
 62
     7
 10
17.049700000000001
 20
127.411
 30
0.0
 11
-4.7000000000000002
 21
127.411
 31
0.0
  0
LINE
  5
143
  8
_________2
 62
     7
 10
76.741900000000001
 20
29.805399999999992
 30
0.0
 11
74.554900000000004
 21
29.805399999999992
 31
0.0
  0
LINE
  5
144
  8
_________2
 62
     7
 10
77.234499999999997
 20
29.805399999999992
 30
0.0
 11
76.982399999999998
 21
29.805399999999992
 31
0.0
  0
LINE
  5
145
  8
_________2
 62
     7
 10
77.727199999999996
 20
29.805399999999992
 30
0.0
 11
80.652100000000004
 21
29.805399999999992
 31
0.0
  0
LINE
  5
146
  8
_________2
 62
     7
 10
77.234499999999997
 20
29.805399999999992
 30
0.0
 11
77.486000000000004
 21
29.805399999999992
 31
0.0
  0
LINE
  5
147
  8
_________2
 62
     7
 10
70.837599999999995
 20
29.805399999999992
 30
0.0
 11
68.650700000000001
 21
29.805399999999992
 31
0.0
  0
LINE
  5
148
  8
_________2
 62
     7
 10
71.330299999999994
 20
29.805399999999992
 30
0.0
 11
71.078100000000006
 21
29.805399999999992
 31
0.0
  0
LINE
  5
149
  8
_________2
 62
     7
 10
71.330299999999994
 20
30.298100000000002
 30
0.0
 11
71.330299999999994
 21
32.484999999999992
 31
0.0
  0
LINE
  5
14A
  8
_________2
 62
     7
 10
71.330299999999994
 20
29.805399999999992
 30
0.0
 11
71.330299999999994
 21
30.057600000000001
 31
0.0
  0
LINE
  5
14B
  8
_________2
 62
     7
 10
71.822900000000004
 20
29.805399999999992
 30
0.0
 11
74.009200000000007
 21
29.805399999999992
 31
0.0
  0
LINE
  5
14C
  8
_________2
 62
     7
 10
71.330299999999994
 20
29.805399999999992
 30
0.0
 11
71.582499999999996
 21
29.805399999999992
 31
0.0
  0
LINE
  5
14D
  8
_________2
 62
     7
 10
71.330299999999994
 20
29.313500000000001
 30
0.0
 11
71.330299999999994
 21
27.1265
 31
0.0
  0
LINE
  5
14E
  8
_________2
 62
     7
 10
71.330299999999994
 20
29.805399999999992
 30
0.0
 11
71.330299999999994
 21
29.553899999999992
 31
0.0
  0
LINE
  5
14F
  8
_________2
 62
     7
 10
75.041399999999996
 20
28.585899999999992
 30
0.0
 11
80.219399999999979
 21
27.7211
 31
0.0
  0
LINE
  5
150
  8
_________2
 62
     7
 10
75.041399999999996
 20
31.024999999999999
 30
0.0
 11
80.219399999999979
 21
31.8904
 31
0.0
  0
LINE
  5
151
  8
_________2
 62
     7
 10
80.219399999999979
 20
27.7211
 30
0.0
 11
80.219399999999979
 21
31.8904
 31
0.0
  0
LINE
  5
152
  8
_________2
 62
     7
 10
75.041399999999996
 20
28.585899999999992
 30
0.0
 11
75.041399999999996
 21
31.024999999999999
 31
0.0
  0
ARC
  5
153
  8
_________2
 62
     7
 10
71.283383999999998
 20
29.758524999999999
 30
0.0
 40
1.267347
 50
2.1211329999999999
 51
87.878856999999996
  0
ARC
  5
154
  8
_________2
 62
     7
 10
71.376806999999999
 20
29.758917
 30
0.0
 40
1.2669410000000001
 50
92.104055000000017
 51
177.895915
  0
ARC
  5
155
  8
_________2
 62
     7
 10
71.377218999999997
 20
29.852360000000001
 30
0.0
 40
1.2673680000000001
 50
182.12203600000001
 51
267.877993
  0
ARC
  5
156
  8
_________2
 62
     7
 10
71.283383999999998
 20
29.852339000000001
 30
0.0
 40
1.267347
 50
272.12114300000002
 51
357.87886700000001
  0
ARC
  5
157
  8
_________2
 62
     7
 10
71.249605000000003
 20
29.725460999999999
 30
0.0
 40
2.1664590000000001
 50
2.1154579999999998
 51
87.865593999999987
  0
ARC
  5
158
  8
_________2
 62
     7
 10
71.330292
 20
29.805431999999989
 30
0.0
 40
2.0849849999999992
 50
90.0
 51
179.99996999999991
  0
ARC
  5
159
  8
_________2
 62
     7
 10
71.409633999999997
 20
29.885488999999989
 30
0.0
 40
2.165807
 50
182.1183979999999
 51
267.90056900000002
  0
ARC
  5
15A
  8
_________2
 62
     7
 10
71.250302000000005
 20
29.885421000000001
 30
0.0
 40
2.1657630000000001
 50
272.11662699999988
 51
357.88338299999992
  0
TEXT
  5
15B
  8
_________2
 62
     7
 10
104.605
 20
1.68018
 30
0.0
 40
3.0923400000000001
  1
図番
 41
0.5
  0
LINE
  5
15C
  8
_________2
 62
     7
 10
103.55
 20
5.9094100000000003
 30
0.0
 11
183.55099999999999
 21
5.9094100000000003
 31
0.0
  0
TEXT
  5
15D
  8
_________2
 62
     7
 10
104.605
 20
11.679999999999991
 30
0.0
 40
3.0923400000000001
  1
品番
 41
0.5
  0
TEXT
  5
15E
  8
_________2
 62
     7
 10
104.605
 20
31.8188
 30
0.0
 40
3.0923400000000001
  1
名称
 41
0.5
  0
TEXT
  5
15F
  8
_________2
 62
     7
 10
91.845258333333334
 20
26.822600000000001
 30
0.0
 40
3.6545800000000002
  1
mm
 41
0.5
 72
     1
 11
93.367999999999995
 21
26.822600000000001
 31
0.0
  0
TEXT
  5
160
  8
_________2
 62
     7
 10
85.644099999999995
 20
31.8188
 30
0.0
 40
3.0923400000000001
  1
単位
 41
0.5
  0
TEXT
  5
161
  8
_________2
 62
     7
 10
85.644099999999995
 20
19.4115
 30
0.0
 40
3.0923400000000001
  1
尺度
 41
0.5
  0
TEXT
  5
162
  8
_________2
 62
     7
 10
90.548958666666664
 20
13.2186
 30
0.0
 40
3.6545800000000002
  1
1 ： 8
 41
0.5
 72
     1
 11
93.959900000000005
 21
13.2186
 31
0.0
  0
TEXT
  5
163
  8
_________2
 62
     7
 10
135.84258750000001
 20
9.1085499999999993
 30
0.0
 40
3.9357000000000002
  1
EC.S5069S
 41
0.5
 72
     1
 11
143.55000000000001
 21
9.1085499999999993
 31
0.0
  0
TEXT
  5
164
  8
_________2
 62
     7
 10
136.27056250000001
 20
-0.8919409999999999
 30
0.0
 40
3.9357000000000002
  1
ECS5069S
 41
0.5
 72
     1
 11
143.65000000000001
 21
-0.8919409999999999
 31
0.0
  0
TEXT
  5
165
  8
_________2
 62
     7
 10
109.179
 20
24.226400000000002
 30
0.0
 40
3.9357000000000002
  1
タオルラック（バー付、600サイズ）
 41
0.5
  0
TEXT
  5
166
  8
_________2
 62
     7
 10
39.30368099999999
 20
13.6037
 30
0.0
 40
3.6545800000000002
  1
田尻
 41
0.5
 72
     1
 11
41.31369999999999
 21
13.6037
 31
0.0
  0
TEXT
  5
167
  8
_________2
 62
     7
 10
20.79059066666666
 20
13.6037
 30
0.0
 40
3.6545800000000002
  1
石原
 41
0.5
 72
     1
 11
22.739699999999988
 21
13.6037
 31
0.0
  0
TEXT
  5
168
  8
_________2
 62
     7
 10
67.786000000000001
 20
13.2186
 30
0.0
 40
3.6545800000000002
  1
10.07.05
 41
0.5
  0
TEXT
  5
169
  8
_________2
 62
     7
 10
66.593299999999999
 20
19.4115
 30
0.0
 40
3.0923400000000001
  1
日付
 41
0.5
  0
TEXT
  5
16A
  8
_________2
 62
     7
 10
29.639500000000002
 20
19.4115
 30
0.0
 40
3.0923400000000001
  1
検図
 41
0.5
  0
TEXT
  5
16B
  8
_________2
 62
     7
 10
18.021899999999992
 20
5.2121199999999988
 30
0.0
 40
3.0923400000000001
  1
備考
 41
0.5
  0
TEXT
  5
16C
  8
_________2
 62
     7
 10
18.021899999999992
 20
19.4115
 30
0.0
 40
3.0923400000000001
  1
製図
 41
0.5
  0
TEXT
  5
16D
  8
_________2
 62
     7
 10
23.789365333333329
 20
27.9375
 30
0.0
 40
4.4979399999999989
  1
セラトレーディング株式会社
 41
0.5
 72
     1
 11
41.181399999999989
 21
27.9375
 31
0.0
  0
LINE
  5
16E
  8
_________2
 62
     7
 10
183.55099999999999
 20
-4.0903900000000002
 30
0.0
 11
17.049700000000001
 21
-4.0903900000000002
 31
0.0
  0
LINE
  5
16F
  8
_________2
 62
     7
 10
17.049700000000001
 20
-4.0903900000000002
 30
0.0
 11
17.049700000000001
 21
258.911
 31
0.0
  0
LINE
  5
170
  8
_________2
 62
     7
 10
17.049700000000001
 20
258.911
 30
0.0
 11
183.55099999999999
 21
258.911
 31
0.0
  0
LINE
  5
171
  8
_________2
 62
     7
 10
183.55099999999999
 20
258.911
 30
0.0
 11
183.55099999999999
 21
-4.0903900000000002
 31
0.0
  0
LINE
  5
172
  8
_________2
 62
     7
 10
65.5501
 20
9.4096499999999992
 30
0.0
 11
65.5501
 21
35.909500000000001
 31
0.0
  0
LINE
  5
173
  8
_________2
 62
     7
 10
84.550600000000017
 20
9.4096499999999992
 30
0.0
 11
84.550600000000017
 21
35.909500000000001
 31
0.0
  0
LINE
  5
174
  8
_________2
 62
     7
 10
103.55
 20
-4.0903900000000002
 30
0.0
 11
103.55
 21
35.909500000000001
 31
0.0
  0
LINE
  5
175
  8
_________2
 62
     7
 10
28.5502
 20
9.4096499999999992
 30
0.0
 11
28.5502
 21
23.4099
 31
0.0
  0
LINE
  5
176
  8
_________2
 62
     7
 10
17.049700000000001
 20
9.4096499999999992
 30
0.0
 11
103.55
 21
9.4096499999999992
 31
0.0
  0
LINE
  5
177
  8
_________2
 62
     7
 10
17.049700000000001
 20
23.4099
 30
0.0
 11
103.55
 21
23.4099
 31
0.0
  0
LINE
  5
178
  8
_________2
 62
     7
 10
103.55
 20
15.9092
 30
0.0
 11
183.55099999999999
 21
15.9092
 31
0.0
  0
LINE
  5
179
  8
_________2
 62
     7
 10
17.049700000000001
 20
35.909500000000001
 30
0.0
 11
183.55099999999999
 21
35.909500000000001
 31
0.0
  0
ENDSEC
  0
EOF
