  0
SECTION
  2
HEADER
  9
$ACADVER
  1
AC1009
  9
$INSBASE
 10
0.0
 20
0.0
 30
0.0
  9
$EXTMIN
 10
-4.7010300000000003
 20
-21.070999999999991
 30
0.0
  9
$EXTMAX
 10
205.30099999999999
 20
275.93099999999993
 30
0.0
  9
$LIMMIN
 10
0.0
 20
0.0
  9
$LIMMAX
 10
12.0
 20
9.0
  9
$ORTHOMODE
 70
     0
  9
$REGENMODE
 70
     1
  9
$FILLMODE
 70
     1
  9
$QTEXTMODE
 70
     0
  9
$MIRRTEXT
 70
     1
  9
$DRAGMODE
 70
     2
  9
$LTSCALE
 40
1.0
  9
$OSMODE
 70
    37
  9
$ATTMODE
 70
     1
  9
$TEXTSIZE
 40
0.0
  9
$TRACEWID
 40
0.05
  9
$TEXTSTYLE
  7
STANDARD
  9
$CLAYER
  8
0
  9
$CELTYPE
  6
CONTINUOUS
  9
$CECOLOR
 62
   256
  9
$DIMSCALE
 40
1.0
  9
$DIMASZ
 40
0.18
  9
$DIMEXO
 40
0.0625
  9
$DIMDLI
 40
0.38
  9
$DIMRND
 40
0.0
  9
$DIMDLE
 40
0.0
  9
$DIMEXE
 40
0.18
  9
$DIMTP
 40
0.0
  9
$DIMTM
 40
0.0
  9
$DIMTXT
 40
0.18
  9
$DIMCEN
 40
0.09
  9
$DIMTSZ
 40
0.0
  9
$DIMTOL
 70
     0
  9
$DIMLIM
 70
     0
  9
$DIMTIH
 70
     1
  9
$DIMTOH
 70
     1
  9
$DIMSE1
 70
     0
  9
$DIMSE2
 70
     0
  9
$DIMTAD
 70
     0
  9
$DIMZIN
 70
     0
  9
$DIMBLK
  1

  9
$DIMASO
 70
     1
  9
$DIMSHO
 70
     1
  9
$DIMPOST
  1

  9
$DIMAPOST
  1

  9
$DIMALT
 70
     0
  9
$DIMALTD
 70
     2
  9
$DIMALTF
 40
25.399999999999999
  9
$DIMLFAC
 40
1.0
  9
$DIMTOFL
 70
     0
  9
$DIMTVP
 40
0.0
  9
$DIMTIX
 70
     0
  9
$DIMSOXD
 70
     0
  9
$DIMSAH
 70
     0
  9
$DIMBLK1
  1

  9
$DIMBLK2
  1

  9
$DIMSTYLE
  2
STANDARD
  9
$DIMCLRD
 70
     0
  9
$DIMCLRE
 70
     0
  9
$DIMCLRT
 70
     0
  9
$DIMTFAC
 40
1.0
  9
$DIMGAP
 40
0.09
  9
$LUNITS
 70
     2
  9
$LUPREC
 70
     4
  9
$SKETCHINC
 40
0.1
  9
$FILLETRAD
 40
0.0
  9
$AUNITS
 70
     0
  9
$AUPREC
 70
     0
  9
$MENU
  1
.
  9
$ELEVATION
 40
0.0
  9
$PELEVATION
 40
0.0
  9
$THICKNESS
 40
0.0
  9
$LIMCHECK
 70
     0
  9
$BLIPMODE
 70
     0
  9
$CHAMFERA
 40
0.0
  9
$CHAMFERB
 40
0.0
  9
$SKPOLY
 70
     0
  9
$TDCREATE
 40
2444972.375
  9
$TDUPDATE
 40
2456827.2470686221
  9
$TDINDWG
 40
0.0000046412
  9
$TDUSRTIMER
 40
0.0000046412
  9
$USRTIMER
 70
     1
  9
$ANGBASE
 50
0.0
  9
$ANGDIR
 70
     0
  9
$PDMODE
 70
     0
  9
$PDSIZE
 40
0.0
  9
$PLINEWID
 40
0.0
  9
$COORDS
 70
     1
  9
$SPLFRAME
 70
     0
  9
$SPLINETYPE
 70
     6
  9
$SPLINESEGS
 70
     8
  9
$ATTDIA
 70
     0
  9
$ATTREQ
 70
     1
  9
$HANDLING
 70
     1
  9
$HANDSEED
  5
E1
  9
$SURFTAB1
 70
     6
  9
$SURFTAB2
 70
     6
  9
$SURFTYPE
 70
     6
  9
$SURFU
 70
     6
  9
$SURFV
 70
     6
  9
$UCSNAME
  2

  9
$UCSORG
 10
0.0
 20
0.0
 30
0.0
  9
$UCSXDIR
 10
1.0
 20
0.0
 30
0.0
  9
$UCSYDIR
 10
0.0
 20
1.0
 30
0.0
  9
$PUCSNAME
  2

  9
$PUCSORG
 10
0.0
 20
0.0
 30
0.0
  9
$PUCSXDIR
 10
1.0
 20
0.0
 30
0.0
  9
$PUCSYDIR
 10
0.0
 20
1.0
 30
0.0
  9
$USERI1
 70
     0
  9
$USERI2
 70
     0
  9
$USERI3
 70
     0
  9
$USERI4
 70
     0
  9
$USERI5
 70
     0
  9
$USERR1
 40
0.0
  9
$USERR2
 40
0.0
  9
$USERR3
 40
0.0
  9
$USERR4
 40
0.0
  9
$USERR5
 40
0.0
  9
$WORLDVIEW
 70
     1
  9
$SHADEDGE
 70
     3
  9
$SHADEDIF
 70
    70
  9
$TILEMODE
 70
     1
  9
$MAXACTVP
 70
    48
  9
$PLIMCHECK
 70
     0
  9
$PEXTMIN
 10
1.0000000000000000E+020
 20
1.0000000000000000E+020
 30
1.0000000000000000E+020
  9
$PEXTMAX
 10
-1.0000000000000000E+020
 20
-1.0000000000000000E+020
 30
-1.0000000000000000E+020
  9
$PLIMMIN
 10
0.0
 20
0.0
  9
$PLIMMAX
 10
12.0
 20
9.0
  9
$UNITMODE
 70
     0
  9
$VISRETAIN
 70
     1
  9
$PLINEGEN
 70
     0
  9
$PSLTSCALE
 70
     1
  0
ENDSEC
  0
SECTION
  2
TABLES
  0
TABLE
  2
VPORT
 70
     2
  0
VPORT
  2
*ACTIVE
 70
     0
 10
0.0
 20
0.0
 11
1.0
 21
1.0
 12
202.006391769564
 22
127.42999999999989
 13
0.0
 23
0.0
 14
1.0
 24
1.0
 15
0.0
 25
0.0
 16
0.0
 26
0.0
 36
1.0
 17
0.0
 27
0.0
 37
0.0
 40
299.45318569463541
 41
2.2894736842105261
 42
50.0
 43
0.0
 44
0.0
 50
0.0
 51
0.0
 71
     0
 72
   100
 73
     1
 74
     1
 75
     0
 76
     0
 77
     0
 78
     0
  0
ENDTAB
  0
TABLE
  2
LTYPE
 70
     3
  0
LTYPE
  2
CONTINUOUS
 70
     0
  3
Solid line
 72
    65
 73
     0
 40
0.0
  0
LTYPE
  2
AIGENLINE001
 70
     0
  3
generate AI->DXF Converter
 72
    65
 73
     6
 40
7.4083750000000004
 49
3.5278
 49
-0.776115
 49
0.776115
 49
-0.776115
 49
0.776115
 49
-0.776115
  0
LTYPE
  2
AIGENLINE002
 70
     0
  3
generate AI->DXF Converter
 72
    65
 73
     4
 40
5.8561449999999988
 49
3.5278
 49
-0.776115
 49
0.776115
 49
-0.776115
  0
ENDTAB
  0
TABLE
  2
LAYER
 70
     2
  0
LAYER
  2
0
 70
     0
 62
     7
  6
CONTINUOUS
  0
LAYER
  2
_________2
 70
     0
 62
     7
  6
CONTINUOUS
  0
ENDTAB
  0
TABLE
  2
STYLE
 70
     1
  0
STYLE
  2
STANDARD
 70
     0
 40
0.0
 41
0.0
 50
0.0
 71
     0
 42
0.0
  3
TXT
  4
EXTFONT.SHX
  0
ENDTAB
  0
TABLE
  2
VIEW
 70
     0
  0
ENDTAB
  0
TABLE
  2
UCS
 70
     0
  0
ENDTAB
  0
TABLE
  2
APPID
 70
     1
  0
APPID
  2
ACAD
 70
     0
  0
ENDTAB
  0
TABLE
  2
DIMSTYLE
 70
     1
  0
DIMSTYLE
  2
STANDARD
 70
     0
  3

  4

  5

  6

  7

 40
1.0
 41
0.18
 42
0.0625
 43
0.38
 44
0.18
 45
0.0
 46
0.0
 47
0.0
 48
0.0
140
0.18
141
0.09
142
0.0
143
25.399999999999999
144
1.0
145
0.0
146
1.0
147
0.09
 71
     0
 72
     0
 73
     1
 74
     1
 75
     0
 76
     0
 77
     0
 78
     0
170
     0
171
     2
172
     0
173
     0
174
     0
175
     0
176
     0
177
     0
178
     0
  0
ENDTAB
  0
ENDSEC
  0
SECTION
  2
BLOCKS
  0
BLOCK
  8
0
  2
$MODEL_SPACE
 70
     0
 10
0.0
 20
0.0
 30
0.0
  3
$MODEL_SPACE
  1

  0
ENDBLK
  5
1A
  8
0
  0
BLOCK
 67
     1
  8
0
  2
$PAPER_SPACE
 70
     0
 10
0.0
 20
0.0
 30
0.0
  3
$PAPER_SPACE
  1

  0
ENDBLK
  5
17
 67
     1
  8
0
  0
ENDSEC
  0
SECTION
  2
ENTITIES
  0
TEXT
  5
23
  8
0
 62
     7
 10
131.798
 20
181.30799999999999
 30
0.0
 40
3.660169999999999
  1
ガラス厚み8～12mm
 41
0.5
  0
TEXT
  5
24
  8
0
 62
     7
 10
152.8646486666666
 20
126.97799999999989
 30
0.0
 40
3.660169999999999
  1
ガラス切込寸法
 41
0.5
 72
     1
 11
160.42899999999989
 21
126.97799999999989
 31
0.0
  0
TEXT
  5
25
  8
0
 62
     7
 10
125.95999999999999
 20
151.91081583333329
 30
0.0
 40
3.660169999999999
  1
%%c10
 50
90.0
 41
0.5
 72
     2
 11
125.95999999999999
 21
155.876
 31
0.0
  0
TEXT
  5
26
  8
0
 62
     7
 10
147.94
 20
151.01599999999991
 30
0.0
 40
3.660169999999999
  1
%%c11
 41
0.5
  0
TEXT
  5
27
  8
0
 62
     7
 10
133.6019716666666
 20
124.1139999999999
 30
0.0
 40
3.660169999999999
  1
6
 41
0.5
 72
     1
 11
134.21199999999999
 21
124.1139999999999
 31
0.0
  0
TEXT
  5
28
  8
0
 62
     7
 10
96.174129166666674
 20
124.1139999999999
 30
0.0
 40
3.660169999999999
  1
45
 41
0.5
 72
     1
 11
97.699200000000005
 21
124.1139999999999
 31
0.0
  0
TEXT
  5
29
  8
0
 62
     7
 10
64.535300000000007
 20
141.7379008333333
 30
0.0
 40
3.660169999999999
  1
%%c16
 50
90.0
 41
0.5
 72
     1
 11
64.535300000000007
 21
143.87299999999991
 31
0.0
  0
LINE
  5
2A
  8
0
 62
     7
 10
130.6989999999999
 20
152.87200000000001
 30
0.0
 11
130.6989999999999
 21
134.87200000000001
 31
0.0
  0
LINE
  5
2B
  8
0
 62
     7
 10
131.1999999999999
 20
152.87200000000001
 30
0.0
 11
131.1999999999999
 21
134.87200000000001
 31
0.0
  0
LINE
  5
2C
  8
0
 62
     7
 10
131.1999999999999
 20
134.87200000000001
 30
0.0
 11
130.6989999999999
 21
134.87200000000001
 31
0.0
  0
LINE
  5
2D
  8
0
 62
     7
 10
131.1999999999999
 20
152.87200000000001
 30
0.0
 11
130.6989999999999
 21
152.87200000000001
 31
0.0
  0
ARC
  5
2E
  8
0
 62
     7
 10
136.19952399999991
 20
136.87287299999991
 30
0.0
 40
1.0002040000000001
 50
269.98521899999992
 51
359.98518899999999
  0
ARC
  5
2F
  8
0
 62
     7
 10
136.19952399999991
 20
150.87227899999999
 30
0.0
 40
1.0002040000000001
 50
0.014811
 51
90.014780999999985
  0
LINE
  5
30
  8
0
 62
     7
 10
137.1999999999999
 20
150.87299999999991
 30
0.0
 11
137.1999999999999
 21
136.87299999999999
 31
0.0
  0
LINE
  5
31
  8
0
 62
     7
 10
136.1999999999999
 20
135.87299999999991
 30
0.0
 11
131.1999999999999
 21
135.87299999999991
 31
0.0
  0
LINE
  5
32
  8
0
 62
     7
 10
136.1999999999999
 20
151.87200000000001
 30
0.0
 11
131.1999999999999
 21
151.87200000000001
 31
0.0
  0
LINE
  5
33
  8
0
 62
     7
 10
131.1999999999999
 20
151.87200000000001
 30
0.0
 11
131.1999999999999
 21
135.87299999999991
 31
0.0
  0
LINE
  5
34
  8
0
 62
     7
 10
120.199
 20
151.87200000000001
 30
0.0
 11
120.199
 21
135.87299999999991
 31
0.0
  0
LINE
  5
35
  8
0
 62
     7
 10
120.199
 20
135.87299999999991
 30
0.0
 11
95.199100000000016
 21
135.87299999999991
 31
0.0
  0
LINE
  5
36
  8
0
 62
     7
 10
120.199
 20
151.87200000000001
 30
0.0
 11
95.199100000000016
 21
151.87200000000001
 31
0.0
  0
LINE
  5
37
  8
0
 62
     7
 10
95.198899999999995
 20
151.87200000000001
 30
0.0
 11
95.198899999999995
 21
135.87299999999991
 31
0.0
  0
ARC
  5
38
  8
0
 62
     7
 10
76.199016999999984
 20
136.87270000000001
 30
0.0
 40
1.000030999999999
 50
180.00494499999991
 51
270.004954
  0
ARC
  5
39
  8
0
 62
     7
 10
76.199017999999995
 20
150.87245100000001
 30
0.0
 40
1.000032
 50
89.995064999999997
 51
179.995036
  0
LINE
  5
3A
  8
0
 62
     7
 10
83.198899999999995
 20
151.87200000000001
 30
0.0
 11
83.198899999999995
 21
135.87299999999991
 31
0.0
  0
LINE
  5
3B
  8
0
 62
     7
 10
83.198699999999988
 20
135.87299999999991
 30
0.0
 11
76.198899999999995
 21
135.87299999999991
 31
0.0
  0
LINE
  5
3C
  8
0
 62
     7
 10
83.198699999999988
 20
151.87200000000001
 30
0.0
 11
76.198899999999995
 21
151.87200000000001
 31
0.0
  0
LINE
  5
3D
  8
0
 62
     7
 10
75.198999999999984
 20
150.87299999999991
 30
0.0
 11
75.198999999999984
 21
136.87299999999999
 31
0.0
  0
LINE
  5
3E
  8
0
 62
     7
 10
130.1989999999999
 20
173.28
 30
0.0
 11
121.1989999999999
 21
173.28
 31
0.0
  0
LINE
  5
3F
  8
0
 62
     7
 10
147.94
 20
149.86099999999999
 30
0.0
 11
154.43999999999991
 21
149.86099999999999
 31
0.0
  0
LINE
  5
40
  8
0
 62
     7
 10
162.33500000000001
 20
141.12899999999991
 30
0.0
 11
164.3179999999999
 21
139.98400000000001
 31
0.0
  0
LINE
  5
41
  8
0
 62
     7
 10
164.3179999999999
 20
139.98400000000001
 30
0.0
 11
163.173
 21
141.96700000000001
 31
0.0
  0
LINE
  5
42
  8
0
 62
     7
 10
163.173
 20
141.96700000000001
 30
0.0
 11
162.33500000000001
 21
141.12899999999991
 31
0.0
  0
LINE
  5
43
  8
0
 62
     7
 10
158.52199999999999
 20
146.61699999999999
 30
0.0
 11
156.5389999999999
 21
147.761
 31
0.0
  0
LINE
  5
44
  8
0
 62
     7
 10
156.5389999999999
 20
147.761
 30
0.0
 11
157.68399999999991
 21
145.77799999999991
 31
0.0
  0
LINE
  5
45
  8
0
 62
     7
 10
157.68399999999991
 20
145.77799999999991
 30
0.0
 11
158.52199999999999
 21
146.61699999999999
 31
0.0
  0
LINE
  5
46
  8
0
 62
     7
 10
164.3179999999999
 20
139.98400000000001
 30
0.0
 11
154.43999999999991
 21
149.86099999999999
 31
0.0
  0
ARC
  5
47
  8
0
 62
     7
 10
160.4291189999999
 20
143.87223
 30
0.0
 40
5.5001309999999988
 50
0.003599
 51
90.003568999999985
  0
ARC
  5
48
  8
0
 62
     7
 10
160.428777
 20
143.87257500000001
 30
0.0
 40
5.4997860000000003
 50
90.0
 51
179.99996999999991
  0
ARC
  5
49
  8
0
 62
     7
 10
160.42894699999991
 20
143.87240199999991
 30
0.0
 40
5.4999570000000002
 50
179.998176
 51
269.99822499999999
  0
ARC
  5
4A
  8
0
 62
     7
 10
160.42894699999991
 20
143.87274899999991
 30
0.0
 40
5.5003029999999988
 50
269.99822499999999
 51
359.99819600000001
  0
ARC
  5
4B
  8
0
 62
     7
 10
41.433734999999999
 20
143.87240199999991
 30
0.0
 40
8.0000800000000005
 50
0.001244
 51
90.001214000000004
  0
ARC
  5
4C
  8
0
 62
     7
 10
41.433565000000002
 20
143.8725739999999
 30
0.0
 40
7.9999079999999996
 50
90.0
 51
179.99996999999991
  0
ARC
  5
4D
  8
0
 62
     7
 10
41.433734999999999
 20
143.87240199999991
 30
0.0
 40
8.0000780000000002
 50
179.99873700000001
 51
269.99878599999988
  0
ARC
  5
4E
  8
0
 62
     7
 10
41.433562999999992
 20
143.87257700000001
 30
0.0
 40
8.0002530000000007
 50
270.00002000000001
 51
359.99998999999991
  0
LINE
  5
4F
  8
0
 62
     7
 10
137.1999999999999
 20
122.7289999999999
 30
0.0
 11
137.1999999999999
 21
134.53399999999991
 31
0.0
  0
LINE
  5
50
  8
0
 62
     7
 10
135.583
 20
180.56999999999991
 30
0.0
 11
126.075
 21
173.28
 31
0.0
  0
LINE
  5
51
  8
0
 62
     7
 10
134.98799999999989
 20
122.836
 30
0.0
 11
137.1999999999999
 21
123.429
 31
0.0
  0
LINE
  5
52
  8
0
 62
     7
 10
137.1999999999999
 20
123.429
 30
0.0
 11
134.98799999999989
 21
124.021
 31
0.0
  0
LINE
  5
53
  8
0
 62
     7
 10
134.98799999999989
 20
124.021
 30
0.0
 11
134.98799999999989
 21
122.836
 31
0.0
  0
LINE
  5
54
  8
0
 62
     7
 10
123.4099999999999
 20
173.87299999999991
 30
0.0
 11
121.1989999999999
 21
173.28
 31
0.0
  0
LINE
  5
55
  8
0
 62
     7
 10
121.1989999999999
 20
173.28
 30
0.0
 11
123.4099999999999
 21
172.6879999999999
 31
0.0
  0
LINE
  5
56
  8
0
 62
     7
 10
123.4099999999999
 20
172.6879999999999
 30
0.0
 11
123.4099999999999
 21
173.87299999999991
 31
0.0
  0
LINE
  5
57
  8
0
 62
     7
 10
133.411
 20
124.00700000000001
 30
0.0
 11
131.1999999999999
 21
123.414
 31
0.0
  0
LINE
  5
58
  8
0
 62
     7
 10
131.1999999999999
 20
123.414
 30
0.0
 11
133.411
 21
122.822
 31
0.0
  0
LINE
  5
59
  8
0
 62
     7
 10
133.411
 20
122.822
 30
0.0
 11
133.411
 21
124.00700000000001
 31
0.0
  0
LINE
  5
5A
  8
0
 62
     7
 10
137.1999999999999
 20
123.414
 30
0.0
 11
131.1999999999999
 21
123.414
 31
0.0
  0
LINE
  5
5B
  8
0
 62
     7
 10
131.22499999999991
 20
122.7289999999999
 30
0.0
 11
131.22499999999991
 21
134.53399999999991
 31
0.0
  0
LINE
  5
5C
  8
0
 62
     7
 10
120.199
 20
152.87200000000001
 30
0.0
 11
120.199
 21
134.87200000000001
 31
0.0
  0
LINE
  5
5D
  8
0
 62
     7
 10
120.7
 20
152.87200000000001
 30
0.0
 11
120.7
 21
134.87200000000001
 31
0.0
  0
LINE
  5
5E
  8
0
 62
     7
 10
120.7
 20
134.87200000000001
 30
0.0
 11
120.199
 21
134.87200000000001
 31
0.0
  0
LINE
  5
5F
  8
0
 62
     7
 10
120.7
 20
152.87200000000001
 30
0.0
 11
120.199
 21
152.87200000000001
 31
0.0
  0
LINE
  5
60
  8
0
 62
     7
 10
121.95
 20
142.37299999999991
 30
0.0
 11
120.7
 21
142.37299999999991
 31
0.0
  0
LINE
  5
61
  8
0
 62
     7
 10
121.95
 20
145.37299999999999
 30
0.0
 11
120.7
 21
145.37299999999999
 31
0.0
  0
LINE
  5
62
  8
0
 62
     7
 10
129.4499999999999
 20
138.87200000000001
 30
0.0
 11
121.95
 21
138.87200000000001
 31
0.0
  0
LINE
  5
63
  8
0
 62
     7
 10
129.4499999999999
 20
148.87200000000001
 30
0.0
 11
121.95
 21
148.87200000000001
 31
0.0
  0
LINE
  5
64
  8
0
 62
     7
 10
130.6989999999999
 20
142.37299999999991
 30
0.0
 11
129.4499999999999
 21
142.37299999999991
 31
0.0
  0
LINE
  5
65
  8
0
 62
     7
 10
130.6989999999999
 20
145.37299999999999
 30
0.0
 11
129.4499999999999
 21
145.37299999999999
 31
0.0
  0
LINE
  5
66
  8
0
 62
     7
 10
121.95
 20
138.87200000000001
 30
0.0
 11
121.95
 21
148.87200000000001
 31
0.0
  0
LINE
  5
67
  8
0
 62
     7
 10
126.65000000000001
 20
141.084
 30
0.0
 11
127.242
 21
138.87200000000001
 31
0.0
  0
LINE
  5
68
  8
0
 62
     7
 10
127.242
 20
138.87200000000001
 30
0.0
 11
127.83499999999989
 21
141.084
 31
0.0
  0
LINE
  5
69
  8
0
 62
     7
 10
127.83499999999989
 20
141.084
 30
0.0
 11
126.65000000000001
 21
141.084
 31
0.0
  0
LINE
  5
6A
  8
0
 62
     7
 10
127.81999999999999
 20
146.661
 30
0.0
 11
127.22799999999999
 21
148.87200000000001
 31
0.0
  0
LINE
  5
6B
  8
0
 62
     7
 10
127.22799999999999
 20
148.87200000000001
 30
0.0
 11
126.63500000000001
 21
146.661
 31
0.0
  0
LINE
  5
6C
  8
0
 62
     7
 10
126.63500000000001
 20
146.661
 30
0.0
 11
127.81999999999999
 21
146.661
 31
0.0
  0
LINE
  5
6D
  8
0
 62
     7
 10
127.22799999999999
 20
138.87200000000001
 30
0.0
 11
127.22799999999999
 21
155.876
 31
0.0
  0
LINE
  5
6E
  8
0
 62
     7
 10
129.4499999999999
 20
138.87200000000001
 30
0.0
 11
129.4499999999999
 21
148.87200000000001
 31
0.0
  0
LINE
  5
6F
  8
0
 62
     7
 10
121.95
 20
143.46299999999999
 30
0.0
 11
120.7
 21
145.506
 31
0.0
  0
LINE
  5
70
  8
0
 62
     7
 10
95.198899999999995
 20
148.37299999999991
 30
0.0
 11
83.198899999999995
 21
148.37299999999991
 31
0.0
  0
LINE
  5
71
  8
0
 62
     7
 10
95.198899999999995
 20
139.37299999999991
 30
0.0
 11
83.198899999999995
 21
139.37299999999991
 31
0.0
  0
LINE
  5
72
  8
0
 62
     7
 10
120.199
 20
122.7289999999999
 30
0.0
 11
120.199
 21
134.53399999999991
 31
0.0
  0
LINE
  5
73
  8
0
 62
     7
 10
66.683999999999997
 20
149.66099999999989
 30
0.0
 11
66.091499999999996
 21
151.87200000000001
 31
0.0
  0
LINE
  5
74
  8
0
 62
     7
 10
66.091499999999996
 20
151.87200000000001
 30
0.0
 11
65.498900000000006
 21
149.66099999999989
 31
0.0
  0
LINE
  5
75
  8
0
 62
     7
 10
65.498900000000006
 20
149.66099999999989
 30
0.0
 11
66.683999999999997
 21
149.66099999999989
 31
0.0
  0
LINE
  5
76
  8
0
 62
     7
 10
65.513400000000004
 20
138.084
 30
0.0
 11
66.105900000000005
 21
135.87299999999991
 31
0.0
  0
LINE
  5
77
  8
0
 62
     7
 10
66.105900000000005
 20
135.87299999999991
 30
0.0
 11
66.698499999999996
 21
138.084
 31
0.0
  0
LINE
  5
78
  8
0
 62
     7
 10
66.698499999999996
 20
138.084
 30
0.0
 11
65.513400000000004
 21
138.084
 31
0.0
  0
LINE
  5
79
  8
0
 62
     7
 10
66.091499999999996
 20
151.87200000000001
 30
0.0
 11
66.091499999999996
 21
135.87299999999991
 31
0.0
  0
LINE
  5
7A
  8
0
 62
     7
 10
65.391400000000004
 20
135.87200000000001
 30
0.0
 11
74.231300000000005
 21
135.87200000000001
 31
0.0
  0
LINE
  5
7B
  8
0
 62
     7
 10
65.391400000000004
 20
151.87200000000001
 30
0.0
 11
74.231300000000005
 21
151.87200000000001
 31
0.0
  0
LINE
  5
7C
  8
0
 62
     7
 10
75.198999999999984
 20
122.7289999999999
 30
0.0
 11
75.198999999999984
 21
134.53399999999991
 31
0.0
  0
LINE
  5
7D
  8
0
 62
     7
 10
127.98699999999999
 20
172.6879999999999
 30
0.0
 11
130.1989999999999
 21
173.28
 31
0.0
  0
LINE
  5
7E
  8
0
 62
     7
 10
130.1989999999999
 20
173.28
 30
0.0
 11
127.98699999999999
 21
173.87299999999991
 31
0.0
  0
LINE
  5
7F
  8
0
 62
     7
 10
127.98699999999999
 20
173.87299999999991
 30
0.0
 11
127.98699999999999
 21
172.6879999999999
 31
0.0
  0
LINE
  5
80
  8
0
 62
     7
 10
117.988
 20
122.836
 30
0.0
 11
120.199
 21
123.429
 31
0.0
  0
LINE
  5
81
  8
0
 62
     7
 10
120.199
 20
123.429
 30
0.0
 11
117.988
 21
124.021
 31
0.0
  0
LINE
  5
82
  8
0
 62
     7
 10
117.988
 20
124.021
 30
0.0
 11
117.988
 21
122.836
 31
0.0
  0
LINE
  5
83
  8
0
 62
     7
 10
77.410600000000002
 20
124.00700000000001
 30
0.0
 11
75.198999999999984
 21
123.414
 31
0.0
  0
LINE
  5
84
  8
0
 62
     7
 10
75.198999999999984
 20
123.414
 30
0.0
 11
77.410600000000002
 21
122.822
 31
0.0
  0
LINE
  5
85
  8
0
 62
     7
 10
77.410600000000002
 20
122.822
 30
0.0
 11
77.410600000000002
 21
124.00700000000001
 31
0.0
  0
LINE
  5
86
  8
0
 62
     7
 10
120.199
 20
123.414
 30
0.0
 11
75.198999999999984
 21
123.414
 31
0.0
  0
LINE
  5
87
  8
0
  6
AIGENLINE001
 62
     7
 10
130.1989999999999
 20
87.197299999999998
 30
0.0
 11
130.1989999999999
 21
138.37200000000001
 31
0.0
  0
LINE
  5
88
  8
0
  6
AIGENLINE001
 62
     7
 10
121.1989999999999
 20
87.197299999999998
 30
0.0
 11
121.1989999999999
 21
138.37200000000001
 31
0.0
  0
LINE
  5
89
  8
0
  6
AIGENLINE001
 62
     7
 10
130.1989999999999
 20
138.37200000000001
 30
0.0
 11
121.1989999999999
 21
138.37200000000001
 31
0.0
  0
LINE
  5
8A
  8
0
  6
AIGENLINE001
 62
     7
 10
130.1989999999999
 20
149.37200000000001
 30
0.0
 11
121.1989999999999
 21
149.37200000000001
 31
0.0
  0
LINE
  5
8B
  8
0
  6
AIGENLINE001
 62
     7
 10
130.1989999999999
 20
203.8479999999999
 30
0.0
 11
130.1989999999999
 21
149.37200000000001
 31
0.0
  0
LINE
  5
8C
  8
0
  6
AIGENLINE001
 62
     7
 10
121.1989999999999
 20
203.8479999999999
 30
0.0
 11
121.1989999999999
 21
149.37200000000001
 31
0.0
  0
LINE
  5
8D
  8
0
  6
AIGENLINE002
 62
     7
 10
160.42899999999989
 20
155.30099999999999
 30
0.0
 11
160.42899999999989
 21
132.24899999999991
 31
0.0
  0
LINE
  5
8E
  8
0
  6
AIGENLINE002
 62
     7
 10
149.1939999999999
 20
143.87299999999991
 30
0.0
 11
171.6629999999999
 21
143.87299999999991
 31
0.0
  0
LINE
  5
8F
  8
0
  6
AIGENLINE002
 62
     7
 10
41.433599999999998
 20
155.30099999999999
 30
0.0
 11
41.433599999999998
 21
132.24899999999991
 31
0.0
  0
LINE
  5
90
  8
0
  6
AIGENLINE002
 62
     7
 10
30.199000000000002
 20
143.87299999999991
 30
0.0
 11
52.668100000000003
 21
143.87299999999991
 31
0.0
  0
LINE
  5
91
  8
0
  6
AIGENLINE002
 62
     7
 10
139.81200000000001
 20
143.87299999999991
 30
0.0
 11
72.244799999999984
 21
143.87299999999991
 31
0.0
  0
LINE
  5
92
  8
_________2
 62
     7
 10
205.30099999999999
 20
127.411
 30
0.0
 11
183.55099999999999
 21
127.411
 31
0.0
  0
LINE
  5
93
  8
_________2
 62
     7
 10
100.2999999999999
 20
-4.0910799999999998
 30
0.0
 11
100.2999999999999
 21
-21.070999999999991
 31
0.0
  0
LINE
  5
94
  8
_________2
 62
     7
 10
100.2999999999999
 20
275.93099999999993
 30
0.0
 11
100.2999999999999
 21
258.911
 31
0.0
  0
LINE
  5
95
  8
_________2
 62
     7
 10
17.049399999999991
 20
127.411
 30
0.0
 11
-4.7010300000000003
 21
127.411
 31
0.0
  0
LINE
  5
96
  8
_________2
 62
     7
 10
76.740799999999993
 20
29.8047
 30
0.0
 11
74.554599999999994
 21
29.8047
 31
0.0
  0
LINE
  5
97
  8
_________2
 62
     7
 10
77.233500000000006
 20
29.8047
 30
0.0
 11
76.981300000000005
 21
29.8047
 31
0.0
  0
LINE
  5
98
  8
_________2
 62
     7
 10
77.726200000000006
 20
29.8047
 30
0.0
 11
80.6511
 21
29.8047
 31
0.0
  0
LINE
  5
99
  8
_________2
 62
     7
 10
77.233500000000006
 20
29.8047
 30
0.0
 11
77.485699999999994
 21
29.8047
 31
0.0
  0
LINE
  5
9A
  8
_________2
 62
     7
 10
70.837299999999999
 20
29.8047
 30
0.0
 11
68.650300000000001
 21
29.8047
 31
0.0
  0
LINE
  5
9B
  8
_________2
 62
     7
 10
71.329300000000003
 20
29.8047
 30
0.0
 11
71.077799999999996
 21
29.8047
 31
0.0
  0
LINE
  5
9C
  8
_________2
 62
     7
 10
71.329300000000003
 20
30.2974
 30
0.0
 11
71.329300000000003
 21
32.484400000000001
 31
0.0
  0
LINE
  5
9D
  8
_________2
 62
     7
 10
71.329300000000003
 20
29.8047
 30
0.0
 11
71.329300000000003
 21
30.057300000000001
 31
0.0
  0
LINE
  5
9E
  8
_________2
 62
     7
 10
71.821899999999999
 20
29.8047
 30
0.0
 11
74.008899999999997
 21
29.8047
 31
0.0
  0
LINE
  5
9F
  8
_________2
 62
     7
 10
71.329300000000003
 20
29.8047
 30
0.0
 11
71.581400000000002
 21
29.8047
 31
0.0
  0
LINE
  5
A0
  8
_________2
 62
     7
 10
71.329300000000003
 20
29.312799999999999
 30
0.0
 11
71.329300000000003
 21
27.126200000000001
 31
0.0
  0
LINE
  5
A1
  8
_________2
 62
     7
 10
71.329300000000003
 20
29.8047
 30
0.0
 11
71.329300000000003
 21
29.5532
 31
0.0
  0
LINE
  5
A2
  8
_________2
 62
     7
 10
75.040300000000002
 20
28.5852
 30
0.0
 11
80.218299999999985
 21
27.720400000000001
 31
0.0
  0
LINE
  5
A3
  8
_________2
 62
     7
 10
75.040300000000002
 20
31.024699999999999
 30
0.0
 11
80.218299999999985
 21
31.8901
 31
0.0
  0
LINE
  5
A4
  8
_________2
 62
     7
 10
80.218299999999985
 20
27.720400000000001
 30
0.0
 11
80.218299999999985
 21
31.8901
 31
0.0
  0
LINE
  5
A5
  8
_________2
 62
     7
 10
75.040300000000002
 20
28.5852
 30
0.0
 11
75.040300000000002
 21
31.024699999999999
 31
0.0
  0
ARC
  5
A6
  8
_________2
 62
     7
 10
71.282674
 20
29.757801000000001
 30
0.0
 40
1.267714
 50
2.1220840000000001
 51
87.894083999999992
  0
ARC
  5
A7
  8
_________2
 62
     7
 10
71.375812999999994
 20
29.758545999999999
 30
0.0
 40
1.2669680000000001
 50
92.105782999999988
 51
177.91037
  0
ARC
  5
A8
  8
_________2
 62
     7
 10
71.376186000000004
 20
29.851671
 30
0.0
 40
1.2673680000000001
 50
182.12203600000001
 51
267.877993
  0
ARC
  5
A9
  8
_________2
 62
     7
 10
71.282368999999989
 20
29.852347999999999
 30
0.0
 40
1.2680439999999991
 50
272.11916400000001
 51
357.84848499999993
  0
ARC
  5
AA
  8
_________2
 62
     7
 10
71.248890000000003
 20
29.724731999999989
 30
0.0
 40
2.1668310000000002
 50
2.1161439999999989
 51
87.874379000000005
  0
ARC
  5
AB
  8
_________2
 62
     7
 10
71.408928000000003
 20
29.726146
 30
0.0
 40
2.165392999999999
 50
92.108508999999998
 51
177.91986499999999
  0
ARC
  5
AC
  8
_________2
 62
     7
 10
71.409267
 20
29.884751999999999
 30
0.0
 40
2.1657829999999998
 50
182.117133
 51
267.88289700000001
  0
ARC
  5
AD
  8
_________2
 62
     7
 10
71.249286999999995
 20
29.885429999999989
 30
0.0
 40
2.1664590000000001
 50
272.11546800000002
 51
357.86560400000002
  0
TEXT
  5
AE
  8
_________2
 62
     7
 10
104.605
 20
1.6794899999999999
 30
0.0
 40
3.660169999999999
  1
図番
 41
0.5
  0
LINE
  5
AF
  8
_________2
 62
     7
 10
103.55
 20
5.9087199999999989
 30
0.0
 11
183.55099999999999
 21
5.9087199999999989
 31
0.0
  0
TEXT
  5
B0
  8
_________2
 62
     7
 10
104.605
 20
11.679299999999991
 30
0.0
 40
3.660169999999999
  1
品番
 41
0.5
  0
TEXT
  5
B1
  8
_________2
 62
     7
 10
104.605
 20
31.8184
 30
0.0
 40
3.660169999999999
  1
名称
 41
0.5
  0
TEXT
  5
B2
  8
_________2
 62
     7
 10
91.565345833333339
 20
26.822299999999998
 30
0.0
 40
4.3256500000000004
  1
mm
 41
0.5
 72
     1
 11
93.367699999999985
 21
26.822299999999998
 31
0.0
  0
TEXT
  5
B3
  8
_________2
 62
     7
 10
85.642999999999986
 20
31.8184
 30
0.0
 40
3.660169999999999
  1
単位
 41
0.5
  0
TEXT
  5
B4
  8
_________2
 62
     7
 10
85.642999999999986
 20
19.410799999999991
 30
0.0
 40
3.660169999999999
  1
尺度
 41
0.5
  0
TEXT
  5
B5
  8
_________2
 62
     7
 10
90.282697500000012
 20
13.218199999999991
 30
0.0
 40
4.3256500000000004
  1
1 ： 1
 41
0.5
 72
     1
 11
93.959500000000006
 21
13.218199999999991
 31
0.0
  0
TEXT
  5
B6
  8
_________2
 62
     7
 10
133.4568216666666
 20
9.1082000000000001
 30
0.0
 40
4.6583899999999989
  1
EC0107814R
 41
0.5
 72
     1
 11
143.55000000000001
 21
9.1082000000000001
 31
0.0
  0
TEXT
  5
B7
  8
_________2
 62
     7
 10
133.4568216666666
 20
-0.8926299999999999
 30
0.0
 40
4.6583899999999989
  1
EC0107814R
 41
0.5
 72
     1
 11
143.55000000000001
 21
-0.8926299999999999
 31
0.0
  0
TEXT
  5
B8
  8
_________2
 62
     7
 10
109.179
 20
23.885999999999989
 30
0.0
 40
4.6583899999999989
  1
ガラスフック
 41
0.5
  0
TEXT
  5
B9
  8
_________2
 62
     7
 10
39.078380833333327
 20
13.603400000000001
 30
0.0
 40
4.3256500000000004
  1
早川
 41
0.5
 72
     1
 11
41.313299999999998
 21
13.603400000000001
 31
0.0
  0
TEXT
  5
BA
  8
_________2
 62
     7
 10
20.432286666666659
 20
13.603400000000001
 30
0.0
 40
4.3256500000000004
  1
菅原
 41
0.5
 72
     1
 11
22.7393
 21
13.603400000000001
 31
0.0
  0
TEXT
  5
BB
  8
_________2
 62
     7
 10
67.785600000000002
 20
13.218199999999991
 30
0.0
 40
4.3256500000000004
  1
14.06.17
 41
0.5
  0
TEXT
  5
BC
  8
_________2
 62
     7
 10
66.5929
 20
19.410799999999991
 30
0.0
 40
3.660169999999999
  1
日付
 41
0.5
  0
TEXT
  5
BD
  8
_________2
 62
     7
 10
29.639199999999992
 20
19.410799999999991
 30
0.0
 40
3.660169999999999
  1
検図
 41
0.5
  0
TEXT
  5
BE
  8
_________2
 62
     7
 10
18.020900000000001
 20
5.21143
 30
0.0
 40
3.660169999999999
  1
備考
 41
0.5
  0
TEXT
  5
BF
  8
_________2
 62
     7
 10
18.020900000000001
 20
19.410799999999991
 30
0.0
 40
3.660169999999999
  1
製図
 41
0.5
  0
TEXT
  5
C0
  8
_________2
 62
     7
 10
20.594630666666689
 20
27.936800000000002
 30
0.0
 40
5.3238799999999991
  1
セラトレーディング株式会社
 41
0.5
 72
     1
 11
41.180300000000003
 21
27.936800000000002
 31
0.0
  0
LINE
  5
C1
  8
_________2
 62
     7
 10
183.55099999999999
 20
-4.0910799999999998
 30
0.0
 11
17.049399999999991
 21
-4.0910799999999998
 31
0.0
  0
LINE
  5
C2
  8
_________2
 62
     7
 10
17.049399999999991
 20
-4.0910799999999998
 30
0.0
 11
17.049399999999991
 21
258.911
 31
0.0
  0
LINE
  5
C3
  8
_________2
 62
     7
 10
17.049399999999991
 20
258.911
 30
0.0
 11
183.55099999999999
 21
258.911
 31
0.0
  0
LINE
  5
C4
  8
_________2
 62
     7
 10
183.55099999999999
 20
258.911
 30
0.0
 11
183.55099999999999
 21
-4.0910799999999998
 31
0.0
  0
LINE
  5
C5
  8
_________2
 62
     7
 10
65.549700000000001
 20
9.4092999999999982
 30
0.0
 11
65.549700000000001
 21
35.909100000000002
 31
0.0
  0
LINE
  5
C6
  8
_________2
 62
     7
 10
84.549599999999984
 20
9.4092999999999982
 30
0.0
 11
84.549599999999984
 21
35.909100000000002
 31
0.0
  0
LINE
  5
C7
  8
_________2
 62
     7
 10
103.55
 20
-4.0910799999999998
 30
0.0
 11
103.55
 21
35.909100000000002
 31
0.0
  0
LINE
  5
C8
  8
_________2
 62
     7
 10
28.549199999999988
 20
9.4092999999999982
 30
0.0
 11
28.549199999999988
 21
23.409199999999998
 31
0.0
  0
LINE
  5
C9
  8
_________2
 62
     7
 10
17.049399999999991
 20
9.4092999999999982
 30
0.0
 11
103.55
 21
9.4092999999999982
 31
0.0
  0
LINE
  5
CA
  8
_________2
 62
     7
 10
17.049399999999991
 20
23.409199999999998
 30
0.0
 11
103.55
 21
23.409199999999998
 31
0.0
  0
LINE
  5
CB
  8
_________2
 62
     7
 10
103.55
 20
15.9085
 30
0.0
 11
183.55099999999999
 21
15.9085
 31
0.0
  0
LINE
  5
CC
  8
_________2
 62
     7
 10
17.049399999999991
 20
35.909100000000002
 30
0.0
 11
183.55099999999999
 21
35.909100000000002
 31
0.0
  0
ENDSEC
  0
EOF
