  0
SECTION
  2
HEADER
  9
$ACADVER
  1
AC1009
  9
$INSBASE
 10
0.0
 20
0.0
 30
0.0
  9
$EXTMIN
 10
-4.70052
 20
-21.071400000000001
 30
0.0
  9
$EXTMAX
 10
205.30099999999999
 20
275.93099999999998
 30
0.0
  9
$LIMMIN
 10
0.0
 20
0.0
  9
$LIMMAX
 10
12.0
 20
9.0
  9
$ORTHOMODE
 70
     0
  9
$REGENMODE
 70
     1
  9
$FILLMODE
 70
     1
  9
$QTEXTMODE
 70
     0
  9
$MIRRTEXT
 70
     1
  9
$DRAGMODE
 70
     2
  9
$LTSCALE
 40
1.0
  9
$OSMODE
 70
    37
  9
$ATTMODE
 70
     1
  9
$TEXTSIZE
 40
0.0
  9
$TRACEWID
 40
0.05
  9
$TEXTSTYLE
  7
STANDARD
  9
$CLAYER
  8
0
  9
$CELTYPE
  6
CONTINUOUS
  9
$CECOLOR
 62
   256
  9
$DIMSCALE
 40
1.0
  9
$DIMASZ
 40
0.18
  9
$DIMEXO
 40
0.0625
  9
$DIMDLI
 40
0.38
  9
$DIMRND
 40
0.0
  9
$DIMDLE
 40
0.0
  9
$DIMEXE
 40
0.18
  9
$DIMTP
 40
0.0
  9
$DIMTM
 40
0.0
  9
$DIMTXT
 40
0.18
  9
$DIMCEN
 40
0.09
  9
$DIMTSZ
 40
0.0
  9
$DIMTOL
 70
     0
  9
$DIMLIM
 70
     0
  9
$DIMTIH
 70
     1
  9
$DIMTOH
 70
     1
  9
$DIMSE1
 70
     0
  9
$DIMSE2
 70
     0
  9
$DIMTAD
 70
     0
  9
$DIMZIN
 70
     0
  9
$DIMBLK
  1

  9
$DIMASO
 70
     1
  9
$DIMSHO
 70
     1
  9
$DIMPOST
  1

  9
$DIMAPOST
  1

  9
$DIMALT
 70
     0
  9
$DIMALTD
 70
     2
  9
$DIMALTF
 40
25.399999999999999
  9
$DIMLFAC
 40
1.0
  9
$DIMTOFL
 70
     0
  9
$DIMTVP
 40
0.0
  9
$DIMTIX
 70
     0
  9
$DIMSOXD
 70
     0
  9
$DIMSAH
 70
     0
  9
$DIMBLK1
  1

  9
$DIMBLK2
  1

  9
$DIMSTYLE
  2
STANDARD
  9
$DIMCLRD
 70
     0
  9
$DIMCLRE
 70
     0
  9
$DIMCLRT
 70
     0
  9
$DIMTFAC
 40
1.0
  9
$DIMGAP
 40
0.09
  9
$LUNITS
 70
     2
  9
$LUPREC
 70
     4
  9
$SKETCHINC
 40
0.1
  9
$FILLETRAD
 40
0.0
  9
$AUNITS
 70
     0
  9
$AUPREC
 70
     0
  9
$MENU
  1
.
  9
$ELEVATION
 40
0.0
  9
$PELEVATION
 40
0.0
  9
$THICKNESS
 40
0.0
  9
$LIMCHECK
 70
     0
  9
$BLIPMODE
 70
     0
  9
$CHAMFERA
 40
0.0
  9
$CHAMFERB
 40
0.0
  9
$SKPOLY
 70
     0
  9
$TDCREATE
 40
2444972.375
  9
$TDUPDATE
 40
2457436.2541671181
  9
$TDINDWG
 40
0.0000274421
  9
$TDUSRTIMER
 40
0.0000274421
  9
$USRTIMER
 70
     1
  9
$ANGBASE
 50
0.0
  9
$ANGDIR
 70
     0
  9
$PDMODE
 70
     0
  9
$PDSIZE
 40
0.0
  9
$PLINEWID
 40
0.0
  9
$COORDS
 70
     1
  9
$SPLFRAME
 70
     0
  9
$SPLINETYPE
 70
     6
  9
$SPLINESEGS
 70
     8
  9
$ATTDIA
 70
     1
  9
$ATTREQ
 70
     1
  9
$HANDLING
 70
     1
  9
$HANDSEED
  5
4B0
  9
$SURFTAB1
 70
     6
  9
$SURFTAB2
 70
     6
  9
$SURFTYPE
 70
     6
  9
$SURFU
 70
     6
  9
$SURFV
 70
     6
  9
$UCSNAME
  2

  9
$UCSORG
 10
0.0
 20
0.0
 30
0.0
  9
$UCSXDIR
 10
1.0
 20
0.0
 30
0.0
  9
$UCSYDIR
 10
0.0
 20
1.0
 30
0.0
  9
$PUCSNAME
  2

  9
$PUCSORG
 10
0.0
 20
0.0
 30
0.0
  9
$PUCSXDIR
 10
1.0
 20
0.0
 30
0.0
  9
$PUCSYDIR
 10
0.0
 20
1.0
 30
0.0
  9
$USERI1
 70
     0
  9
$USERI2
 70
     0
  9
$USERI3
 70
     0
  9
$USERI4
 70
     0
  9
$USERI5
 70
     0
  9
$USERR1
 40
0.0
  9
$USERR2
 40
0.0
  9
$USERR3
 40
0.0
  9
$USERR4
 40
0.0
  9
$USERR5
 40
0.0
  9
$WORLDVIEW
 70
     1
  9
$SHADEDGE
 70
     3
  9
$SHADEDIF
 70
    70
  9
$TILEMODE
 70
     1
  9
$MAXACTVP
 70
    48
  9
$PLIMCHECK
 70
     0
  9
$PEXTMIN
 10
1.0000000000000000E+020
 20
1.0000000000000000E+020
 30
1.0000000000000000E+020
  9
$PEXTMAX
 10
-1.0000000000000000E+020
 20
-1.0000000000000000E+020
 30
-1.0000000000000000E+020
  9
$PLIMMIN
 10
0.0
 20
0.0
  9
$PLIMMAX
 10
12.0
 20
9.0
  9
$UNITMODE
 70
     0
  9
$VISRETAIN
 70
     1
  9
$PLINEGEN
 70
     0
  9
$PSLTSCALE
 70
     1
  0
ENDSEC
  0
SECTION
  2
TABLES
  0
TABLE
  2
VPORT
 70
     1
  0
VPORT
  2
*ACTIVE
 70
     0
 10
0.0
 20
0.0
 11
1.0
 21
1.0
 12
165.72805692007461
 22
127.4298
 13
0.0
 23
0.0
 14
1.0
 24
1.0
 15
0.0
 25
0.0
 16
0.0
 26
0.0
 36
1.0
 17
0.0
 27
0.0
 37
0.0
 40
283.5288175207607
 41
2.1001926782273599
 42
50.0
 43
0.0
 44
0.0
 50
0.0
 51
0.0
 71
     0
 72
   100
 73
     1
 74
     1
 75
     0
 76
     0
 77
     0
 78
     0
  0
ENDTAB
  0
TABLE
  2
LTYPE
 70
     4
  0
LTYPE
  2
CONTINUOUS
 70
     0
  3
Solid line
 72
    65
 73
     0
 40
0.0
  0
LTYPE
  2
AIGENLINE001
 70
     0
  3
generate AI->DXF Converter
 72
    65
 73
     4
 40
5.8561449999999988
 49
3.5278
 49
-0.776115
 49
0.776115
 49
-0.776115
  0
LTYPE
  2
AIGENLINE002
 70
     0
  3
generate AI->DXF Converter
 72
    65
 73
     6
 40
7.4083750000000004
 49
3.5278
 49
-0.776115
 49
0.776115
 49
-0.776115
 49
0.776115
 49
-0.776115
  0
LTYPE
  2
AIGENLINE003
 70
     0
  3
generate AI->DXF Converter
 72
    65
 73
     2
 40
1.5522299999999991
 49
0.776115
 49
-0.776115
  0
ENDTAB
  0
TABLE
  2
LAYER
 70
     2
  0
LAYER
  2
0
 70
     0
 62
     7
  6
CONTINUOUS
  0
LAYER
  2
_________2
 70
     0
 62
     7
  6
CONTINUOUS
  0
ENDTAB
  0
TABLE
  2
STYLE
 70
     1
  0
STYLE
  2
STANDARD
 70
     0
 40
0.0
 41
0.0
 50
0.0
 71
     0
 42
0.0
  3
TXT
  4
EXTFONT.SHX
  0
ENDTAB
  0
TABLE
  2
VIEW
 70
     0
  0
ENDTAB
  0
TABLE
  2
UCS
 70
     0
  0
ENDTAB
  0
TABLE
  2
APPID
 70
     3
  0
APPID
  2
ACAD
 70
     0
  0
APPID
  2
ACAD_NAV_VCDISPLAY
 70
     0
  0
APPID
  2
ACAD_MLEADERVER
 70
     0
  0
ENDTAB
  0
TABLE
  2
DIMSTYLE
 70
     1
  0
DIMSTYLE
  2
STANDARD
 70
     0
  3

  4

  5

  6

  7

 40
1.0
 41
0.18
 42
0.0625
 43
0.38
 44
0.18
 45
0.0
 46
0.0
 47
0.0
 48
0.0
140
0.18
141
0.09
142
0.0
143
25.399999999999999
144
1.0
145
0.0
146
1.0
147
0.09
 71
     0
 72
     0
 73
     1
 74
     1
 75
     0
 76
     0
 77
     0
 78
     0
170
     0
171
     2
172
     0
173
     0
174
     0
175
     0
176
     0
177
     0
178
     0
  0
ENDTAB
  0
ENDSEC
  0
SECTION
  2
BLOCKS
  0
BLOCK
  8
0
  2
$MODEL_SPACE
 70
     0
 10
0.0
 20
0.0
 30
0.0
  3
$MODEL_SPACE
  1

  0
ENDBLK
  5
1A
  8
0
  0
BLOCK
 67
     1
  8
0
  2
$PAPER_SPACE
 70
     0
 10
0.0
 20
0.0
 30
0.0
  3
$PAPER_SPACE
  1

  0
ENDBLK
  5
17
 67
     1
  8
0
  0
ENDSEC
  0
SECTION
  2
ENTITIES
  0
TEXT
  5
24
  8
0
 62
     7
 10
81.190691000000001
 20
214.37200000000001
 30
0.0
 40
3.0923400000000001
  1
（%%c6\U+00D730 樹脂プラグ付）
 41
0.5
 72
     2
 11
103.404
 21
214.37200000000001
 31
0.0
  0
TEXT
  5
25
  8
0
 62
     7
 10
71.810592999999997
 20
219.15600000000001
 30
0.0
 40
3.0923400000000001
  1
%%c3.8\U+00D750 十字穴付SUS丸頭木ネジ
 41
0.5
 72
     2
 11
103.404
 21
219.15600000000001
 31
0.0
  0
TEXT
  5
26
  8
0
 62
     7
 10
58.649025000000002
 20
233.73099999999999
 30
0.0
 40
3.0923400000000001
  1
46
 41
0.5
 72
     1
 11
59.9375
 21
233.73099999999999
 31
0.0
  0
TEXT
  5
27
  8
0
 62
     7
 10
30.283999999999999
 20
111.39400000000001
 30
0.0
 40
3.0923400000000001
  1
%%c8
 41
0.5
  0
TEXT
  5
28
  8
0
 62
     7
 10
58.386830000000003
 20
140.005
 30
0.0
 40
3.0923400000000001
  1
113
 41
0.5
 72
     1
 11
59.933
 21
140.005
 31
0.0
  0
TEXT
  5
29
  8
0
 62
     7
 10
58.129134999999998
 20
146.86799999999999
 30
0.0
 40
3.0923400000000001
  1
136
 41
0.5
 72
     1
 11
59.933
 21
146.86799999999999
 31
0.0
  0
TEXT
  5
2A
  8
0
 62
     7
 10
58.644525000000002
 20
227.97499999999999
 30
0.0
 40
3.0923400000000001
  1
24
 41
0.5
 72
     1
 11
59.933
 21
227.97499999999999
 31
0.0
  0
TEXT
  5
2B
  8
0
 62
     7
 10
164.374
 20
134.42413500000001
 30
0.0
 40
3.0923400000000001
  1
10
 50
90.0
 41
0.5
 72
     2
 11
164.374
 21
136.22800000000001
 31
0.0
  0
TEXT
  5
2C
  8
0
 62
     7
 10
171.17400000000001
 20
125.429525
 30
0.0
 40
3.0923400000000001
  1
25
 50
90.0
 41
0.5
 72
     1
 11
171.17400000000001
 21
126.718
 31
0.0
  0
TEXT
  5
2D
  8
0
 62
     7
 10
88.220799999999997
 20
195.926525
 30
0.0
 40
3.0923400000000001
  1
46
 50
90.0
 41
0.5
 72
     1
 11
88.220799999999997
 21
197.215
 31
0.0
  0
LINE
  5
2E
  8
0
 62
     7
 10
70.115700000000004
 20
218.45599999999999
 30
0.0
 11
103.404
 21
218.45599999999999
 31
0.0
  0
LINE
  5
2F
  8
0
 62
     7
 10
66.0381
 20
215.21700000000001
 30
0.0
 11
64.893299999999996
 21
213.23400000000001
 31
0.0
  0
LINE
  5
30
  8
0
 62
     7
 10
64.893299999999996
 20
213.23400000000001
 30
0.0
 11
66.876300000000001
 21
214.37899999999999
 31
0.0
  0
LINE
  5
31
  8
0
 62
     7
 10
66.876300000000001
 20
214.37899999999999
 30
0.0
 11
66.0381
 21
215.21700000000001
 31
0.0
  0
LINE
  5
32
  8
0
 62
     7
 10
64.893299999999996
 20
213.23400000000001
 30
0.0
 11
70.115700000000004
 21
218.45599999999999
 31
0.0
  0
ARC
  5
33
  8
0
 62
     7
 10
81.278711000000001
 20
188.51356299999989
 30
0.0
 40
1.303439
 50
287.76060699999999
 51
358.81786599999998
  0
ARC
  5
34
  8
0
 62
     7
 10
81.250639000000007
 20
188.58413899999999
 30
0.0
 40
1.379224
 50
269.915819
 51
287.97686499999998
  0
ARC
  5
35
  8
0
 62
     7
 10
81.272533999999979
 20
188.59138300000001
 30
0.0
 40
1.386673
 50
201.83903599999999
 51
269.01152100000002
  0
ARC
  5
36
  8
0
 62
     7
 10
81.153614000000005
 20
188.486053
 30
0.0
 40
1.2382619999999991
 50
179.971363
 51
199.36129500000001
  0
ARC
  5
37
  8
0
 62
     7
 10
81.218716999999984
 20
188.45978299999999
 30
0.0
 40
1.3036419999999991
 50
107.767122
 51
178.818127
  0
ARC
  5
38
  8
0
 62
     7
 10
81.246731999999994
 20
188.38886600000001
 30
0.0
 40
1.379734999999999
 50
89.921914000000015
 51
107.97636
  0
ARC
  5
39
  8
0
 62
     7
 10
81.224682000000001
 20
188.38221200000001
 30
0.0
 40
1.386595
 50
21.830113999999998
 51
89.011134999999996
  0
ARC
  5
3A
  8
0
 62
     7
 10
81.342791000000005
 20
188.4871719999999
 30
0.0
 40
1.239082
 50
359.97685999999999
 51
19.354804999999999
  0
LINE
  5
3B
  8
0
 62
     7
 10
52.509799999999998
 20
191.74799999999999
 30
0.0
 11
52.509799999999998
 21
191.749
 31
0.0
  0
LINE
  5
3D
  8
0
 62
     7
 10
52.509799999999998
 20
191.749
 30
0.0
 11
52.509399999999992
 21
191.75
 31
0.0
  0
LINE
  5
3E
  8
0
 62
     7
 10
52.509399999999992
 20
191.75
 30
0.0
 11
52.508800000000001
 21
191.75399999999999
 31
0.0
  0
LINE
  5
3F
  8
0
 62
     7
 10
52.508800000000001
 20
191.75399999999999
 30
0.0
 11
52.508400000000002
 21
191.75700000000001
 31
0.0
  0
ARC
  5
40
  8
0
 62
     7
 10
52.221150000000002
 20
191.7153459999999
 30
0.0
 40
0.290282
 50
8.2744780000000002
 51
11.103092999999999
  0
ARC
  5
41
  8
0
 62
     7
 10
52.968060000000001
 20
191.83870300000001
 30
0.0
 40
0.4669600000000001
 50
186.68576999999999
 51
188.30598399999991
  0
ARC
  5
42
  8
0
 62
     7
 10
58.339861999999997
 20
192.62496100000001
 30
0.0
 40
5.8958209999999989
 50
187.83707200000001
 51
188.1971519999999
  0
ARC
  5
43
  8
0
 62
     7
 10
54.06709
 20
192.050342
 30
0.0
 40
1.5846610000000001
 50
187.013237
 51
188.32040900000001
  0
LINE
  5
44
  8
0
 62
     7
 10
52.494300000000003
 20
191.857
 30
0.0
 11
52.490200000000002
 21
191.892
 31
0.0
  0
ARC
  5
45
  8
0
 62
     7
 10
54.194493999999992
 20
192.10204400000001
 30
0.0
 40
1.717258
 50
184.8010569999999
 51
187.031521
  0
ARC
  5
46
  8
0
 62
     7
 10
55.554044999999988
 20
192.245791
 30
0.0
 40
3.0842109999999998
 50
184.10557299999999
 51
185.34823
  0
ARC
  5
47
  8
0
 62
     7
 10
58.582070999999999
 20
192.40543500000001
 30
0.0
 40
6.116166999999999
 50
182.940889
 51
183.566395
  0
ARC
  5
48
  8
0
 62
     7
 10
58.229503000000001
 20
192.36298600000001
 30
0.0
 40
5.7619360000000004
 50
182.03576100000001
 51
182.699217
  0
LINE
  5
49
  8
0
 62
     7
 10
52.471200000000003
 20
192.15799999999999
 30
0.0
 11
52.470199999999998
 21
192.22499999999999
 31
0.0
  0
ARC
  5
4A
  8
0
 62
     7
 10
55.529069999999997
 20
192.226519
 30
0.0
 40
3.0589009999999992
 50
178.783503
 51
180.02906200000001
  0
LINE
  5
4B
  8
0
 62
     7
 10
52.433
 20
194.51499999999999
 30
0.0
 11
52.434699999999999
 21
194.482
 31
0.0
  0
ARC
  5
4C
  8
0
 62
     7
 10
53.256309000000002
 20
194.50711899999999
 30
0.0
 40
0.822023
 50
181.78455099999999
 51
184.11704599999999
  0
ARC
  5
4D
  8
0
 62
     7
 10
65.101361999999995
 20
194.98551900000001
 30
0.0
 40
12.676352
 50
182.42981
 51
182.86784
  0
LINE
  5
4E
  8
0
 62
     7
 10
52.440899999999992
 20
194.351
 30
0.0
 11
52.445
 21
194.25399999999999
 31
0.0
  0
ARC
  5
4F
  8
0
 62
     7
 10
20.103427
 20
192.86245400000001
 30
0.0
 40
32.371536999999996
 50
2.0117869999999991
 51
2.4645799999999989
  0
ARC
  5
50
  8
0
 62
     7
 10
20.160485000000001
 20
192.869291
 30
0.0
 40
32.314275000000009
 50
1.5500619999999989
 51
2.0032229999999989
  0
ARC
  5
51
  8
0
 62
     7
 10
21.096129999999999
 20
192.885471
 30
0.0
 40
31.378534999999999
 50
0.969926
 51
1.5667409999999999
  0
ARC
  5
52
  8
0
 62
     7
 10
27.186287
 20
192.93326099999999
 30
0.0
 40
25.288502999999999
 50
0.355209
 51
1.095238999999999
  0
ARC
  5
53
  8
0
 62
     7
 10
31.303757999999998
 20
192.88084000000001
 30
0.0
 40
21.171579999999999
 50
359.99648500000001
 51
0.566153
  0
LINE
  5
54
  8
0
 62
     7
 10
52.475299999999997
 20
192.88
 30
0.0
 11
52.475000000000001
 21
192.66900000000001
 31
0.0
  0
LINE
  5
55
  8
0
 62
     7
 10
52.475000000000001
 20
192.66900000000001
 30
0.0
 11
52.473300000000002
 21
192.47999999999999
 31
0.0
  0
ARC
  5
56
  8
0
 62
     7
 10
1.909756999999999
 20
193.032228
 30
0.0
 40
50.566528000000012
 50
359.16062199999999
 51
359.37436100000002
  0
ARC
  5
57
  8
0
 62
     7
 10
57.464618999999992
 20
192.34522699999999
 30
0.0
 40
9.939589999999999
 50
358.61555099999998
 51
359.69005800000002
  0
ARC
  5
58
  8
0
 62
     7
 10
64.777230000000003
 20
192.20500000000001
 30
0.0
 40
2.6259790000000001
 50
353.14304300000009
 51
357.81931400000002
  0
ARC
  5
59
  8
0
 62
     7
 10
63.242981999999998
 20
192.35859099999999
 30
0.0
 40
4.1677039999999996
 50
352.80643900000001
 51
353.56485700000002
  0
ARC
  5
5A
  8
0
 62
     7
 10
63.568083999999999
 20
192.361391
 30
0.0
 40
3.845756999999999
 50
351.37022999999999
 51
352.15853399999997
  0
ARC
  5
5B
  8
0
 62
     7
 10
67.093783000000002
 20
191.8167389999999
 30
0.0
 40
0.278411
 50
349.51592099999999
 51
353.31683700000002
  0
ARC
  5
5C
  8
0
 62
     7
 10
67.068460000000002
 20
191.802401
 30
0.0
 40
0.301283
 50
349.5959299999999
 51
353.07580100000001
  0
ARC
  5
5D
  8
0
 62
     7
 10
117.701882
 20
193.11898500000001
 30
0.0
 40
50.304625000000001
 50
180.72714899999991
 51
180.94259500000001
  0
ARC
  5
5E
  8
0
 62
     7
 10
92.864284999999995
 20
192.76085900000001
 30
0.0
 40
25.464518999999999
 50
180.20582999999999
 51
180.63063
  0
ARC
  5
5F
  8
0
 62
     7
 10
83.263677999999985
 20
192.82656499999999
 30
0.0
 40
15.864527000000001
 50
179.807411
 51
180.56768299999999
  0
ARC
  5
60
  8
0
 62
     7
 10
88.429610999999994
 20
192.88153600000001
 30
0.0
 40
21.030370000000001
 50
179.43192300000001
 51
180.00451699999999
  0
ARC
  5
61
  8
0
 62
     7
 10
145.88315700000001
 20
192.259908
 30
0.0
 40
78.487273000000002
 50
179.15553800000001
 51
179.39397399999999
  0
ARC
  5
62
  8
0
 62
     7
 10
98.477294000000001
 20
192.89124100000001
 30
0.0
 40
31.077327
 50
178.429326
 51
179.03129000000001
  0
ARC
  5
63
  8
0
 62
     7
 10
85.999018999999976
 20
193.294363
 30
0.0
 40
18.592790999999998
 50
177.82953800000001
 51
178.61713700000001
  0
ARC
  5
64
  8
0
 62
     7
 10
86.027819999999991
 20
193.399247
 30
0.0
 40
18.617899999999999
 50
177.36815200000001
 51
178.15544199999999
  0
LINE
  5
65
  8
0
 62
     7
 10
67.429599999999994
 20
194.25399999999999
 30
0.0
 11
67.433700000000002
 21
194.351
 31
0.0
  0
LINE
  5
66
  8
0
 62
     7
 10
67.433700000000002
 20
194.351
 30
0.0
 11
67.438199999999995
 21
194.44800000000001
 31
0.0
  0
ARC
  5
67
  8
0
 62
     7
 10
65.21543299999999
 20
194.57976600000001
 30
0.0
 40
2.226643999999999
 50
356.60564799999997
 51
357.46227099999999
  0
ARC
  5
68
  8
0
 62
     7
 10
65.125928999999999
 20
194.61668
 30
0.0
 40
2.317928999999999
 50
356.64863100000002
 51
357.48002200000002
  0
ARC
  5
69
  8
0
 62
     7
 10
55.187118000000012
 20
192.3818
 30
0.0
 40
2.7513290000000001
 50
193.318544
 51
268.58381800000001
  0
ARC
  5
6A
  8
0
 62
     7
 10
64.68865799999999
 20
192.380323
 30
0.0
 40
2.7498219999999991
 50
271.39199400000001
 51
346.70568400000002
  0
LINE
  5
6B
  8
0
 62
     7
 10
55.119100000000003
 20
189.63099999999989
 30
0.0
 11
64.755499999999998
 21
189.63099999999989
 31
0.0
  0
LINE
  5
6C
  8
0
 62
     7
 10
52.343400000000003
 20
204.798
 30
0.0
 11
67.531499999999994
 21
204.798
 31
0.0
  0
LINE
  5
6D
  8
0
 62
     7
 10
52.433
 20
194.51499999999999
 30
0.0
 11
52.343400000000003
 21
204.798
 31
0.0
  0
LINE
  5
6E
  8
0
 62
     7
 10
67.441599999999994
 20
194.51499999999999
 30
0.0
 11
67.531499999999994
 21
204.798
 31
0.0
  0
ARC
  5
6F
  8
0
 62
     7
 10
72.03264200000001
 20
195.53020900000001
 30
0.0
 40
0.067708
 50
23.070336000000001
 51
89.178911999999997
  0
ARC
  5
70
  8
0
 62
     7
 10
66.179456000000002
 20
193.10869600000001
 30
0.0
 40
6.402016999999999
 50
15.272262
 51
22.481591999999999
  0
ARC
  5
71
  8
0
 62
     7
 10
71.938550000000006
 20
195.531316
 30
0.0
 40
0.066595
 50
90.019512999999989
 51
134.74073300000001
  0
LINE
  5
72
  8
0
 62
     7
 10
67.4392
 20
194.465
 30
0.0
 11
67.791300000000007
 21
194.465
 31
0.0
  0
LINE
  5
73
  8
0
 62
     7
 10
67.3703
 20
191.798
 30
0.0
 11
67.791300000000007
 21
191.798
 31
0.0
  0
LINE
  5
74
  8
0
 62
     7
 10
71.107900000000001
 20
194.79499999999999
 30
0.0
 11
71.8917
 21
195.57900000000001
 31
0.0
  0
LINE
  5
75
  8
0
 62
     7
 10
72.033600000000007
 20
195.59800000000001
 30
0.0
 11
71.938500000000005
 21
195.59800000000001
 31
0.0
  0
ARC
  5
76
  8
0
 62
     7
 10
78.223165000000009
 20
188.48297500000001
 30
0.0
 40
4.3587089999999993
 50
348.70808199999999
 51
0.048602
  0
ARC
  5
77
  8
0
 62
     7
 10
79.633499999999998
 20
188.235681
 30
0.0
 40
2.9274459999999989
 50
329.71866699999998
 51
348.049511
  0
ARC
  5
78
  8
0
 62
     7
 10
80.101311999999993
 20
188.01350299999999
 30
0.0
 40
2.4118319999999991
 50
296.39570299999991
 51
328.67265300000003
  0
ARC
  5
79
  8
0
 62
     7
 10
79.721823999999998
 20
188.701887
 30
0.0
 40
3.1973359999999991
 50
281.87760200000008
 51
297.00305300000002
  0
ARC
  5
7A
  8
0
 62
     7
 10
79.42089399999999
 20
189.91833600000001
 30
0.0
 40
4.4498969999999991
 50
269.54862400000002
 51
282.44563199999999
  0
ARC
  5
7B
  8
0
 62
     7
 10
79.830794999999995
 20
188.41082499999999
 30
0.0
 40
0.081457
 50
317.0944990000001
 51
359.67448400000001
  0
ARC
  5
7C
  8
0
 62
     7
 10
79.756144999999975
 20
188.47060500000001
 30
0.0
 40
0.176974
 50
304.18837600000001
 51
319.37229600000001
  0
ARC
  5
7D
  8
0
 62
     7
 10
79.649089000000004
 20
188.62759500000001
 30
0.0
 40
0.366992
 50
293.165502
 51
304.24168800000001
  0
ARC
  5
7E
  8
0
 62
     7
 10
79.49470500000001
 20
188.980592
 30
0.0
 40
0.752267
 50
286.04675800000001
 51
293.39940300000001
  0
ARC
  5
7F
  8
0
 62
     7
 10
79.300981000000007
 20
189.64421899999999
 30
0.0
 40
1.443589
 50
280.726653
 51
286.15533199999999
  0
ARC
  5
80
  8
0
 62
     7
 10
79.088393999999994
 20
190.74792600000001
 30
0.0
 40
2.5675799999999991
 50
276.64697999999999
 51
280.80355800000001
  0
ARC
  5
81
  8
0
 62
     7
 10
78.816793999999987
 20
193.12107900000001
 30
0.0
 40
4.9562210000000002
 50
269.28604300000001
 51
276.59007700000001
  0
ARC
  5
82
  8
0
 62
     7
 10
67.864609000000002
 20
190.389689
 30
0.0
 40
0.073325
 50
181.025474
 51
251.05463599999999
  0
ARC
  5
83
  8
0
 62
     7
 10
67.933959000000002
 20
190.535898
 30
0.0
 40
0.23483
 50
246.62816000000001
 51
259.90481699999998
  0
ARC
  5
84
  8
0
 62
     7
 10
68.011600000000001
 20
190.95450099999999
 30
0.0
 40
0.660569
 50
259.63897200000002
 51
267.67551500000002
  0
ARC
  5
85
  8
0
 62
     7
 10
68.14129100000001
 20
194.169174
 30
0.0
 40
3.8778570000000001
 50
267.68733500000002
 51
271.14070400000003
  0
ARC
  5
86
  8
0
 62
     7
 10
67.926006000000001
 20
188.03309400000001
 30
0.0
 40
0.292487
 50
313.12287400000002
 51
359.73558000000003
  0
ARC
  5
87
  8
0
 62
     7
 10
67.779015000000001
 20
188.18450899999999
 30
0.0
 40
0.5034950000000001
 50
294.04315600000001
 51
313.55357299999997
  0
ARC
  5
88
  8
0
 62
     7
 10
67.523003000000003
 20
188.7038399999999
 30
0.0
 40
1.0823020000000001
 50
282.23667899999998
 51
295.21912099999997
  0
ARC
  5
89
  8
0
 62
     7
 10
67.199662000000004
 20
190.00797499999999
 30
0.0
 40
2.4256619999999991
 50
274.53531199999998
 51
283.171696
  0
ARC
  5
8A
  8
0
 62
     7
 10
66.924499999999995
 20
192.77015800000001
 30
0.0
 40
5.2012549999999997
 50
269.548428
 51
275.15094499999998
  0
ARC
  5
8B
  8
0
 62
     7
 10
67.926006000000001
 20
187.92216099999999
 30
0.0
 40
0.292487
 50
313.12287400000002
 51
359.73558000000003
  0
ARC
  5
8C
  8
0
 62
     7
 10
67.779015000000001
 20
188.073576
 30
0.0
 40
0.5034950000000001
 50
294.04315600000001
 51
313.55357299999997
  0
ARC
  5
8D
  8
0
 62
     7
 10
67.523003000000003
 20
188.592907
 30
0.0
 40
1.0823020000000001
 50
282.23667899999998
 51
295.21912099999997
  0
ARC
  5
8E
  8
0
 62
     7
 10
67.199662000000004
 20
189.897042
 30
0.0
 40
2.4256619999999991
 50
274.53531199999998
 51
283.171696
  0
ARC
  5
8F
  8
0
 62
     7
 10
66.924499999999995
 20
192.65922499999999
 30
0.0
 40
5.2012549999999997
 50
269.548428
 51
275.15094499999998
  0
ARC
  5
90
  8
0
 62
     7
 10
76.979309000000001
 20
173.23883900000001
 30
0.0
 40
1.7757279999999991
 50
338.57520699999998
 51
0.069563
  0
ARC
  5
91
  8
0
 62
     7
 10
77.346385999999995
 20
173.139983
 30
0.0
 40
1.3985389999999991
 50
305.48171300000001
 51
336.85178000000002
  0
ARC
  5
92
  8
0
 62
     7
 10
76.953999999999994
 20
173.63952699999999
 30
0.0
 40
2.033291999999999
 50
291.510132
 51
306.31480199999999
  0
ARC
  5
93
  8
0
 62
     7
 10
76.450187999999983
 20
174.80945
 30
0.0
 40
3.3067019999999991
 50
281.12456400000008
 51
292.19894599999998
  0
ARC
  5
94
  8
0
 62
     7
 10
75.975677000000005
 20
176.880179
 30
0.0
 40
5.430477999999999
 50
276.14094599999999
 51
281.82160499999998
  0
ARC
  5
95
  8
0
 62
     7
 10
75.622292000000002
 20
179.88086799999999
 30
0.0
 40
8.4518059999999995
 50
271.56941399999999
 51
276.34676100000001
  0
ARC
  5
96
  8
0
 62
     7
 10
75.424137000000002
 20
184.95496
 30
0.0
 40
13.529551
 50
269.93649099999999
 51
271.81974300000002
  0
ARC
  5
97
  8
0
 62
     7
 10
77.33460500000001
 20
193.514512
 30
0.0
 40
1.4204309999999991
 50
359.96381400000001
 51
20.135746000000001
  0
ARC
  5
98
  8
0
 62
     7
 10
77.590690000000009
 20
193.57959099999999
 30
0.0
 40
1.1579109999999999
 50
21.474584
 51
58.402312000000002
  0
ARC
  5
99
  8
0
 62
     7
 10
77.403987999999998
 20
193.307751
 30
0.0
 40
1.4873659999999991
 50
57.763148000000001
 51
89.367857999999998
  0
LINE
  5
9A
  8
0
 62
     7
 10
77.420400000000001
 20
194.79499999999999
 30
0.0
 11
67.791300000000007
 21
194.79499999999999
 31
0.0
  0
LINE
  5
9B
  8
0
 62
     7
 10
79.385800000000003
 20
185.46899999999999
 30
0.0
 11
78.754999999999995
 21
185.46899999999999
 31
0.0
  0
LINE
  5
9C
  8
0
 62
     7
 10
79.912300000000002
 20
188.41
 30
0.0
 11
79.912300000000002
 21
188.458
 31
0.0
  0
LINE
  5
9D
  8
0
 62
     7
 10
68.218500000000006
 20
187.92099999999999
 30
0.0
 11
68.218500000000006
 21
190.292
 31
0.0
  0
LINE
  5
9E
  8
0
 62
     7
 10
78.754999999999995
 20
193.51400000000001
 30
0.0
 11
78.754999999999995
 21
173.2409999999999
 31
0.0
  0
LINE
  5
9F
  8
0
 62
     7
 10
67.791300000000007
 20
194.79499999999999
 30
0.0
 11
67.791300000000007
 21
190.38800000000001
 31
0.0
  0
ARC
  5
A0
  8
0
 62
     7
 10
47.815694000000001
 20
195.529775
 30
0.0
 40
0.068142
 50
90.766283999999999
 51
156.687659
  0
ARC
  5
A1
  8
0
 62
     7
 10
53.629721999999987
 20
193.124763
 30
0.0
 40
6.3599559999999986
 50
157.518224
 51
164.77429100000001
  0
ARC
  5
A2
  8
0
 62
     7
 10
47.909764000000003
 20
195.53111999999999
 30
0.0
 40
0.066791
 50
45.328048000000003
 51
90.206461999999988
  0
LINE
  5
A3
  8
0
 62
     7
 10
52.435400000000001
 20
194.465
 30
0.0
 11
52.057099999999991
 21
194.465
 31
0.0
  0
LINE
  5
A4
  8
0
 62
     7
 10
52.502200000000002
 20
191.798
 30
0.0
 11
52.057099999999991
 21
191.798
 31
0.0
  0
LINE
  5
A5
  8
0
 62
     7
 10
48.740499999999997
 20
194.79499999999999
 30
0.0
 11
47.956699999999998
 21
195.57900000000001
 31
0.0
  0
LINE
  5
A6
  8
0
 62
     7
 10
47.814799999999998
 20
195.59800000000001
 30
0.0
 11
47.909500000000001
 21
195.59800000000001
 31
0.0
  0
ARC
  5
A7
  8
0
 62
     7
 10
40.780391999999999
 20
188.560361
 30
0.0
 40
3.5142150000000001
 50
179.96287100000001
 51
195.81924000000001
  0
ARC
  5
A8
  8
0
 62
     7
 10
40.080469999999998
 20
188.413566
 30
0.0
 40
2.8012229999999989
 50
196.83310800000001
 51
238.33836199999999
  0
ARC
  5
A9
  8
0
 62
     7
 10
40.552534999999999
 20
189.10633200000001
 30
0.0
 40
3.638866999999999
 50
237.73734400000001
 51
268.58312999999998
  0
ARC
  5
AA
  8
0
 62
     7
 10
40.722281000000002
 20
189.07662300000001
 30
0.0
 40
0.7861670000000001
 50
180.50032599999989
 51
237.2852509999999
  0
ARC
  5
AB
  8
0
 62
     7
 10
40.968924000000001
 20
189.45783399999999
 30
0.0
 40
1.2402079999999991
 50
237.21637799999999
 51
249.36235199999999
  0
ARC
  5
AC
  8
0
 62
     7
 10
41.231301000000002
 20
190.11604500000001
 30
0.0
 40
1.948704999999999
 50
248.96400800000001
 51
258.88526000000002
  0
ARC
  5
AD
  8
0
 62
     7
 10
41.447806999999997
 20
191.09250800000001
 30
0.0
 40
2.9486880000000002
 50
258.41488500000003
 51
263.08931999999999
  0
ARC
  5
AE
  8
0
 62
     7
 10
40.780718999999998
 20
191.37285299999999
 30
0.0
 40
3.5145419999999992
 50
164.181499
 51
180.0370879999999
  0
ARC
  5
AF
  8
0
 62
     7
 10
40.08054099999999
 20
191.51967099999999
 30
0.0
 40
2.8012980000000001
 50
121.662409
 51
163.16687899999999
  0
ARC
  5
B0
  8
0
 62
     7
 10
40.552284999999998
 20
190.82735400000001
 30
0.0
 40
3.6383919999999992
 50
91.413124999999994
 51
122.26273999999999
  0
ARC
  5
B1
  8
0
 62
     7
 10
40.722005000000003
 20
190.85676599999999
 30
0.0
 40
0.785891
 50
122.70374699999989
 51
179.49951200000001
  0
ARC
  5
B2
  8
0
 62
     7
 10
40.968316999999999
 20
190.47640000000001
 30
0.0
 40
1.2390419999999991
 50
110.627938
 51
122.784932
  0
ARC
  5
B3
  8
0
 62
     7
 10
41.231301000000002
 20
189.817171
 30
0.0
 40
1.948704999999999
 50
101.11474
 51
111.03599199999999
  0
ARC
  5
B4
  8
0
 62
     7
 10
41.447806999999997
 20
188.84070800000001
 30
0.0
 40
2.9486880000000002
 50
96.910680000000013
 51
101.585115
  0
ARC
  5
B5
  8
0
 62
     7
 10
51.983786000000002
 20
190.389689
 30
0.0
 40
0.073326
 50
288.945402
 51
358.97452800000002
  0
ARC
  5
B6
  8
0
 62
     7
 10
51.914436000000002
 20
190.535898
 30
0.0
 40
0.23483
 50
280.09520300000003
 51
293.37186000000003
  0
ARC
  5
B7
  8
0
 62
     7
 10
51.836795000000002
 20
190.95450099999999
 30
0.0
 40
0.660569
 50
272.32450399999999
 51
280.36104799999998
  0
ARC
  5
B8
  8
0
 62
     7
 10
51.707104000000001
 20
194.169174
 30
0.0
 40
3.8778570000000001
 50
268.85931599999998
 51
272.31268499999999
  0
ARC
  5
B9
  8
0
 62
     7
 10
51.922389000000003
 20
188.03309400000001
 30
0.0
 40
0.292486
 50
180.264421
 51
226.87716399999999
  0
ARC
  5
BA
  8
0
 62
     7
 10
52.069378999999991
 20
188.18450899999999
 30
0.0
 40
0.5034950000000001
 50
226.44644700000001
 51
245.956864
  0
ARC
  5
BB
  8
0
 62
     7
 10
52.325392000000001
 20
188.7038399999999
 30
0.0
 40
1.0823020000000001
 50
244.78089900000009
 51
257.76334100000003
  0
ARC
  5
BC
  8
0
 62
     7
 10
52.648732000000003
 20
190.00797499999999
 30
0.0
 40
2.4256619999999991
 50
256.82832400000001
 51
265.46470799999997
  0
ARC
  5
BD
  8
0
 62
     7
 10
52.923894999999987
 20
192.77015800000001
 30
0.0
 40
5.2012549999999997
 50
264.84907500000003
 51
270.45159200000001
  0
LINE
  5
BE
  8
0
 62
     7
 10
66.883499999999984
 20
187.56899999999999
 30
0.0
 11
52.9649
 21
187.56899999999999
 31
0.0
  0
ARC
  5
BF
  8
0
 62
     7
 10
51.922389000000003
 20
187.92216099999999
 30
0.0
 40
0.292486
 50
180.264421
 51
226.87716399999999
  0
ARC
  5
C0
  8
0
 62
     7
 10
52.069378999999991
 20
188.073576
 30
0.0
 40
0.5034950000000001
 50
226.44644700000001
 51
245.956864
  0
ARC
  5
C1
  8
0
 62
     7
 10
52.325392000000001
 20
188.592907
 30
0.0
 40
1.0823020000000001
 50
244.78089900000009
 51
257.76334100000003
  0
ARC
  5
C2
  8
0
 62
     7
 10
52.648732000000003
 20
189.897042
 30
0.0
 40
2.4256619999999991
 50
256.82832400000001
 51
265.46470799999997
  0
ARC
  5
C3
  8
0
 62
     7
 10
52.923894999999987
 20
192.65922499999999
 30
0.0
 40
5.2012549999999997
 50
264.84907500000003
 51
270.45159200000001
  0
ARC
  5
C4
  8
0
 62
     7
 10
42.869785
 20
173.239104
 30
0.0
 40
1.776772
 50
179.93901199999999
 51
201.420795
  0
ARC
  5
C5
  8
0
 62
     7
 10
42.501745999999997
 20
173.140131
 30
0.0
 40
1.398649
 50
203.152942
 51
234.52250100000001
  0
ARC
  5
C6
  8
0
 62
     7
 10
42.89423
 20
173.63987399999999
 30
0.0
 40
2.033617
 50
233.68923799999999
 51
248.493267
  0
ARC
  5
C7
  8
0
 62
     7
 10
43.398148999999989
 20
174.81009399999999
 30
0.0
 40
3.3073419999999989
 50
247.803461
 51
258.87694900000002
  0
ARC
  5
C8
  8
0
 62
     7
 10
43.872594999999997
 20
176.88030900000001
 30
0.0
 40
5.4306000000000001
 50
258.17896999999999
 51
263.85995100000002
  0
ARC
  5
C9
  8
0
 62
     7
 10
44.226180999999997
 20
179.883005
 30
0.0
 40
8.4539439999999981
 50
263.65397200000001
 51
268.43043799999998
  0
ARC
  5
CA
  8
0
 62
     7
 10
44.424253
 20
184.95497900000001
 30
0.0
 40
13.52957
 50
268.18027699999999
 51
270.06355000000002
  0
ARC
  5
CB
  8
0
 62
     7
 10
42.514934999999987
 20
193.51416
 30
0.0
 40
1.421921
 50
159.87113400000001
 51
180.02198100000001
  0
ARC
  5
CC
  8
0
 62
     7
 10
42.257509999999989
 20
193.57931300000001
 30
0.0
 40
1.158121999999999
 50
121.58835999999999
 51
158.51471599999999
  0
ARC
  5
CD
  8
0
 62
     7
 10
42.444468999999991
 20
193.30703800000001
 30
0.0
 40
1.4880789999999999
 50
90.634202000000016
 51
122.228936
  0
LINE
  5
CE
  8
0
 62
     7
 10
42.427999999999997
 20
194.79499999999999
 30
0.0
 11
52.057099999999991
 21
194.79499999999999
 31
0.0
  0
LINE
  5
CF
  8
0
 62
     7
 10
44.439300000000003
 20
171.42500000000001
 30
0.0
 11
75.409099999999995
 21
171.42500000000001
 31
0.0
  0
LINE
  5
D0
  8
0
 62
     7
 10
66.883499999999984
 20
187.458
 30
0.0
 11
52.9649
 21
187.458
 31
0.0
  0
LINE
  5
D1
  8
0
  6
AIGENLINE002
 62
     7
 10
78.933099999999996
 20
204.786
 30
0.0
 11
40.9328
 21
204.786
 31
0.0
  0
LINE
  5
D2
  8
0
  6
AIGENLINE002
 62
     7
 10
40.9328
 20
204.786
 30
0.0
 11
40.9328
 21
204.791
 31
0.0
  0
LINE
  5
D3
  8
0
  6
AIGENLINE002
 62
     7
 10
40.9328
 20
204.791
 30
0.0
 11
40.9328
 21
165.79400000000001
 31
0.0
  0
LINE
  5
D4
  8
0
  6
AIGENLINE002
 62
     7
 10
40.9328
 20
165.79400000000001
 30
0.0
 11
78.933099999999996
 21
165.79400000000001
 31
0.0
  0
LINE
  5
D5
  8
0
  6
AIGENLINE002
 62
     7
 10
78.933099999999996
 20
165.79400000000001
 30
0.0
 11
78.933099999999996
 21
204.791
 31
0.0
  0
LINE
  5
D6
  8
0
  6
AIGENLINE002
 62
     7
 10
78.933099999999996
 20
204.791
 30
0.0
 11
78.933099999999996
 21
204.786
 31
0.0
  0
LINE
  5
D7
  8
0
 62
     7
 10
129.126
 20
123.193
 30
0.0
 11
125.46599999999999
 21
109.992
 31
0.0
  0
ARC
  5
D8
  8
0
  6
AIGENLINE002
 62
     7
 10
120.991484
 20
99.564924000000005
 30
0.0
 40
6.3335049999999997
 50
270.00002000000001
 51
359.99999000000003
  0
ARC
  5
D9
  8
0
  6
AIGENLINE002
 62
     7
 10
120.991484
 20
99.564920999999998
 30
0.0
 40
6.3335019999999993
 50
179.99996999999999
 51
270.00002000000001
  0
ARC
  5
DA
  8
0
  6
AIGENLINE002
 62
     7
 10
120.991141
 20
99.564577000000014
 30
0.0
 40
6.3331599999999986
 50
89.996882999999997
 51
179.99685299999999
  0
ARC
  5
DB
  8
0
  6
AIGENLINE002
 62
     7
 10
120.991828
 20
99.564577000000014
 30
0.0
 40
6.3331599999999986
 50
0.003127
 51
90.003096999999997
  0
ARC
  5
DC
  8
0
  6
AIGENLINE002
 62
     7
 10
120.99113699999999
 20
99.564581000000004
 30
0.0
 40
19.500401
 50
270.00103200000001
 51
0.001002
  0
ARC
  5
DD
  8
0
  6
AIGENLINE002
 62
     7
 10
120.991826
 20
99.564575000000005
 30
0.0
 40
19.500394
 50
179.99895799999999
 51
269.999008
  0
ARC
  5
DE
  8
0
  6
AIGENLINE002
 62
     7
 10
120.991316
 20
99.564747000000011
 30
0.0
 40
19.499884000000002
 50
89.999493999999999
 51
179.99946399999999
  0
ARC
  5
DF
  8
0
  6
AIGENLINE002
 62
     7
 10
120.991654
 20
99.564747000000011
 30
0.0
 40
19.499884000000002
 50
0.000516
 51
90.000485999999995
  0
ARC
  5
E0
  8
0
 62
     7
 10
128.87373400000001
 20
127.177021
 30
0.0
 40
1.385008
 50
182.10978600000001
 51
267.89764700000001
  0
ARC
  5
E1
  8
0
 62
     7
 10
128.77195399999999
 20
127.177183
 30
0.0
 40
1.3851770000000001
 50
272.10884499999997
 51
357.88376199999999
  0
ARC
  5
E2
  8
0
 62
     7
 10
128.771942
 20
127.07504900000001
 30
0.0
 40
1.3851830000000001
 50
2.109329999999999
 51
87.890659999999997
  0
ARC
  5
E3
  8
0
 62
     7
 10
128.873909
 20
127.07505
 30
0.0
 40
1.385181999999999
 50
92.109302999999997
 51
177.89066700000001
  0
ARC
  5
E4
  8
0
 62
     7
 10
78.245241000000007
 20
108.180843
 30
0.0
 40
2.504283
 50
269.95083499999998
 51
280.91236600000002
  0
ARC
  5
E5
  8
0
 62
     7
 10
78.443426000000002
 20
107.014374
 30
0.0
 40
1.3216490000000001
 50
282.049103
 51
291.74887899999999
  0
LINE
  5
E6
  8
0
 62
     7
 10
78.933099999999996
 20
105.78700000000001
 30
0.0
 11
79.093299999999999
 21
105.876
 31
0.0
  0
LINE
  5
E7
  8
0
 62
     7
 10
79.093299999999999
 20
105.876
 30
0.0
 11
79.218100000000007
 21
105.947
 31
0.0
  0
LINE
  5
E8
  8
0
 62
     7
 10
79.218100000000007
 20
105.947
 30
0.0
 11
79.342399999999984
 21
106.036
 31
0.0
  0
LINE
  5
E9
  8
0
 62
     7
 10
79.342399999999984
 20
106.036
 30
0.0
 11
79.467100000000002
 21
106.143
 31
0.0
  0
LINE
  5
EA
  8
0
 62
     7
 10
79.467100000000002
 20
106.143
 30
0.0
 11
79.662800000000004
 21
106.392
 31
0.0
  0
LINE
  5
EB
  8
0
 62
     7
 10
79.662800000000004
 20
106.392
 30
0.0
 11
79.823000000000008
 21
106.65900000000001
 31
0.0
  0
LINE
  5
EC
  8
0
 62
     7
 10
79.823000000000008
 20
106.65900000000001
 30
0.0
 11
79.876400000000004
 21
106.801
 31
0.0
  0
LINE
  5
ED
  8
0
 62
     7
 10
79.876400000000004
 20
106.801
 30
0.0
 11
79.893999999999991
 21
106.926
 31
0.0
  0
LINE
  5
EE
  8
0
 62
     7
 10
79.893999999999991
 20
106.926
 30
0.0
 11
79.9298
 21
107.086
 31
0.0
  0
LINE
  5
EF
  8
0
 62
     7
 10
79.9298
 20
107.086
 30
0.0
 11
79.9298
 21
107.22799999999999
 31
0.0
  0
ARC
  5
F0
  8
0
 62
     7
 10
78.245409999999993
 20
125.193184
 30
0.0
 40
22.183145
 50
269.99402300000003
 51
270.94460500000002
  0
ARC
  5
F1
  8
0
 62
     7
 10
78.429443000000006
 20
106.392522
 30
0.0
 40
3.3843469999999991
 50
273.07705499999997
 51
278.55936000000003
  0
LINE
  5
F2
  8
0
 62
     7
 10
78.933099999999996
 20
103.04600000000001
 30
0.0
 11
79.021999999999991
 21
103.06399999999999
 31
0.0
  0
LINE
  5
F3
  8
0
 62
     7
 10
79.021999999999991
 20
103.06399999999999
 30
0.0
 11
79.128799999999998
 21
103.08199999999999
 31
0.0
  0
LINE
  5
F4
  8
0
 62
     7
 10
79.128799999999998
 20
103.08199999999999
 30
0.0
 11
79.342399999999984
 21
103.13500000000001
 31
0.0
  0
LINE
  5
F5
  8
0
 62
     7
 10
79.342399999999984
 20
103.13500000000001
 30
0.0
 11
79.5381
 21
103.188
 31
0.0
  0
LINE
  5
F6
  8
0
 62
     7
 10
79.5381
 20
103.188
 30
0.0
 11
79.734099999999998
 21
103.242
 31
0.0
  0
LINE
  5
F7
  8
0
 62
     7
 10
79.734099999999998
 20
103.242
 30
0.0
 11
79.947699999999983
 21
103.33
 31
0.0
  0
LINE
  5
F8
  8
0
 62
     7
 10
79.947699999999983
 20
103.33
 30
0.0
 11
80.1434
 21
103.402
 31
0.0
  0
LINE
  5
F9
  8
0
 62
     7
 10
80.1434
 20
103.402
 30
0.0
 11
80.321499999999986
 21
103.509
 31
0.0
  0
LINE
  5
FA
  8
0
 62
     7
 10
80.321499999999986
 20
103.509
 30
0.0
 11
80.517200000000017
 21
103.61499999999999
 31
0.0
  0
LINE
  5
FB
  8
0
 62
     7
 10
80.517200000000017
 20
103.61499999999999
 30
0.0
 11
80.694999999999993
 21
103.72199999999999
 31
0.0
  0
LINE
  5
FC
  8
0
 62
     7
 10
80.694999999999993
 20
103.72199999999999
 30
0.0
 11
80.873099999999994
 21
103.84699999999999
 31
0.0
  0
LINE
  5
FD
  8
0
 62
     7
 10
80.873099999999994
 20
103.84699999999999
 30
0.0
 11
81.033299999999997
 21
103.971
 31
0.0
  0
LINE
  5
FE
  8
0
 62
     7
 10
81.033299999999997
 20
103.971
 30
0.0
 11
81.1935
 21
104.114
 31
0.0
  0
LINE
  5
FF
  8
0
 62
     7
 10
81.1935
 20
104.114
 30
0.0
 11
81.353699999999989
 21
104.256
 31
0.0
  0
LINE
  5
100
  8
0
 62
     7
 10
81.353699999999989
 20
104.256
 30
0.0
 11
81.638599999999997
 21
104.559
 31
0.0
  0
LINE
  5
101
  8
0
 62
     7
 10
81.638599999999997
 20
104.559
 30
0.0
 11
81.887699999999995
 21
104.89700000000001
 31
0.0
  0
LINE
  5
102
  8
0
 62
     7
 10
81.887699999999995
 20
104.89700000000001
 30
0.0
 11
82.101299999999995
 21
105.253
 31
0.0
  0
LINE
  5
103
  8
0
 62
     7
 10
82.101299999999995
 20
105.253
 30
0.0
 11
82.279399999999995
 21
105.627
 31
0.0
  0
LINE
  5
104
  8
0
 62
     7
 10
82.279399999999995
 20
105.627
 30
0.0
 11
82.350399999999993
 21
105.80500000000001
 31
0.0
  0
LINE
  5
105
  8
0
 62
     7
 10
82.350399999999993
 20
105.80500000000001
 30
0.0
 11
82.421699999999987
 21
106.0
 31
0.0
  0
LINE
  5
106
  8
0
 62
     7
 10
82.421699999999987
 20
106.0
 30
0.0
 11
82.475099999999998
 21
106.214
 31
0.0
  0
LINE
  5
107
  8
0
 62
     7
 10
82.475099999999998
 20
106.214
 30
0.0
 11
82.510599999999997
 21
106.41
 31
0.0
  0
LINE
  5
108
  8
0
 62
     7
 10
82.510599999999997
 20
106.41
 30
0.0
 11
82.546400000000006
 21
106.623
 31
0.0
  0
LINE
  5
109
  8
0
 62
     7
 10
82.546400000000006
 20
106.623
 30
0.0
 11
82.581900000000005
 21
106.819
 31
0.0
  0
LINE
  5
10A
  8
0
 62
     7
 10
82.581900000000005
 20
106.819
 30
0.0
 11
82.599800000000002
 21
107.015
 31
0.0
  0
LINE
  5
10B
  8
0
 62
     7
 10
82.599800000000002
 20
107.015
 30
0.0
 11
82.599800000000002
 21
107.22799999999999
 31
0.0
  0
LINE
  5
10C
  8
0
 62
     7
 10
51.629899999999999
 20
188.13499999999999
 30
0.0
 11
68.218500000000006
 21
188.13499999999999
 31
0.0
  0
LINE
  5
10D
  8
0
 62
     7
 10
40.462600000000002
 20
185.46899999999999
 30
0.0
 11
41.093000000000004
 21
185.46899999999999
 31
0.0
  0
LINE
  5
10E
  8
0
 62
     7
 10
39.936100000000003
 20
189.06999999999999
 30
0.0
 11
39.936100000000003
 21
190.864
 31
0.0
  0
LINE
  5
10F
  8
0
 62
     7
 10
37.266199999999998
 20
191.37100000000001
 30
0.0
 11
37.266199999999998
 21
188.56299999999999
 31
0.0
  0
ARC
  5
110
  8
0
 62
     7
 10
41.620723999999989
 20
108.180843
 30
0.0
 40
2.504283
 50
259.08765399999999
 51
270.04918500000002
  0
ARC
  5
111
  8
0
 62
     7
 10
41.422539
 20
107.014374
 30
0.0
 40
1.3216490000000001
 50
248.25114099999999
 51
257.95091600000001
  0
LINE
  5
112
  8
0
 62
     7
 10
40.9328
 20
105.78700000000001
 30
0.0
 11
40.77259999999999
 21
105.876
 31
0.0
  0
LINE
  5
113
  8
0
 62
     7
 10
40.77259999999999
 20
105.876
 30
0.0
 11
40.6479
 21
105.947
 31
0.0
  0
LINE
  5
114
  8
0
 62
     7
 10
40.6479
 20
105.947
 30
0.0
 11
40.523499999999991
 21
106.036
 31
0.0
  0
LINE
  5
115
  8
0
 62
     7
 10
40.523499999999991
 20
106.036
 30
0.0
 11
40.398800000000001
 21
106.143
 31
0.0
  0
LINE
  5
116
  8
0
 62
     7
 10
40.398800000000001
 20
106.143
 30
0.0
 11
40.203099999999999
 21
106.392
 31
0.0
  0
LINE
  5
117
  8
0
 62
     7
 10
40.203099999999999
 20
106.392
 30
0.0
 11
40.042900000000003
 21
106.65900000000001
 31
0.0
  0
LINE
  5
118
  8
0
 62
     7
 10
40.042900000000003
 20
106.65900000000001
 30
0.0
 11
39.9895
 21
106.801
 31
0.0
  0
LINE
  5
119
  8
0
 62
     7
 10
39.9895
 20
106.801
 30
0.0
 11
39.972000000000001
 21
106.926
 31
0.0
  0
LINE
  5
11A
  8
0
 62
     7
 10
39.972000000000001
 20
106.926
 30
0.0
 11
39.936100000000003
 21
107.086
 31
0.0
  0
LINE
  5
11B
  8
0
 62
     7
 10
39.936100000000003
 20
107.086
 30
0.0
 11
39.936100000000003
 21
107.22799999999999
 31
0.0
  0
ARC
  5
11C
  8
0
 62
     7
 10
41.620555000000003
 20
125.193184
 30
0.0
 40
22.183145
 50
269.05541499999998
 51
270.00599699999998
  0
ARC
  5
11D
  8
0
 62
     7
 10
41.436521999999997
 20
106.392522
 30
0.0
 40
3.3843469999999991
 50
261.44066000000009
 51
266.92296499999998
  0
LINE
  5
11E
  8
0
 62
     7
 10
40.9328
 20
103.04600000000001
 30
0.0
 11
40.843899999999991
 21
103.06399999999999
 31
0.0
  0
LINE
  5
11F
  8
0
 62
     7
 10
40.843899999999991
 20
103.06399999999999
 30
0.0
 11
40.737099999999998
 21
103.08199999999999
 31
0.0
  0
LINE
  5
120
  8
0
 62
     7
 10
40.737099999999998
 20
103.08199999999999
 30
0.0
 11
40.523499999999991
 21
103.13500000000001
 31
0.0
  0
LINE
  5
121
  8
0
 62
     7
 10
40.523499999999991
 20
103.13500000000001
 30
0.0
 11
40.3279
 21
103.188
 31
0.0
  0
LINE
  5
122
  8
0
 62
     7
 10
40.3279
 20
103.188
 30
0.0
 11
40.131799999999998
 21
103.242
 31
0.0
  0
LINE
  5
123
  8
0
 62
     7
 10
40.131799999999998
 20
103.242
 30
0.0
 11
39.918199999999999
 21
103.33
 31
0.0
  0
LINE
  5
124
  8
0
 62
     7
 10
39.918199999999999
 20
103.33
 30
0.0
 11
39.722499999999997
 21
103.402
 31
0.0
  0
LINE
  5
125
  8
0
 62
     7
 10
39.722499999999997
 20
103.402
 30
0.0
 11
39.544400000000003
 21
103.509
 31
0.0
  0
LINE
  5
126
  8
0
 62
     7
 10
39.544400000000003
 20
103.509
 30
0.0
 11
39.348799999999997
 21
103.61499999999999
 31
0.0
  0
LINE
  5
127
  8
0
 62
     7
 10
39.348799999999997
 20
103.61499999999999
 30
0.0
 11
39.170999999999999
 21
103.72199999999999
 31
0.0
  0
LINE
  5
128
  8
0
 62
     7
 10
39.170999999999999
 20
103.72199999999999
 30
0.0
 11
38.992899999999999
 21
103.84699999999999
 31
0.0
  0
LINE
  5
129
  8
0
 62
     7
 10
38.992899999999999
 20
103.84699999999999
 30
0.0
 11
38.832700000000003
 21
103.971
 31
0.0
  0
LINE
  5
12A
  8
0
 62
     7
 10
38.832700000000003
 20
103.971
 30
0.0
 11
38.672499999999999
 21
104.114
 31
0.0
  0
LINE
  5
12B
  8
0
 62
     7
 10
38.672499999999999
 20
104.114
 30
0.0
 11
38.51230000000001
 21
104.256
 31
0.0
  0
LINE
  5
12C
  8
0
 62
     7
 10
38.51230000000001
 20
104.256
 30
0.0
 11
38.22740000000001
 21
104.559
 31
0.0
  0
LINE
  5
12D
  8
0
 62
     7
 10
38.22740000000001
 20
104.559
 30
0.0
 11
37.978299999999997
 21
104.89700000000001
 31
0.0
  0
LINE
  5
12E
  8
0
 62
     7
 10
37.978299999999997
 20
104.89700000000001
 30
0.0
 11
37.764699999999998
 21
105.253
 31
0.0
  0
LINE
  5
12F
  8
0
 62
     7
 10
37.764699999999998
 20
105.253
 30
0.0
 11
37.586599999999997
 21
105.627
 31
0.0
  0
LINE
  5
130
  8
0
 62
     7
 10
37.586599999999997
 20
105.627
 30
0.0
 11
37.515599999999999
 21
105.80500000000001
 31
0.0
  0
LINE
  5
131
  8
0
 62
     7
 10
37.515599999999999
 20
105.80500000000001
 30
0.0
 11
37.444299999999998
 21
106.0
 31
0.0
  0
LINE
  5
132
  8
0
 62
     7
 10
37.444299999999998
 20
106.0
 30
0.0
 11
37.390900000000002
 21
106.214
 31
0.0
  0
LINE
  5
133
  8
0
 62
     7
 10
37.390900000000002
 20
106.214
 30
0.0
 11
37.355400000000003
 21
106.41
 31
0.0
  0
LINE
  5
134
  8
0
 62
     7
 10
37.355400000000003
 20
106.41
 30
0.0
 11
37.319600000000001
 21
106.623
 31
0.0
  0
LINE
  5
135
  8
0
 62
     7
 10
37.319600000000001
 20
106.623
 30
0.0
 11
37.284100000000002
 21
106.819
 31
0.0
  0
LINE
  5
136
  8
0
 62
     7
 10
37.284100000000002
 20
106.819
 30
0.0
 11
37.266199999999998
 21
107.015
 31
0.0
  0
LINE
  5
137
  8
0
 62
     7
 10
37.266199999999998
 20
107.015
 30
0.0
 11
37.266199999999998
 21
107.22799999999999
 31
0.0
  0
LINE
  5
138
  8
0
 62
     7
 10
52.343400000000003
 20
205.49799999999999
 30
0.0
 11
52.343400000000003
 21
233.73099999999999
 31
0.0
  0
LINE
  5
139
  8
0
 62
     7
 10
67.531499999999994
 20
233.73099999999999
 30
0.0
 11
67.531499999999994
 21
205.49799999999999
 31
0.0
  0
LINE
  5
13A
  8
0
 62
     7
 10
54.553800000000003
 20
233.61600000000001
 30
0.0
 11
52.342700000000001
 21
233.023
 31
0.0
  0
LINE
  5
13B
  8
0
 62
     7
 10
52.342700000000001
 20
233.023
 30
0.0
 11
54.553800000000003
 21
232.43100000000001
 31
0.0
  0
LINE
  5
13C
  8
0
 62
     7
 10
54.553800000000003
 20
232.43100000000001
 30
0.0
 11
54.553800000000003
 21
233.61600000000001
 31
0.0
  0
LINE
  5
13D
  8
0
 62
     7
 10
65.321100000000001
 20
232.44499999999999
 30
0.0
 11
67.532200000000003
 21
233.03800000000001
 31
0.0
  0
LINE
  5
13E
  8
0
 62
     7
 10
67.532200000000003
 20
233.03800000000001
 30
0.0
 11
65.321100000000001
 21
233.63
 31
0.0
  0
LINE
  5
13F
  8
0
 62
     7
 10
65.321100000000001
 20
233.63
 30
0.0
 11
65.321100000000001
 21
232.44499999999999
 31
0.0
  0
LINE
  5
140
  8
0
 62
     7
 10
52.343400000000003
 20
233.03
 30
0.0
 11
67.531499999999994
 21
233.03
 31
0.0
  0
LINE
  5
141
  8
0
 62
     7
 10
55.9373
 20
222.49600000000001
 30
0.0
 11
55.9373
 21
227.97499999999999
 31
0.0
  0
LINE
  5
142
  8
0
 62
     7
 10
89.506200000000007
 20
202.58699999999999
 30
0.0
 11
88.913700000000006
 21
204.79900000000001
 31
0.0
  0
LINE
  5
143
  8
0
 62
     7
 10
88.913700000000006
 20
204.79900000000001
 30
0.0
 11
88.321100000000001
 21
202.58699999999999
 31
0.0
  0
LINE
  5
144
  8
0
 62
     7
 10
88.321100000000001
 20
202.58699999999999
 30
0.0
 11
89.506200000000007
 21
202.58699999999999
 31
0.0
  0
LINE
  5
145
  8
0
 62
     7
 10
88.335599999999999
 20
191.84200000000001
 30
0.0
 11
88.928100000000001
 21
189.63
 31
0.0
  0
LINE
  5
146
  8
0
 62
     7
 10
88.928100000000001
 20
189.63
 30
0.0
 11
89.520700000000005
 21
191.84200000000001
 31
0.0
  0
LINE
  5
147
  8
0
 62
     7
 10
89.520700000000005
 20
191.84200000000001
 30
0.0
 11
88.335599999999999
 21
191.84200000000001
 31
0.0
  0
LINE
  5
148
  8
0
 62
     7
 10
88.920900000000003
 20
204.798
 30
0.0
 11
88.920900000000003
 21
189.63099999999989
 31
0.0
  0
LINE
  5
149
  8
0
 62
     7
 10
63.928600000000003
 20
227.97499999999999
 30
0.0
 11
63.928600000000003
 21
222.49600000000001
 31
0.0
  0
LINE
  5
14A
  8
0
 62
     7
 10
68.2316
 20
204.798
 30
0.0
 11
89.620900000000006
 21
204.798
 31
0.0
  0
LINE
  5
14B
  8
0
 62
     7
 10
66.694000000000003
 20
189.63099999999989
 30
0.0
 11
89.620900000000006
 21
189.63099999999989
 31
0.0
  0
LINE
  5
14C
  8
0
 62
     7
 10
58.1477
 20
227.86000000000001
 30
0.0
 11
55.936599999999991
 21
227.268
 31
0.0
  0
LINE
  5
14D
  8
0
 62
     7
 10
55.936599999999991
 20
227.268
 30
0.0
 11
58.1477
 21
226.67500000000001
 31
0.0
  0
LINE
  5
14E
  8
0
 62
     7
 10
58.1477
 20
226.67500000000001
 30
0.0
 11
58.1477
 21
227.86000000000001
 31
0.0
  0
LINE
  5
14F
  8
0
 62
     7
 10
61.718200000000003
 20
226.69
 30
0.0
 11
63.929299999999991
 21
227.28200000000001
 31
0.0
  0
LINE
  5
150
  8
0
 62
     7
 10
63.929299999999991
 20
227.28200000000001
 30
0.0
 11
61.718200000000003
 21
227.875
 31
0.0
  0
LINE
  5
151
  8
0
 62
     7
 10
61.718200000000003
 20
227.875
 30
0.0
 11
61.718200000000003
 21
226.69
 31
0.0
  0
LINE
  5
152
  8
0
 62
     7
 10
55.9373
 20
227.27500000000001
 30
0.0
 11
63.928600000000003
 21
227.27500000000001
 31
0.0
  0
LINE
  5
153
  8
0
 62
     7
 10
78.754999999999995
 20
130.38999999999999
 30
0.0
 11
78.754999999999995
 21
140.005
 31
0.0
  0
LINE
  5
154
  8
0
 62
     7
 10
41.093000000000004
 20
140.005
 30
0.0
 11
41.093000000000004
 21
130.58099999999999
 31
0.0
  0
LINE
  5
155
  8
0
 62
     7
 10
76.544600000000003
 20
138.71899999999999
 30
0.0
 11
78.755700000000004
 21
139.31200000000001
 31
0.0
  0
LINE
  5
156
  8
0
 62
     7
 10
78.755700000000004
 20
139.31200000000001
 30
0.0
 11
76.544600000000003
 21
139.904
 31
0.0
  0
LINE
  5
157
  8
0
 62
     7
 10
76.544600000000003
 20
139.904
 30
0.0
 11
76.544600000000003
 21
138.71899999999999
 31
0.0
  0
LINE
  5
158
  8
0
 62
     7
 10
43.303400000000003
 20
139.88999999999999
 30
0.0
 11
41.092300000000002
 21
139.297
 31
0.0
  0
LINE
  5
159
  8
0
 62
     7
 10
41.092300000000002
 20
139.297
 30
0.0
 11
43.303400000000003
 21
138.70500000000001
 31
0.0
  0
LINE
  5
15A
  8
0
 62
     7
 10
43.303400000000003
 20
138.70500000000001
 30
0.0
 11
43.303400000000003
 21
139.88999999999999
 31
0.0
  0
LINE
  5
15B
  8
0
 62
     7
 10
78.754999999999995
 20
139.30500000000001
 30
0.0
 11
41.093000000000004
 21
139.30500000000001
 31
0.0
  0
LINE
  5
15C
  8
0
 62
     7
 10
82.599800000000002
 20
111.044
 30
0.0
 11
82.599800000000002
 21
146.86799999999999
 31
0.0
  0
LINE
  5
15D
  8
0
 62
     7
 10
37.266199999999998
 20
146.86799999999999
 30
0.0
 11
37.266199999999998
 21
126.718
 31
0.0
  0
LINE
  5
15E
  8
0
 62
     7
 10
35.0548
 20
110.101
 30
0.0
 11
37.266199999999998
 21
110.694
 31
0.0
  0
LINE
  5
15F
  8
0
 62
     7
 10
37.266199999999998
 20
110.694
 30
0.0
 11
35.0548
 21
111.28700000000001
 31
0.0
  0
LINE
  5
160
  8
0
 62
     7
 10
35.0548
 20
111.28700000000001
 30
0.0
 11
35.0548
 21
110.101
 31
0.0
  0
LINE
  5
161
  8
0
 62
     7
 10
42.147599999999997
 20
111.28700000000001
 30
0.0
 11
39.936100000000003
 21
110.694
 31
0.0
  0
LINE
  5
162
  8
0
 62
     7
 10
39.936100000000003
 20
110.694
 30
0.0
 11
42.147599999999997
 21
110.101
 31
0.0
  0
LINE
  5
163
  8
0
 62
     7
 10
42.147599999999997
 20
110.101
 30
0.0
 11
42.147599999999997
 21
111.28700000000001
 31
0.0
  0
LINE
  5
164
  8
0
 62
     7
 10
43.517699999999998
 20
110.694
 30
0.0
 11
30.283999999999999
 21
110.694
 31
0.0
  0
LINE
  5
165
  8
0
 62
     7
 10
80.389399999999995
 20
145.583
 30
0.0
 11
82.600499999999997
 21
146.17500000000001
 31
0.0
  0
LINE
  5
166
  8
0
 62
     7
 10
82.600499999999997
 20
146.17500000000001
 30
0.0
 11
80.389399999999995
 21
146.768
 31
0.0
  0
LINE
  5
167
  8
0
 62
     7
 10
80.389399999999995
 20
146.768
 30
0.0
 11
80.389399999999995
 21
145.583
 31
0.0
  0
LINE
  5
168
  8
0
 62
     7
 10
39.476599999999998
 20
146.75299999999999
 30
0.0
 11
37.265500000000003
 21
146.161
 31
0.0
  0
LINE
  5
169
  8
0
 62
     7
 10
37.265500000000003
 20
146.161
 30
0.0
 11
39.476599999999998
 21
145.56800000000001
 31
0.0
  0
LINE
  5
16A
  8
0
 62
     7
 10
39.476599999999998
 20
145.56800000000001
 30
0.0
 11
39.476599999999998
 21
146.75299999999999
 31
0.0
  0
LINE
  5
16B
  8
0
 62
     7
 10
82.599800000000002
 20
146.16800000000001
 30
0.0
 11
37.266199999999998
 21
146.16800000000001
 31
0.0
  0
LINE
  5
16C
  8
0
 62
     7
 10
165.666
 20
125.267
 30
0.0
 11
165.07400000000001
 21
127.479
 31
0.0
  0
LINE
  5
16D
  8
0
 62
     7
 10
165.07400000000001
 20
127.479
 30
0.0
 11
164.48099999999999
 21
125.267
 31
0.0
  0
LINE
  5
16E
  8
0
 62
     7
 10
164.48099999999999
 20
125.267
 30
0.0
 11
165.666
 21
125.267
 31
0.0
  0
LINE
  5
16F
  8
0
 62
     7
 10
164.48099999999999
 20
133.024
 30
0.0
 11
165.07400000000001
 21
130.81200000000001
 31
0.0
  0
LINE
  5
170
  8
0
 62
     7
 10
165.07400000000001
 20
130.81200000000001
 30
0.0
 11
165.666
 21
133.024
 31
0.0
  0
LINE
  5
171
  8
0
 62
     7
 10
165.666
 20
133.024
 30
0.0
 11
164.48099999999999
 21
133.024
 31
0.0
  0
LINE
  5
172
  8
0
 62
     7
 10
165.07400000000001
 20
136.22800000000001
 30
0.0
 11
165.07400000000001
 21
124.239
 31
0.0
  0
LINE
  5
173
  8
0
 62
     7
 10
165.774
 20
127.479
 30
0.0
 11
158.47900000000001
 21
127.479
 31
0.0
  0
LINE
  5
174
  8
0
 62
     7
 10
172.459
 20
128.601
 30
0.0
 11
171.86699999999999
 21
130.81299999999999
 31
0.0
  0
LINE
  5
175
  8
0
 62
     7
 10
171.86699999999999
 20
130.81299999999999
 30
0.0
 11
171.274
 21
128.601
 31
0.0
  0
LINE
  5
176
  8
0
 62
     7
 10
171.274
 20
128.601
 30
0.0
 11
172.459
 21
128.601
 31
0.0
  0
LINE
  5
177
  8
0
 62
     7
 10
171.28899999999999
 20
124.83499999999999
 30
0.0
 11
171.88099999999989
 21
122.623
 31
0.0
  0
LINE
  5
178
  8
0
 62
     7
 10
171.88099999999989
 20
122.623
 30
0.0
 11
172.47399999999999
 21
124.83499999999999
 31
0.0
  0
LINE
  5
179
  8
0
 62
     7
 10
172.47399999999999
 20
124.83499999999999
 30
0.0
 11
171.28899999999999
 21
124.83499999999999
 31
0.0
  0
LINE
  5
17A
  8
0
 62
     7
 10
171.874
 20
130.81200000000001
 30
0.0
 11
171.874
 21
122.625
 31
0.0
  0
LINE
  5
17B
  8
0
 62
     7
 10
172.57400000000001
 20
122.625
 30
0.0
 11
141.196
 21
122.625
 31
0.0
  0
LINE
  5
17C
  8
0
 62
     7
 10
172.56700000000001
 20
130.81200000000001
 30
0.0
 11
141.196
 21
130.81200000000001
 31
0.0
  0
LINE
  5
17D
  8
0
  6
AIGENLINE002
 62
     7
 10
40.9328
 20
119.065
 30
0.0
 11
40.9328
 21
80.067599999999985
 31
0.0
  0
LINE
  5
17E
  8
0
  6
AIGENLINE002
 62
     7
 10
40.9328
 20
80.067599999999985
 30
0.0
 11
78.933099999999996
 21
80.067599999999985
 31
0.0
  0
LINE
  5
17F
  8
0
  6
AIGENLINE002
 62
     7
 10
78.933099999999996
 20
80.067599999999985
 30
0.0
 11
78.933099999999996
 21
119.065
 31
0.0
  0
LINE
  5
180
  8
0
  6
AIGENLINE002
 62
     7
 10
78.754999999999995
 20
119.065
 30
0.0
 11
78.933099999999996
 21
119.065
 31
0.0
  0
LINE
  5
181
  8
0
  6
AIGENLINE002
 62
     7
 10
40.9328
 20
119.065
 30
0.0
 11
41.093000000000004
 21
119.065
 31
0.0
  0
LINE
  5
182
  8
0
 62
     7
 10
75.426699999999997
 20
113.72499999999999
 30
0.0
 11
75.747100000000003
 21
113.74299999999999
 31
0.0
  0
LINE
  5
183
  8
0
 62
     7
 10
75.747100000000003
 20
113.74299999999999
 30
0.0
 11
76.085400000000007
 21
113.79600000000001
 31
0.0
  0
LINE
  5
184
  8
0
 62
     7
 10
76.085400000000007
 20
113.79600000000001
 30
0.0
 11
76.227699999999999
 21
113.81399999999999
 31
0.0
  0
LINE
  5
185
  8
0
 62
     7
 10
76.227699999999999
 20
113.81399999999999
 30
0.0
 11
76.387900000000002
 21
113.84999999999999
 31
0.0
  0
LINE
  5
186
  8
0
 62
     7
 10
76.387900000000002
 20
113.84999999999999
 30
0.0
 11
76.548100000000005
 21
113.90300000000001
 31
0.0
  0
LINE
  5
187
  8
0
 62
     7
 10
76.548100000000005
 20
113.90300000000001
 30
0.0
 11
76.708299999999994
 21
113.95699999999999
 31
0.0
  0
LINE
  5
188
  8
0
 62
     7
 10
76.708299999999994
 20
113.95699999999999
 30
0.0
 11
76.8506
 21
114.01000000000001
 31
0.0
  0
LINE
  5
189
  8
0
 62
     7
 10
76.8506
 20
114.01000000000001
 30
0.0
 11
76.993200000000002
 21
114.081
 31
0.0
  0
LINE
  5
18A
  8
0
 62
     7
 10
76.993200000000002
 20
114.081
 30
0.0
 11
77.135499999999993
 21
114.15300000000001
 31
0.0
  0
LINE
  5
18B
  8
0
 62
     7
 10
77.135499999999993
 20
114.15300000000001
 30
0.0
 11
77.277799999999999
 21
114.224
 31
0.0
  0
LINE
  5
18C
  8
0
 62
     7
 10
77.277799999999999
 20
114.224
 30
0.0
 11
77.420400000000001
 21
114.295
 31
0.0
  0
LINE
  5
18D
  8
0
 62
     7
 10
77.420400000000001
 20
114.295
 30
0.0
 11
77.544799999999995
 21
114.383
 31
0.0
  0
LINE
  5
18E
  8
0
 62
     7
 10
77.544799999999995
 20
114.383
 30
0.0
 11
77.669499999999999
 21
114.48999999999999
 31
0.0
  0
LINE
  5
18F
  8
0
 62
     7
 10
77.669499999999999
 20
114.48999999999999
 30
0.0
 11
77.776300000000006
 21
114.58
 31
0.0
  0
LINE
  5
190
  8
0
 62
     7
 10
77.776300000000006
 20
114.58
 30
0.0
 11
77.900599999999997
 21
114.669
 31
0.0
  0
LINE
  5
191
  8
0
 62
     7
 10
77.900599999999997
 20
114.669
 30
0.0
 11
78.007400000000004
 21
114.77500000000001
 31
0.0
  0
LINE
  5
192
  8
0
 62
     7
 10
78.007400000000004
 20
114.77500000000001
 30
0.0
 11
78.096699999999998
 21
114.90000000000001
 31
0.0
  0
LINE
  5
193
  8
0
 62
     7
 10
78.096699999999998
 20
114.90000000000001
 30
0.0
 11
78.203500000000005
 21
115.00700000000001
 31
0.0
  0
LINE
  5
194
  8
0
 62
     7
 10
78.203500000000005
 20
115.00700000000001
 30
0.0
 11
78.363699999999994
 21
115.238
 31
0.0
  0
LINE
  5
195
  8
0
 62
     7
 10
78.363699999999994
 20
115.238
 30
0.0
 11
78.506
 21
115.48699999999999
 31
0.0
  0
LINE
  5
196
  8
0
 62
     7
 10
78.506
 20
115.48699999999999
 30
0.0
 11
78.559399999999997
 21
115.61199999999999
 31
0.0
  0
LINE
  5
197
  8
0
 62
     7
 10
78.559399999999997
 20
115.61199999999999
 30
0.0
 11
78.612799999999993
 21
115.755
 31
0.0
  0
LINE
  5
198
  8
0
 62
     7
 10
78.612799999999993
 20
115.755
 30
0.0
 11
78.666200000000003
 21
115.879
 31
0.0
  0
LINE
  5
199
  8
0
 62
     7
 10
78.666200000000003
 20
115.879
 30
0.0
 11
78.701599999999999
 21
116.003
 31
0.0
  0
LINE
  5
19A
  8
0
 62
     7
 10
78.701599999999999
 20
116.003
 30
0.0
 11
78.737499999999997
 21
116.271
 31
0.0
  0
LINE
  5
19B
  8
0
 62
     7
 10
78.737499999999997
 20
116.271
 30
0.0
 11
78.754999999999995
 21
116.53700000000001
 31
0.0
  0
LINE
  5
19C
  8
0
 62
     7
 10
75.426699999999997
 20
113.565
 30
0.0
 11
75.604799999999997
 21
113.565
 31
0.0
  0
LINE
  5
19D
  8
0
 62
     7
 10
75.604799999999997
 20
113.565
 30
0.0
 11
75.747100000000003
 21
113.583
 31
0.0
  0
LINE
  5
19E
  8
0
 62
     7
 10
75.747100000000003
 20
113.583
 30
0.0
 11
75.925200000000004
 21
113.601
 31
0.0
  0
LINE
  5
19F
  8
0
 62
     7
 10
75.925200000000004
 20
113.601
 30
0.0
 11
76.085400000000007
 21
113.619
 31
0.0
  0
LINE
  5
1A0
  8
0
 62
     7
 10
76.085400000000007
 20
113.619
 30
0.0
 11
76.227699999999999
 21
113.654
 31
0.0
  0
LINE
  5
1A1
  8
0
 62
     7
 10
76.227699999999999
 20
113.654
 30
0.0
 11
76.387900000000002
 21
113.69
 31
0.0
  0
LINE
  5
1A2
  8
0
 62
     7
 10
76.387900000000002
 20
113.69
 30
0.0
 11
76.548100000000005
 21
113.72499999999999
 31
0.0
  0
LINE
  5
1A3
  8
0
 62
     7
 10
76.548100000000005
 20
113.72499999999999
 30
0.0
 11
76.708299999999994
 21
113.77800000000001
 31
0.0
  0
LINE
  5
1A4
  8
0
 62
     7
 10
76.708299999999994
 20
113.77800000000001
 30
0.0
 11
76.993200000000002
 21
113.90300000000001
 31
0.0
  0
LINE
  5
1A5
  8
0
 62
     7
 10
76.993200000000002
 20
113.90300000000001
 30
0.0
 11
77.277799999999999
 21
114.04600000000001
 31
0.0
  0
LINE
  5
1A6
  8
0
 62
     7
 10
77.277799999999999
 20
114.04600000000001
 30
0.0
 11
77.544799999999995
 21
114.206
 31
0.0
  0
LINE
  5
1A7
  8
0
 62
     7
 10
77.544799999999995
 20
114.206
 30
0.0
 11
77.776300000000006
 21
114.401
 31
0.0
  0
LINE
  5
1A8
  8
0
 62
     7
 10
77.776300000000006
 20
114.401
 30
0.0
 11
77.900599999999997
 21
114.508
 31
0.0
  0
LINE
  5
1A9
  8
0
 62
     7
 10
77.900599999999997
 20
114.508
 30
0.0
 11
78.007400000000004
 21
114.59699999999999
 31
0.0
  0
LINE
  5
1AA
  8
0
 62
     7
 10
78.007400000000004
 20
114.59699999999999
 30
0.0
 11
78.114199999999997
 21
114.72199999999999
 31
0.0
  0
LINE
  5
1AB
  8
0
 62
     7
 10
78.114199999999997
 20
114.72199999999999
 30
0.0
 11
78.203500000000005
 21
114.82899999999999
 31
0.0
  0
LINE
  5
1AC
  8
0
 62
     7
 10
78.203500000000005
 20
114.82899999999999
 30
0.0
 11
78.363699999999994
 21
115.06
 31
0.0
  0
LINE
  5
1AD
  8
0
 62
     7
 10
78.363699999999994
 20
115.06
 30
0.0
 11
78.506
 21
115.309
 31
0.0
  0
LINE
  5
1AE
  8
0
 62
     7
 10
78.506
 20
115.309
 30
0.0
 11
78.612799999999993
 21
115.55800000000001
 31
0.0
  0
LINE
  5
1AF
  8
0
 62
     7
 10
78.612799999999993
 20
115.55800000000001
 30
0.0
 11
78.701599999999999
 21
115.82599999999999
 31
0.0
  0
LINE
  5
1B0
  8
0
 62
     7
 10
78.701599999999999
 20
115.82599999999999
 30
0.0
 11
78.737499999999997
 21
116.074
 31
0.0
  0
LINE
  5
1B1
  8
0
 62
     7
 10
78.737499999999997
 20
116.074
 30
0.0
 11
78.754999999999995
 21
116.342
 31
0.0
  0
LINE
  5
1B2
  8
0
 62
     7
 10
44.439300000000003
 20
113.565
 30
0.0
 11
44.100900000000003
 21
113.583
 31
0.0
  0
LINE
  5
1B3
  8
0
 62
     7
 10
44.100900000000003
 20
113.583
 30
0.0
 11
43.780900000000003
 21
113.619
 31
0.0
  0
LINE
  5
1B4
  8
0
 62
     7
 10
43.780900000000003
 20
113.619
 30
0.0
 11
43.620399999999989
 21
113.654
 31
0.0
  0
LINE
  5
1B5
  8
0
 62
     7
 10
43.620399999999989
 20
113.654
 30
0.0
 11
43.4602
 21
113.69
 31
0.0
  0
LINE
  5
1B6
  8
0
 62
     7
 10
43.4602
 20
113.69
 30
0.0
 11
43.317900000000002
 21
113.72499999999999
 31
0.0
  0
LINE
  5
1B7
  8
0
 62
     7
 10
43.317900000000002
 20
113.72499999999999
 30
0.0
 11
43.157699999999991
 21
113.77800000000001
 31
0.0
  0
LINE
  5
1B8
  8
0
 62
     7
 10
43.157699999999991
 20
113.77800000000001
 30
0.0
 11
43.0154
 21
113.83199999999999
 31
0.0
  0
LINE
  5
1B9
  8
0
 62
     7
 10
43.0154
 20
113.83199999999999
 30
0.0
 11
42.855200000000004
 21
113.90300000000001
 31
0.0
  0
LINE
  5
1BA
  8
0
 62
     7
 10
42.855200000000004
 20
113.90300000000001
 30
0.0
 11
42.730499999999999
 21
113.974
 31
0.0
  0
LINE
  5
1BB
  8
0
 62
     7
 10
42.730499999999999
 20
113.974
 30
0.0
 11
42.588200000000001
 21
114.04600000000001
 31
0.0
  0
LINE
  5
1BC
  8
0
 62
     7
 10
42.588200000000001
 20
114.04600000000001
 30
0.0
 11
42.463500000000003
 21
114.117
 31
0.0
  0
LINE
  5
1BD
  8
0
 62
     7
 10
42.463500000000003
 20
114.117
 30
0.0
 11
42.321199999999997
 21
114.206
 31
0.0
  0
LINE
  5
1BE
  8
0
 62
     7
 10
42.321199999999997
 20
114.206
 30
0.0
 11
42.196800000000003
 21
114.312
 31
0.0
  0
LINE
  5
1BF
  8
0
 62
     7
 10
42.196800000000003
 20
114.312
 30
0.0
 11
42.072099999999992
 21
114.401
 31
0.0
  0
LINE
  5
1C0
  8
0
 62
     7
 10
42.072099999999992
 20
114.401
 30
0.0
 11
41.858499999999999
 21
114.59699999999999
 31
0.0
  0
LINE
  5
1C1
  8
0
 62
     7
 10
41.858499999999999
 20
114.59699999999999
 30
0.0
 11
41.66279999999999
 21
114.82899999999999
 31
0.0
  0
LINE
  5
1C2
  8
0
 62
     7
 10
41.66279999999999
 20
114.82899999999999
 30
0.0
 11
41.573599999999992
 21
114.935
 31
0.0
  0
LINE
  5
1C3
  8
0
 62
     7
 10
41.573599999999992
 20
114.935
 30
0.0
 11
41.502299999999991
 21
115.06
 31
0.0
  0
LINE
  5
1C4
  8
0
 62
     7
 10
41.502299999999991
 20
115.06
 30
0.0
 11
41.413400000000003
 21
115.185
 31
0.0
  0
LINE
  5
1C5
  8
0
 62
     7
 10
41.413400000000003
 20
115.185
 30
0.0
 11
41.359999999999999
 21
115.309
 31
0.0
  0
LINE
  5
1C6
  8
0
 62
     7
 10
41.359999999999999
 20
115.309
 30
0.0
 11
41.288699999999999
 21
115.434
 31
0.0
  0
LINE
  5
1C7
  8
0
 62
     7
 10
41.288699999999999
 20
115.434
 30
0.0
 11
41.2532
 21
115.55800000000001
 31
0.0
  0
LINE
  5
1C8
  8
0
 62
     7
 10
41.2532
 20
115.55800000000001
 30
0.0
 11
41.199800000000003
 21
115.68300000000001
 31
0.0
  0
LINE
  5
1C9
  8
0
 62
     7
 10
41.199800000000003
 20
115.68300000000001
 30
0.0
 11
41.164299999999997
 21
115.82599999999999
 31
0.0
  0
LINE
  5
1CA
  8
0
 62
     7
 10
41.164299999999997
 20
115.82599999999999
 30
0.0
 11
41.1464
 21
115.95
 31
0.0
  0
LINE
  5
1CB
  8
0
 62
     7
 10
41.1464
 20
115.95
 30
0.0
 11
41.110899999999987
 21
116.092
 31
0.0
  0
LINE
  5
1CC
  8
0
 62
     7
 10
41.110899999999987
 20
116.092
 30
0.0
 11
41.110899999999987
 21
116.217
 31
0.0
  0
LINE
  5
1CD
  8
0
 62
     7
 10
41.110899999999987
 20
116.217
 30
0.0
 11
41.093000000000004
 21
116.342
 31
0.0
  0
LINE
  5
1CE
  8
0
 62
     7
 10
44.439300000000003
 20
113.72499999999999
 30
0.0
 11
44.100900000000003
 21
113.74299999999999
 31
0.0
  0
LINE
  5
1CF
  8
0
 62
     7
 10
44.100900000000003
 20
113.74299999999999
 30
0.0
 11
43.780900000000003
 21
113.79600000000001
 31
0.0
  0
LINE
  5
1D0
  8
0
 62
     7
 10
43.780900000000003
 20
113.79600000000001
 30
0.0
 11
43.620399999999989
 21
113.81399999999999
 31
0.0
  0
LINE
  5
1D1
  8
0
 62
     7
 10
43.620399999999989
 20
113.81399999999999
 30
0.0
 11
43.4602
 21
113.84999999999999
 31
0.0
  0
LINE
  5
1D2
  8
0
 62
     7
 10
43.4602
 20
113.84999999999999
 30
0.0
 11
43.317900000000002
 21
113.90300000000001
 31
0.0
  0
LINE
  5
1D3
  8
0
 62
     7
 10
43.317900000000002
 20
113.90300000000001
 30
0.0
 11
43.157699999999991
 21
113.95699999999999
 31
0.0
  0
LINE
  5
1D4
  8
0
 62
     7
 10
43.157699999999991
 20
113.95699999999999
 30
0.0
 11
43.0154
 21
114.01000000000001
 31
0.0
  0
LINE
  5
1D5
  8
0
 62
     7
 10
43.0154
 20
114.01000000000001
 30
0.0
 11
42.855200000000004
 21
114.081
 31
0.0
  0
LINE
  5
1D6
  8
0
 62
     7
 10
42.855200000000004
 20
114.081
 30
0.0
 11
42.712899999999991
 21
114.15300000000001
 31
0.0
  0
LINE
  5
1D7
  8
0
 62
     7
 10
42.712899999999991
 20
114.15300000000001
 30
0.0
 11
42.588200000000001
 21
114.224
 31
0.0
  0
LINE
  5
1D8
  8
0
 62
     7
 10
42.588200000000001
 20
114.224
 30
0.0
 11
42.445900000000002
 21
114.295
 31
0.0
  0
LINE
  5
1D9
  8
0
 62
     7
 10
42.445900000000002
 20
114.295
 30
0.0
 11
42.321199999999997
 21
114.383
 31
0.0
  0
LINE
  5
1DA
  8
0
 62
     7
 10
42.321199999999997
 20
114.383
 30
0.0
 11
42.196800000000003
 21
114.473
 31
0.0
  0
LINE
  5
1DB
  8
0
 62
     7
 10
42.196800000000003
 20
114.473
 30
0.0
 11
42.072099999999992
 21
114.58
 31
0.0
  0
LINE
  5
1DC
  8
0
 62
     7
 10
42.072099999999992
 20
114.58
 30
0.0
 11
41.858499999999999
 21
114.77500000000001
 31
0.0
  0
LINE
  5
1DD
  8
0
 62
     7
 10
41.858499999999999
 20
114.77500000000001
 30
0.0
 11
41.66279999999999
 21
115.00700000000001
 31
0.0
  0
LINE
  5
1DE
  8
0
 62
     7
 10
41.66279999999999
 20
115.00700000000001
 30
0.0
 11
41.502299999999991
 21
115.238
 31
0.0
  0
LINE
  5
1DF
  8
0
 62
     7
 10
41.502299999999991
 20
115.238
 30
0.0
 11
41.359999999999999
 21
115.48699999999999
 31
0.0
  0
LINE
  5
1E0
  8
0
 62
     7
 10
41.359999999999999
 20
115.48699999999999
 30
0.0
 11
41.2532
 21
115.755
 31
0.0
  0
LINE
  5
1E1
  8
0
 62
     7
 10
41.2532
 20
115.755
 30
0.0
 11
41.164299999999997
 21
116.003
 31
0.0
  0
LINE
  5
1E2
  8
0
 62
     7
 10
41.164299999999997
 20
116.003
 30
0.0
 11
41.110899999999987
 21
116.271
 31
0.0
  0
LINE
  5
1E3
  8
0
 62
     7
 10
41.110899999999987
 20
116.271
 30
0.0
 11
41.093000000000004
 21
116.53700000000001
 31
0.0
  0
LINE
  5
1E4
  8
0
 62
     7
 10
52.9649
 20
127.59
 30
0.0
 11
52.822299999999998
 21
127.59
 31
0.0
  0
LINE
  5
1E5
  8
0
 62
     7
 10
52.822299999999998
 20
127.59
 30
0.0
 11
52.697899999999997
 21
127.608
 31
0.0
  0
LINE
  5
1E6
  8
0
 62
     7
 10
52.697899999999997
 20
127.608
 30
0.0
 11
52.59109999999999
 21
127.608
 31
0.0
  0
LINE
  5
1E7
  8
0
 62
     7
 10
52.59109999999999
 20
127.608
 30
0.0
 11
52.448799999999999
 21
127.626
 31
0.0
  0
LINE
  5
1E8
  8
0
 62
     7
 10
52.448799999999999
 20
127.626
 30
0.0
 11
52.341999999999999
 21
127.64400000000001
 31
0.0
  0
LINE
  5
1E9
  8
0
 62
     7
 10
52.341999999999999
 20
127.64400000000001
 30
0.0
 11
52.217300000000002
 21
127.679
 31
0.0
  0
LINE
  5
1EA
  8
0
 62
     7
 10
52.217300000000002
 20
127.679
 30
0.0
 11
52.128399999999992
 21
127.697
 31
0.0
  0
LINE
  5
1EB
  8
0
 62
     7
 10
52.128399999999992
 20
127.697
 30
0.0
 11
52.021599999999999
 21
127.733
 31
0.0
  0
LINE
  5
1EC
  8
0
 62
     7
 10
52.021599999999999
 20
127.733
 30
0.0
 11
51.932400000000001
 21
127.768
 31
0.0
  0
LINE
  5
1ED
  8
0
 62
     7
 10
51.932400000000001
 20
127.768
 30
0.0
 11
51.861400000000003
 21
127.804
 31
0.0
  0
LINE
  5
1EE
  8
0
 62
     7
 10
51.861400000000003
 20
127.804
 30
0.0
 11
51.790100000000002
 21
127.84
 31
0.0
  0
LINE
  5
1EF
  8
0
 62
     7
 10
51.790100000000002
 20
127.84
 30
0.0
 11
51.736699999999999
 21
127.875
 31
0.0
  0
LINE
  5
1F0
  8
0
 62
     7
 10
51.736699999999999
 20
127.875
 30
0.0
 11
51.665399999999998
 21
127.964
 31
0.0
  0
LINE
  5
1F1
  8
0
 62
     7
 10
51.665399999999998
 20
127.964
 30
0.0
 11
51.629899999999999
 21
128.053
 31
0.0
  0
LINE
  5
1F2
  8
0
 62
     7
 10
52.057099999999991
 20
128.107
 30
0.0
 11
52.039200000000001
 21
128.178
 31
0.0
  0
LINE
  5
1F3
  8
0
 62
     7
 10
52.039200000000001
 20
128.178
 30
0.0
 11
52.021599999999999
 21
128.249
 31
0.0
  0
LINE
  5
1F4
  8
0
 62
     7
 10
52.021599999999999
 20
128.249
 30
0.0
 11
52.003700000000002
 21
128.30199999999999
 31
0.0
  0
LINE
  5
1F5
  8
0
 62
     7
 10
52.003700000000002
 20
128.30199999999999
 30
0.0
 11
51.98579999999999
 21
128.31999999999999
 31
0.0
  0
LINE
  5
1F6
  8
0
 62
     7
 10
51.98579999999999
 20
128.31999999999999
 30
0.0
 11
51.950299999999999
 21
128.35599999999999
 31
0.0
  0
LINE
  5
1F7
  8
0
 62
     7
 10
51.950299999999999
 20
128.35599999999999
 30
0.0
 11
51.932400000000001
 21
128.39099999999999
 31
0.0
  0
LINE
  5
1F8
  8
0
 62
     7
 10
51.932400000000001
 20
128.39099999999999
 30
0.0
 11
51.896900000000002
 21
128.40899999999999
 31
0.0
  0
LINE
  5
1F9
  8
0
 62
     7
 10
51.896900000000002
 20
128.40899999999999
 30
0.0
 11
51.861400000000003
 21
128.42699999999999
 31
0.0
  0
LINE
  5
1FA
  8
0
 62
     7
 10
51.861400000000003
 20
128.42699999999999
 30
0.0
 11
51.825600000000001
 21
128.44499999999999
 31
0.0
  0
LINE
  5
1FB
  8
0
 62
     7
 10
51.825600000000001
 20
128.44499999999999
 30
0.0
 11
51.790100000000002
 21
128.46199999999999
 31
0.0
  0
LINE
  5
1FC
  8
0
 62
     7
 10
51.790100000000002
 20
128.46199999999999
 30
0.0
 11
51.754600000000011
 21
128.47999999999999
 31
0.0
  0
LINE
  5
1FD
  8
0
 62
     7
 10
51.754600000000011
 20
128.47999999999999
 30
0.0
 11
51.719099999999997
 21
128.49799999999999
 31
0.0
  0
LINE
  5
1FE
  8
0
 62
     7
 10
51.719099999999997
 20
128.49799999999999
 30
0.0
 11
51.665399999999998
 21
128.49799999999999
 31
0.0
  0
LINE
  5
1FF
  8
0
 62
     7
 10
51.665399999999998
 20
128.49799999999999
 30
0.0
 11
51.629899999999999
 21
128.49799999999999
 31
0.0
  0
LINE
  5
200
  8
0
 62
     7
 10
51.719099999999997
 20
128.107
 30
0.0
 11
51.719099999999997
 21
128.124
 31
0.0
  0
LINE
  5
201
  8
0
 62
     7
 10
51.719099999999997
 20
128.124
 30
0.0
 11
51.7012
 21
128.142
 31
0.0
  0
LINE
  5
202
  8
0
 62
     7
 10
51.7012
 20
128.142
 30
0.0
 11
51.7012
 21
128.16
 31
0.0
  0
LINE
  5
203
  8
0
 62
     7
 10
51.7012
 20
128.16
 30
0.0
 11
51.683300000000003
 21
128.16
 31
0.0
  0
LINE
  5
204
  8
0
 62
     7
 10
51.683300000000003
 20
128.16
 30
0.0
 11
51.665399999999998
 21
128.178
 31
0.0
  0
LINE
  5
205
  8
0
 62
     7
 10
51.665399999999998
 20
128.178
 30
0.0
 11
51.647799999999997
 21
128.178
 31
0.0
  0
LINE
  5
206
  8
0
 62
     7
 10
51.647799999999997
 20
128.178
 30
0.0
 11
51.629899999999999
 21
128.178
 31
0.0
  0
LINE
  5
207
  8
0
 62
     7
 10
52.057099999999991
 20
129.37
 30
0.0
 11
52.039200000000001
 21
129.459
 31
0.0
  0
LINE
  5
208
  8
0
 62
     7
 10
52.039200000000001
 20
129.459
 30
0.0
 11
52.021599999999999
 21
129.53
 31
0.0
  0
LINE
  5
209
  8
0
 62
     7
 10
52.021599999999999
 20
129.53
 30
0.0
 11
51.98579999999999
 21
129.602
 31
0.0
  0
LINE
  5
20A
  8
0
 62
     7
 10
51.98579999999999
 20
129.602
 30
0.0
 11
51.932400000000001
 21
129.655
 31
0.0
  0
LINE
  5
20B
  8
0
 62
     7
 10
51.932400000000001
 20
129.655
 30
0.0
 11
51.896900000000002
 21
129.691
 31
0.0
  0
LINE
  5
20C
  8
0
 62
     7
 10
51.896900000000002
 20
129.691
 30
0.0
 11
51.861400000000003
 21
129.708
 31
0.0
  0
LINE
  5
20D
  8
0
 62
     7
 10
51.861400000000003
 20
129.708
 30
0.0
 11
51.825600000000001
 21
129.744
 31
0.0
  0
LINE
  5
20E
  8
0
 62
     7
 10
51.825600000000001
 20
129.744
 30
0.0
 11
51.790100000000002
 21
129.744
 31
0.0
  0
LINE
  5
20F
  8
0
 62
     7
 10
51.790100000000002
 20
129.744
 30
0.0
 11
51.719099999999997
 21
129.779
 31
0.0
  0
LINE
  5
210
  8
0
 62
     7
 10
51.719099999999997
 20
129.779
 30
0.0
 11
51.629899999999999
 21
129.779
 31
0.0
  0
LINE
  5
211
  8
0
 62
     7
 10
41.093000000000004
 20
129.42400000000001
 30
0.0
 11
41.128799999999991
 21
129.495
 31
0.0
  0
LINE
  5
212
  8
0
 62
     7
 10
41.128799999999991
 20
129.495
 30
0.0
 11
41.199800000000003
 21
129.548
 31
0.0
  0
LINE
  5
213
  8
0
 62
     7
 10
41.199800000000003
 20
129.548
 30
0.0
 11
41.3245
 21
129.619
 31
0.0
  0
LINE
  5
214
  8
0
 62
     7
 10
41.3245
 20
129.619
 30
0.0
 11
41.484699999999989
 21
129.673
 31
0.0
  0
LINE
  5
215
  8
0
 62
     7
 10
41.484699999999989
 20
129.673
 30
0.0
 11
41.698300000000003
 21
129.726
 31
0.0
  0
LINE
  5
216
  8
0
 62
     7
 10
41.698300000000003
 20
129.726
 30
0.0
 11
41.92949999999999
 21
129.762
 31
0.0
  0
LINE
  5
217
  8
0
 62
     7
 10
41.92949999999999
 20
129.762
 30
0.0
 11
42.178899999999992
 21
129.779
 31
0.0
  0
LINE
  5
218
  8
0
 62
     7
 10
42.178899999999992
 20
129.779
 30
0.0
 11
42.427999999999997
 21
129.779
 31
0.0
  0
LINE
  5
219
  8
0
 62
     7
 10
77.420400000000001
 20
129.779
 30
0.0
 11
77.687399999999997
 21
129.779
 31
0.0
  0
LINE
  5
21A
  8
0
 62
     7
 10
77.687399999999997
 20
129.779
 30
0.0
 11
77.936499999999995
 21
129.762
 31
0.0
  0
LINE
  5
21B
  8
0
 62
     7
 10
77.936499999999995
 20
129.762
 30
0.0
 11
78.168000000000006
 21
129.726
 31
0.0
  0
LINE
  5
21C
  8
0
 62
     7
 10
78.168000000000006
 20
129.726
 30
0.0
 11
78.363699999999994
 21
129.673
 31
0.0
  0
LINE
  5
21D
  8
0
 62
     7
 10
78.363699999999994
 20
129.673
 30
0.0
 11
78.541399999999996
 21
129.619
 31
0.0
  0
LINE
  5
21E
  8
0
 62
     7
 10
78.541399999999996
 20
129.619
 30
0.0
 11
78.666200000000003
 21
129.548
 31
0.0
  0
LINE
  5
21F
  8
0
 62
     7
 10
78.666200000000003
 20
129.548
 30
0.0
 11
78.737499999999997
 21
129.495
 31
0.0
  0
LINE
  5
220
  8
0
 62
     7
 10
78.737499999999997
 20
129.495
 30
0.0
 11
78.754999999999995
 21
129.42400000000001
 31
0.0
  0
LINE
  5
221
  8
0
 62
     7
 10
67.808899999999994
 20
129.37
 30
0.0
 11
67.808899999999994
 21
129.42400000000001
 31
0.0
  0
LINE
  5
222
  8
0
 62
     7
 10
67.808899999999994
 20
129.42400000000001
 30
0.0
 11
67.826800000000006
 21
129.459
 31
0.0
  0
LINE
  5
223
  8
0
 62
     7
 10
67.826800000000006
 20
129.459
 30
0.0
 11
67.826800000000006
 21
129.495
 31
0.0
  0
LINE
  5
224
  8
0
 62
     7
 10
67.826800000000006
 20
129.495
 30
0.0
 11
67.844300000000004
 21
129.53
 31
0.0
  0
LINE
  5
225
  8
0
 62
     7
 10
67.844300000000004
 20
129.53
 30
0.0
 11
67.880200000000002
 21
129.602
 31
0.0
  0
LINE
  5
226
  8
0
 62
     7
 10
67.880200000000002
 20
129.602
 30
0.0
 11
67.933599999999984
 21
129.655
 31
0.0
  0
LINE
  5
227
  8
0
 62
     7
 10
67.933599999999984
 20
129.655
 30
0.0
 11
68.004900000000006
 21
129.708
 31
0.0
  0
LINE
  5
228
  8
0
 62
     7
 10
68.004900000000006
 20
129.708
 30
0.0
 11
68.075900000000004
 21
129.744
 31
0.0
  0
LINE
  5
229
  8
0
 62
     7
 10
68.075900000000004
 20
129.744
 30
0.0
 11
68.147199999999998
 21
129.779
 31
0.0
  0
LINE
  5
22A
  8
0
 62
     7
 10
68.147199999999998
 20
129.779
 30
0.0
 11
68.236099999999993
 21
129.779
 31
0.0
  0
LINE
  5
22B
  8
0
 62
     7
 10
66.9011
 20
127.59
 30
0.0
 11
67.025800000000004
 21
127.59
 31
0.0
  0
LINE
  5
22C
  8
0
 62
     7
 10
67.025800000000004
 20
127.59
 30
0.0
 11
67.150499999999994
 21
127.608
 31
0.0
  0
LINE
  5
22D
  8
0
 62
     7
 10
67.150499999999994
 20
127.608
 30
0.0
 11
67.275199999999998
 21
127.608
 31
0.0
  0
LINE
  5
22E
  8
0
 62
     7
 10
67.275199999999998
 20
127.608
 30
0.0
 11
67.399600000000007
 21
127.626
 31
0.0
  0
LINE
  5
22F
  8
0
 62
     7
 10
67.399600000000007
 20
127.626
 30
0.0
 11
67.524299999999997
 21
127.64400000000001
 31
0.0
  0
LINE
  5
230
  8
0
 62
     7
 10
67.524299999999997
 20
127.64400000000001
 30
0.0
 11
67.631100000000004
 21
127.679
 31
0.0
  0
LINE
  5
231
  8
0
 62
     7
 10
67.631100000000004
 20
127.679
 30
0.0
 11
67.737899999999996
 21
127.697
 31
0.0
  0
LINE
  5
232
  8
0
 62
     7
 10
67.737899999999996
 20
127.697
 30
0.0
 11
67.844300000000004
 21
127.733
 31
0.0
  0
LINE
  5
233
  8
0
 62
     7
 10
67.844300000000004
 20
127.733
 30
0.0
 11
67.933599999999984
 21
127.768
 31
0.0
  0
LINE
  5
234
  8
0
 62
     7
 10
67.933599999999984
 20
127.768
 30
0.0
 11
68.004900000000006
 21
127.804
 31
0.0
  0
LINE
  5
235
  8
0
 62
     7
 10
68.004900000000006
 20
127.804
 30
0.0
 11
68.075900000000004
 21
127.84
 31
0.0
  0
LINE
  5
236
  8
0
 62
     7
 10
68.075900000000004
 20
127.84
 30
0.0
 11
68.129300000000001
 21
127.875
 31
0.0
  0
LINE
  5
237
  8
0
 62
     7
 10
68.129300000000001
 20
127.875
 30
0.0
 11
68.165099999999995
 21
127.911
 31
0.0
  0
LINE
  5
238
  8
0
 62
     7
 10
68.165099999999995
 20
127.911
 30
0.0
 11
68.200599999999994
 21
127.964
 31
0.0
  0
LINE
  5
239
  8
0
 62
     7
 10
68.200599999999994
 20
127.964
 30
0.0
 11
68.218500000000006
 21
128.0
 31
0.0
  0
LINE
  5
23A
  8
0
 62
     7
 10
68.218500000000006
 20
128.0
 30
0.0
 11
68.236099999999993
 21
128.053
 31
0.0
  0
LINE
  5
23B
  8
0
 62
     7
 10
67.808899999999994
 20
128.107
 30
0.0
 11
67.826800000000006
 21
128.178
 31
0.0
  0
LINE
  5
23C
  8
0
 62
     7
 10
67.826800000000006
 20
128.178
 30
0.0
 11
67.844300000000004
 21
128.249
 31
0.0
  0
LINE
  5
23D
  8
0
 62
     7
 10
67.844300000000004
 20
128.249
 30
0.0
 11
67.862300000000005
 21
128.28399999999999
 31
0.0
  0
LINE
  5
23E
  8
0
 62
     7
 10
67.862300000000005
 20
128.28399999999999
 30
0.0
 11
67.880200000000002
 21
128.31999999999999
 31
0.0
  0
LINE
  5
23F
  8
0
 62
     7
 10
67.880200000000002
 20
128.31999999999999
 30
0.0
 11
67.898099999999999
 21
128.35599999999999
 31
0.0
  0
LINE
  5
240
  8
0
 62
     7
 10
67.898099999999999
 20
128.35599999999999
 30
0.0
 11
67.933599999999984
 21
128.39099999999999
 31
0.0
  0
LINE
  5
241
  8
0
 62
     7
 10
67.933599999999984
 20
128.39099999999999
 30
0.0
 11
67.969099999999997
 21
128.40899999999999
 31
0.0
  0
LINE
  5
242
  8
0
 62
     7
 10
67.969099999999997
 20
128.40899999999999
 30
0.0
 11
68.004900000000006
 21
128.42699999999999
 31
0.0
  0
LINE
  5
243
  8
0
 62
     7
 10
68.004900000000006
 20
128.42699999999999
 30
0.0
 11
68.022499999999994
 21
128.44499999999999
 31
0.0
  0
LINE
  5
244
  8
0
 62
     7
 10
68.022499999999994
 20
128.44499999999999
 30
0.0
 11
68.075900000000004
 21
128.46199999999999
 31
0.0
  0
LINE
  5
245
  8
0
 62
     7
 10
68.075900000000004
 20
128.46199999999999
 30
0.0
 11
68.111699999999999
 21
128.47999999999999
 31
0.0
  0
LINE
  5
246
  8
0
 62
     7
 10
68.111699999999999
 20
128.47999999999999
 30
0.0
 11
68.147199999999998
 21
128.49799999999999
 31
0.0
  0
LINE
  5
247
  8
0
 62
     7
 10
68.147199999999998
 20
128.49799999999999
 30
0.0
 11
68.182699999999997
 21
128.49799999999999
 31
0.0
  0
LINE
  5
248
  8
0
 62
     7
 10
68.182699999999997
 20
128.49799999999999
 30
0.0
 11
68.236099999999993
 21
128.49799999999999
 31
0.0
  0
LINE
  5
249
  8
0
 62
     7
 10
68.236099999999993
 20
128.178
 30
0.0
 11
68.218500000000006
 21
128.178
 31
0.0
  0
LINE
  5
24A
  8
0
 62
     7
 10
68.218500000000006
 20
128.178
 30
0.0
 11
68.200599999999994
 21
128.178
 31
0.0
  0
LINE
  5
24B
  8
0
 62
     7
 10
68.200599999999994
 20
128.178
 30
0.0
 11
68.182699999999997
 21
128.178
 31
0.0
  0
LINE
  5
24C
  8
0
 62
     7
 10
68.182699999999997
 20
128.178
 30
0.0
 11
68.182699999999997
 21
128.16
 31
0.0
  0
LINE
  5
24D
  8
0
 62
     7
 10
68.182699999999997
 20
128.16
 30
0.0
 11
68.165099999999995
 21
128.16
 31
0.0
  0
LINE
  5
24E
  8
0
 62
     7
 10
68.165099999999995
 20
128.16
 30
0.0
 11
68.165099999999995
 21
128.142
 31
0.0
  0
LINE
  5
24F
  8
0
 62
     7
 10
68.165099999999995
 20
128.142
 30
0.0
 11
68.147199999999998
 21
128.142
 31
0.0
  0
LINE
  5
250
  8
0
 62
     7
 10
68.147199999999998
 20
128.142
 30
0.0
 11
68.147199999999998
 21
128.124
 31
0.0
  0
LINE
  5
251
  8
0
 62
     7
 10
68.147199999999998
 20
128.124
 30
0.0
 11
68.147199999999998
 21
128.107
 31
0.0
  0
LINE
  5
252
  8
0
 62
     7
 10
40.462600000000002
 20
194.465
 30
0.0
 11
41.512999999999998
 21
194.465
 31
0.0
  0
LINE
  5
253
  8
0
 62
     7
 10
41.622900000000001
 20
105.67700000000001
 30
0.0
 11
78.243099999999998
 21
105.67700000000001
 31
0.0
  0
LINE
  5
254
  8
0
 62
     7
 10
41.622900000000001
 20
103.01000000000001
 30
0.0
 11
78.243099999999998
 21
103.01000000000001
 31
0.0
  0
LINE
  5
255
  8
0
 62
     7
 10
44.439300000000003
 20
113.565
 30
0.0
 11
75.426699999999997
 21
113.565
 31
0.0
  0
LINE
  5
256
  8
0
 62
     7
 10
75.426699999999997
 20
113.72499999999999
 30
0.0
 11
44.439300000000003
 21
113.72499999999999
 31
0.0
  0
LINE
  5
257
  8
0
 62
     7
 10
51.629899999999999
 20
187.92099999999999
 30
0.0
 11
51.629899999999999
 21
190.292
 31
0.0
  0
LINE
  5
258
  8
0
 62
     7
 10
68.236099999999993
 20
128.49799999999999
 30
0.0
 11
68.236099999999993
 21
128.178
 31
0.0
  0
LINE
  5
259
  8
0
 62
     7
 10
41.093000000000004
 20
193.51400000000001
 30
0.0
 11
41.093000000000004
 21
173.2409999999999
 31
0.0
  0
LINE
  5
25A
  8
0
 62
     7
 10
78.754999999999995
 20
116.53700000000001
 30
0.0
 11
78.754999999999995
 21
128.49799999999999
 31
0.0
  0
LINE
  5
25B
  8
0
 62
     7
 10
78.754999999999995
 20
116.53700000000001
 30
0.0
 11
78.754999999999995
 21
116.342
 31
0.0
  0
LINE
  5
25C
  8
0
 62
     7
 10
51.719099999999997
 20
128.107
 30
0.0
 11
51.719099999999997
 21
127.893
 31
0.0
  0
LINE
  5
25D
  8
0
 62
     7
 10
51.629899999999999
 20
128.053
 30
0.0
 11
51.629899999999999
 21
128.178
 31
0.0
  0
LINE
  5
25E
  8
0
 62
     7
 10
51.629899999999999
 20
128.178
 30
0.0
 11
51.629899999999999
 21
128.49799999999999
 31
0.0
  0
LINE
  5
25F
  8
0
 62
     7
 10
51.719099999999997
 20
128.107
 30
0.0
 11
51.843499999999999
 21
128.107
 31
0.0
  0
LINE
  5
260
  8
0
 62
     7
 10
51.843499999999999
 20
128.107
 30
0.0
 11
52.057099999999991
 21
128.107
 31
0.0
  0
LINE
  5
261
  8
0
 62
     7
 10
52.057099999999991
 20
194.79499999999999
 30
0.0
 11
52.057099999999991
 21
190.38800000000001
 31
0.0
  0
LINE
  5
262
  8
0
 62
     7
 10
52.057099999999991
 20
129.13900000000001
 30
0.0
 11
52.057099999999991
 21
128.107
 31
0.0
  0
LINE
  5
263
  8
0
 62
     7
 10
52.057099999999991
 20
129.13900000000001
 30
0.0
 11
52.057099999999991
 21
129.37
 31
0.0
  0
LINE
  5
264
  8
0
 62
     7
 10
52.057099999999991
 20
127.715
 30
0.0
 11
52.057099999999991
 21
128.107
 31
0.0
  0
LINE
  5
265
  8
0
 62
     7
 10
41.093000000000004
 20
128.49799999999999
 30
0.0
 11
41.093000000000004
 21
116.53700000000001
 31
0.0
  0
LINE
  5
266
  8
0
 62
     7
 10
42.427999999999997
 20
129.779
 30
0.0
 11
51.629899999999999
 21
129.779
 31
0.0
  0
LINE
  5
267
  8
0
 62
     7
 10
41.093000000000004
 20
128.49799999999999
 30
0.0
 11
41.093000000000004
 21
129.42400000000001
 31
0.0
  0
LINE
  5
268
  8
0
 62
     7
 10
41.093000000000004
 20
116.53700000000001
 30
0.0
 11
41.093000000000004
 21
116.342
 31
0.0
  0
LINE
  5
269
  8
0
 62
     7
 10
78.754999999999995
 20
129.42400000000001
 30
0.0
 11
78.754999999999995
 21
128.49799999999999
 31
0.0
  0
LINE
  5
26A
  8
0
 62
     7
 10
68.236099999999993
 20
129.779
 30
0.0
 11
77.420400000000001
 21
129.779
 31
0.0
  0
LINE
  5
26B
  8
0
 62
     7
 10
66.9011
 20
127.59
 30
0.0
 11
52.9649
 21
127.59
 31
0.0
  0
LINE
  5
26C
  8
0
 62
     7
 10
68.147199999999998
 20
128.107
 30
0.0
 11
68.147199999999998
 21
127.893
 31
0.0
  0
LINE
  5
26D
  8
0
 62
     7
 10
68.236099999999993
 20
128.053
 30
0.0
 11
68.236099999999993
 21
128.178
 31
0.0
  0
LINE
  5
26E
  8
0
 62
     7
 10
67.808899999999994
 20
128.107
 30
0.0
 11
68.004900000000006
 21
128.107
 31
0.0
  0
LINE
  5
26F
  8
0
 62
     7
 10
68.004900000000006
 20
128.107
 30
0.0
 11
68.147199999999998
 21
128.107
 31
0.0
  0
LINE
  5
270
  8
0
 62
     7
 10
67.808899999999994
 20
129.13900000000001
 30
0.0
 11
67.808899999999994
 21
128.107
 31
0.0
  0
LINE
  5
271
  8
0
 62
     7
 10
67.808899999999994
 20
128.107
 30
0.0
 11
67.808899999999994
 21
127.715
 31
0.0
  0
LINE
  5
272
  8
0
 62
     7
 10
67.808899999999994
 20
129.13900000000001
 30
0.0
 11
67.808899999999994
 21
129.37
 31
0.0
  0
LINE
  5
273
  8
0
 62
     7
 10
67.4709
 20
127.64400000000001
 30
0.0
 11
67.4709
 21
129.13900000000001
 31
0.0
  0
LINE
  5
274
  8
0
 62
     7
 10
67.808899999999994
 20
129.13900000000001
 30
0.0
 11
67.808899999999994
 21
128.107
 31
0.0
  0
LINE
  5
275
  8
0
 62
     7
 10
67.808899999999994
 20
128.107
 30
0.0
 11
67.808899999999994
 21
127.715
 31
0.0
  0
LINE
  5
276
  8
0
 62
     7
 10
67.808899999999994
 20
129.13900000000001
 30
0.0
 11
67.4709
 21
129.13900000000001
 31
0.0
  0
LINE
  5
277
  8
0
 62
     7
 10
82.599800000000002
 20
110.34399999999999
 30
0.0
 11
82.581900000000005
 21
110.379
 31
0.0
  0
LINE
  5
278
  8
0
 62
     7
 10
82.581900000000005
 20
110.379
 30
0.0
 11
82.546400000000006
 21
110.43300000000001
 31
0.0
  0
LINE
  5
279
  8
0
 62
     7
 10
82.546400000000006
 20
110.43300000000001
 30
0.0
 11
82.439599999999984
 21
110.504
 31
0.0
  0
LINE
  5
27A
  8
0
 62
     7
 10
82.439599999999984
 20
110.504
 30
0.0
 11
82.261499999999998
 21
110.574
 31
0.0
  0
LINE
  5
27B
  8
0
 62
     7
 10
82.261499999999998
 20
110.574
 30
0.0
 11
82.065799999999996
 21
110.61
 31
0.0
  0
LINE
  5
27C
  8
0
 62
     7
 10
82.065799999999996
 20
110.61
 30
0.0
 11
81.816399999999987
 21
110.664
 31
0.0
  0
LINE
  5
27D
  8
0
 62
     7
 10
81.816399999999987
 20
110.664
 30
0.0
 11
81.549700000000001
 21
110.681
 31
0.0
  0
LINE
  5
27E
  8
0
 62
     7
 10
81.549700000000001
 20
110.681
 30
0.0
 11
81.264799999999994
 21
110.699
 31
0.0
  0
LINE
  5
27F
  8
0
 62
     7
 10
81.264799999999994
 20
110.699
 30
0.0
 11
80.979900000000015
 21
110.681
 31
0.0
  0
LINE
  5
280
  8
0
 62
     7
 10
80.979900000000015
 20
110.681
 30
0.0
 11
80.695300000000003
 21
110.664
 31
0.0
  0
LINE
  5
281
  8
0
 62
     7
 10
80.695300000000003
 20
110.664
 30
0.0
 11
80.463800000000006
 21
110.61
 31
0.0
  0
LINE
  5
282
  8
0
 62
     7
 10
80.463800000000006
 20
110.61
 30
0.0
 11
80.250200000000007
 21
110.574
 31
0.0
  0
LINE
  5
283
  8
0
 62
     7
 10
80.250200000000007
 20
110.574
 30
0.0
 11
80.090000000000003
 21
110.504
 31
0.0
  0
LINE
  5
284
  8
0
 62
     7
 10
80.090000000000003
 20
110.504
 30
0.0
 11
79.983199999999997
 21
110.43300000000001
 31
0.0
  0
LINE
  5
285
  8
0
 62
     7
 10
82.439599999999984
 20
110.521
 30
0.0
 11
82.314899999999994
 21
110.592
 31
0.0
  0
LINE
  5
286
  8
0
 62
     7
 10
82.314899999999994
 20
110.592
 30
0.0
 11
82.119200000000006
 21
110.664
 31
0.0
  0
LINE
  5
287
  8
0
 62
     7
 10
82.119200000000006
 20
110.664
 30
0.0
 11
81.870099999999994
 21
110.717
 31
0.0
  0
LINE
  5
288
  8
0
 62
     7
 10
81.870099999999994
 20
110.717
 30
0.0
 11
81.567300000000003
 21
110.753
 31
0.0
  0
LINE
  5
289
  8
0
 62
     7
 10
81.567300000000003
 20
110.753
 30
0.0
 11
81.264799999999994
 21
110.753
 31
0.0
  0
LINE
  5
28A
  8
0
 62
     7
 10
81.264799999999994
 20
110.753
 30
0.0
 11
80.944400000000002
 21
110.753
 31
0.0
  0
LINE
  5
28B
  8
0
 62
     7
 10
80.944400000000002
 20
110.753
 30
0.0
 11
80.641900000000007
 21
110.717
 31
0.0
  0
LINE
  5
28C
  8
0
 62
     7
 10
80.641900000000007
 20
110.717
 30
0.0
 11
80.392499999999998
 21
110.664
 31
0.0
  0
LINE
  5
28D
  8
0
 62
     7
 10
80.392499999999998
 20
110.664
 30
0.0
 11
80.196799999999996
 21
110.592
 31
0.0
  0
LINE
  5
28E
  8
0
 62
     7
 10
80.196799999999996
 20
110.592
 30
0.0
 11
80.072400000000016
 21
110.521
 31
0.0
  0
LINE
  5
28F
  8
0
 62
     7
 10
79.983199999999997
 20
110.43300000000001
 30
0.0
 11
79.947699999999983
 21
110.379
 31
0.0
  0
LINE
  5
290
  8
0
 62
     7
 10
79.947699999999983
 20
110.379
 30
0.0
 11
79.9298
 21
110.34399999999999
 31
0.0
  0
LINE
  5
291
  8
0
 62
     7
 10
37.266199999999998
 20
124.244
 30
0.0
 11
37.266199999999998
 21
124.458
 31
0.0
  0
LINE
  5
292
  8
0
 62
     7
 10
37.266199999999998
 20
124.458
 30
0.0
 11
37.284100000000002
 21
124.654
 31
0.0
  0
LINE
  5
293
  8
0
 62
     7
 10
37.284100000000002
 20
124.654
 30
0.0
 11
37.319600000000001
 21
124.84999999999999
 31
0.0
  0
LINE
  5
294
  8
0
 62
     7
 10
37.319600000000001
 20
124.84999999999999
 30
0.0
 11
37.355400000000003
 21
125.063
 31
0.0
  0
LINE
  5
295
  8
0
 62
     7
 10
37.355400000000003
 20
125.063
 30
0.0
 11
37.444299999999998
 21
125.455
 31
0.0
  0
LINE
  5
296
  8
0
 62
     7
 10
37.444299999999998
 20
125.455
 30
0.0
 11
37.586599999999997
 21
125.846
 31
0.0
  0
LINE
  5
297
  8
0
 62
     7
 10
37.586599999999997
 20
125.846
 30
0.0
 11
37.764699999999998
 21
126.22
 31
0.0
  0
LINE
  5
298
  8
0
 62
     7
 10
37.764699999999998
 20
126.22
 30
0.0
 11
37.978299999999997
 21
126.57599999999999
 31
0.0
  0
LINE
  5
299
  8
0
 62
     7
 10
37.978299999999997
 20
126.57599999999999
 30
0.0
 11
38.103000000000002
 21
126.736
 31
0.0
  0
LINE
  5
29A
  8
0
 62
     7
 10
38.103000000000002
 20
126.736
 30
0.0
 11
38.22740000000001
 21
126.896
 31
0.0
  0
LINE
  5
29B
  8
0
 62
     7
 10
38.22740000000001
 20
126.896
 30
0.0
 11
38.369999999999997
 21
127.056
 31
0.0
  0
LINE
  5
29C
  8
0
 62
     7
 10
38.369999999999997
 20
127.056
 30
0.0
 11
38.51230000000001
 21
127.21599999999999
 31
0.0
  0
LINE
  5
29D
  8
0
 62
     7
 10
38.51230000000001
 20
127.21599999999999
 30
0.0
 11
38.672499999999999
 21
127.35899999999999
 31
0.0
  0
LINE
  5
29E
  8
0
 62
     7
 10
38.672499999999999
 20
127.35899999999999
 30
0.0
 11
38.832700000000003
 21
127.483
 31
0.0
  0
LINE
  5
29F
  8
0
 62
     7
 10
38.832700000000003
 20
127.483
 30
0.0
 11
39.010800000000003
 21
127.626
 31
0.0
  0
LINE
  5
2A0
  8
0
 62
     7
 10
39.010800000000003
 20
127.626
 30
0.0
 11
39.170999999999999
 21
127.733
 31
0.0
  0
LINE
  5
2A1
  8
0
 62
     7
 10
39.170999999999999
 20
127.733
 30
0.0
 11
39.544400000000003
 21
127.964
 31
0.0
  0
LINE
  5
2A2
  8
0
 62
     7
 10
39.544400000000003
 20
127.964
 30
0.0
 11
39.918199999999999
 21
128.142
 31
0.0
  0
LINE
  5
2A3
  8
0
 62
     7
 10
39.918199999999999
 20
128.142
 30
0.0
 11
40.131799999999998
 21
128.21299999999999
 31
0.0
  0
LINE
  5
2A4
  8
0
 62
     7
 10
40.131799999999998
 20
128.21299999999999
 30
0.0
 11
40.3279
 21
128.28399999999999
 31
0.0
  0
LINE
  5
2A5
  8
0
 62
     7
 10
40.3279
 20
128.28399999999999
 30
0.0
 11
40.523499999999991
 21
128.33799999999999
 31
0.0
  0
LINE
  5
2A6
  8
0
 62
     7
 10
40.523499999999991
 20
128.33799999999999
 30
0.0
 11
40.737099999999998
 21
128.39099999999999
 31
0.0
  0
LINE
  5
2A7
  8
0
 62
     7
 10
40.737099999999998
 20
128.39099999999999
 30
0.0
 11
40.9328
 21
128.40899999999999
 31
0.0
  0
LINE
  5
2A8
  8
0
 62
     7
 10
40.9328
 20
128.40899999999999
 30
0.0
 11
41.093000000000004
 21
128.44499999999999
 31
0.0
  0
LINE
  5
2A9
  8
0
 62
     7
 10
41.093000000000004
 20
125.72199999999999
 30
0.0
 11
41.021999999999991
 21
125.70399999999999
 31
0.0
  0
LINE
  5
2AA
  8
0
 62
     7
 10
41.021999999999991
 20
125.70399999999999
 30
0.0
 11
40.9328
 21
125.66800000000001
 31
0.0
  0
LINE
  5
2AB
  8
0
 62
     7
 10
40.9328
 20
125.66800000000001
 30
0.0
 11
40.6479
 21
125.526
 31
0.0
  0
LINE
  5
2AC
  8
0
 62
     7
 10
40.6479
 20
125.526
 30
0.0
 11
40.398800000000001
 21
125.312
 31
0.0
  0
LINE
  5
2AD
  8
0
 62
     7
 10
40.398800000000001
 20
125.312
 30
0.0
 11
40.292000000000002
 21
125.206
 31
0.0
  0
LINE
  5
2AE
  8
0
 62
     7
 10
40.292000000000002
 20
125.206
 30
0.0
 11
40.185200000000002
 21
125.081
 31
0.0
  0
LINE
  5
2AF
  8
0
 62
     7
 10
40.185200000000002
 20
125.081
 30
0.0
 11
40.114299999999993
 21
124.956
 31
0.0
  0
LINE
  5
2B0
  8
0
 62
     7
 10
40.114299999999993
 20
124.956
 30
0.0
 11
40.042900000000003
 21
124.81399999999999
 31
0.0
  0
LINE
  5
2B1
  8
0
 62
     7
 10
40.042900000000003
 20
124.81399999999999
 30
0.0
 11
39.9895
 21
124.654
 31
0.0
  0
LINE
  5
2B2
  8
0
 62
     7
 10
39.9895
 20
124.654
 30
0.0
 11
39.972000000000001
 21
124.529
 31
0.0
  0
LINE
  5
2B3
  8
0
 62
     7
 10
39.972000000000001
 20
124.529
 30
0.0
 11
39.936100000000003
 21
124.369
 31
0.0
  0
LINE
  5
2B4
  8
0
 62
     7
 10
39.936100000000003
 20
124.369
 30
0.0
 11
39.936100000000003
 21
124.244
 31
0.0
  0
LINE
  5
2B5
  8
0
 62
     7
 10
82.439599999999984
 20
110.521
 30
0.0
 11
82.546400000000006
 21
110.43300000000001
 31
0.0
  0
LINE
  5
2B6
  8
0
 62
     7
 10
79.983199999999997
 20
110.43300000000001
 30
0.0
 11
80.072400000000016
 21
110.521
 31
0.0
  0
LINE
  5
2B7
  8
0
 62
     7
 10
79.9298
 20
107.22799999999999
 30
0.0
 11
79.9298
 21
110.34399999999999
 31
0.0
  0
LINE
  5
2B8
  8
0
 62
     7
 10
82.599800000000002
 20
110.34399999999999
 30
0.0
 11
82.599800000000002
 21
107.22799999999999
 31
0.0
  0
LINE
  5
2B9
  8
0
 62
     7
 10
52.377499999999998
 20
128.46199999999999
 30
0.0
 11
52.4664
 21
128.46199999999999
 31
0.0
  0
LINE
  5
2BA
  8
0
 62
     7
 10
39.936100000000003
 20
107.22799999999999
 30
0.0
 11
39.936100000000003
 21
124.244
 31
0.0
  0
LINE
  5
2BB
  8
0
 62
     7
 10
37.266199999999998
 20
124.244
 30
0.0
 11
37.266199999999998
 21
107.22799999999999
 31
0.0
  0
LINE
  5
2BC
  8
0
 62
     7
 10
67.4709
 20
128.46199999999999
 30
0.0
 11
67.399600000000007
 21
128.46199999999999
 31
0.0
  0
LINE
  5
2BD
  8
0
 62
     7
 10
52.4664
 20
128.51599999999999
 30
0.0
 11
52.4664
 21
128.49799999999999
 31
0.0
  0
LINE
  5
2BE
  8
0
 62
     7
 10
52.4664
 20
128.49799999999999
 30
0.0
 11
52.4664
 21
128.47999999999999
 31
0.0
  0
LINE
  5
2BF
  8
0
 62
     7
 10
52.4664
 20
128.47999999999999
 30
0.0
 11
52.4664
 21
128.46199999999999
 31
0.0
  0
LINE
  5
2C0
  8
0
 62
     7
 10
67.399600000000007
 20
128.23099999999999
 30
0.0
 11
67.399600000000007
 21
128.35599999999999
 31
0.0
  0
LINE
  5
2C1
  8
0
 62
     7
 10
67.399600000000007
 20
128.35599999999999
 30
0.0
 11
67.399600000000007
 21
128.44499999999999
 31
0.0
  0
LINE
  5
2C2
  8
0
 62
     7
 10
67.399600000000007
 20
128.44499999999999
 30
0.0
 11
67.399600000000007
 21
128.47999999999999
 31
0.0
  0
LINE
  5
2C3
  8
0
 62
     7
 10
67.399600000000007
 20
128.47999999999999
 30
0.0
 11
67.399600000000007
 21
128.49799999999999
 31
0.0
  0
LINE
  5
2C4
  8
0
 62
     7
 10
67.399600000000007
 20
128.49799999999999
 30
0.0
 11
67.399600000000007
 21
128.51599999999999
 31
0.0
  0
LINE
  5
2C5
  8
0
 62
     7
 10
67.399600000000007
 20
128.23099999999999
 30
0.0
 11
67.399600000000007
 21
128.124
 31
0.0
  0
LINE
  5
2C6
  8
0
 62
     7
 10
67.399600000000007
 20
128.124
 30
0.0
 11
67.382000000000005
 21
128.017
 31
0.0
  0
LINE
  5
2C7
  8
0
 62
     7
 10
67.382000000000005
 20
128.017
 30
0.0
 11
67.382000000000005
 21
127.893
 31
0.0
  0
LINE
  5
2C8
  8
0
 62
     7
 10
67.382000000000005
 20
127.893
 30
0.0
 11
67.382000000000005
 21
127.75
 31
0.0
  0
LINE
  5
2C9
  8
0
 62
     7
 10
67.382000000000005
 20
127.75
 30
0.0
 11
67.364099999999993
 21
127.679
 31
0.0
  0
LINE
  5
2CA
  8
0
 62
     7
 10
67.364099999999993
 20
127.679
 30
0.0
 11
67.364099999999993
 21
127.626
 31
0.0
  0
LINE
  5
2CB
  8
0
 62
     7
 10
52.982500000000002
 20
130.7579999999999
 30
0.0
 11
52.929099999999998
 21
130.7579999999999
 31
0.0
  0
LINE
  5
2CC
  8
0
 62
     7
 10
52.929099999999998
 20
130.7579999999999
 30
0.0
 11
52.893599999999999
 21
130.7579999999999
 31
0.0
  0
LINE
  5
2CD
  8
0
 62
     7
 10
52.893599999999999
 20
130.7579999999999
 30
0.0
 11
52.840200000000003
 21
130.74100000000001
 31
0.0
  0
LINE
  5
2CE
  8
0
 62
     7
 10
52.840200000000003
 20
130.74100000000001
 30
0.0
 11
52.804699999999997
 21
130.72300000000001
 31
0.0
  0
LINE
  5
2CF
  8
0
 62
     7
 10
52.804699999999997
 20
130.72300000000001
 30
0.0
 11
52.769199999999998
 21
130.70500000000001
 31
0.0
  0
LINE
  5
2D0
  8
0
 62
     7
 10
52.769199999999998
 20
130.70500000000001
 30
0.0
 11
52.715499999999999
 21
130.68700000000001
 31
0.0
  0
LINE
  5
2D1
  8
0
 62
     7
 10
52.715499999999999
 20
130.68700000000001
 30
0.0
 11
52.68
 21
130.66999999999999
 31
0.0
  0
LINE
  5
2D2
  8
0
 62
     7
 10
52.68
 20
130.66999999999999
 30
0.0
 11
52.644500000000001
 21
130.63399999999999
 31
0.0
  0
LINE
  5
2D3
  8
0
 62
     7
 10
52.644500000000001
 20
130.63399999999999
 30
0.0
 11
52.608999999999988
 21
130.59800000000001
 31
0.0
  0
LINE
  5
2D4
  8
0
 62
     7
 10
52.608999999999988
 20
130.59800000000001
 30
0.0
 11
52.59109999999999
 21
130.56299999999999
 31
0.0
  0
LINE
  5
2D5
  8
0
 62
     7
 10
52.59109999999999
 20
130.56299999999999
 30
0.0
 11
52.555599999999998
 21
130.52699999999999
 31
0.0
  0
LINE
  5
2D6
  8
0
 62
     7
 10
52.555599999999998
 20
130.52699999999999
 30
0.0
 11
52.537700000000001
 21
130.49199999999999
 31
0.0
  0
LINE
  5
2D7
  8
0
 62
     7
 10
52.537700000000001
 20
130.49199999999999
 30
0.0
 11
52.519799999999989
 21
130.43799999999999
 31
0.0
  0
LINE
  5
2D8
  8
0
 62
     7
 10
52.519799999999989
 20
130.43799999999999
 30
0.0
 11
52.502200000000002
 21
130.40299999999999
 31
0.0
  0
LINE
  5
2D9
  8
0
 62
     7
 10
52.502200000000002
 20
130.40299999999999
 30
0.0
 11
52.502200000000002
 21
130.34899999999999
 31
0.0
  0
LINE
  5
2DA
  8
0
 62
     7
 10
52.502200000000002
 20
130.34899999999999
 30
0.0
 11
52.48429999999999
 21
130.31299999999999
 31
0.0
  0
LINE
  5
2DB
  8
0
 62
     7
 10
52.4664
 20
128.23099999999999
 30
0.0
 11
52.4664
 21
128.124
 31
0.0
  0
LINE
  5
2DC
  8
0
 62
     7
 10
52.4664
 20
128.124
 30
0.0
 11
52.4664
 21
128.017
 31
0.0
  0
LINE
  5
2DD
  8
0
 62
     7
 10
52.4664
 20
128.017
 30
0.0
 11
52.48429999999999
 21
127.893
 31
0.0
  0
LINE
  5
2DE
  8
0
 62
     7
 10
52.48429999999999
 20
127.893
 30
0.0
 11
52.48429999999999
 21
127.75
 31
0.0
  0
LINE
  5
2DF
  8
0
 62
     7
 10
52.48429999999999
 20
127.75
 30
0.0
 11
52.48429999999999
 21
127.679
 31
0.0
  0
LINE
  5
2E0
  8
0
 62
     7
 10
52.48429999999999
 20
127.679
 30
0.0
 11
52.48429999999999
 21
127.626
 31
0.0
  0
LINE
  5
2E1
  8
0
 62
     7
 10
52.4664
 20
128.23099999999999
 30
0.0
 11
52.4664
 21
128.35599999999999
 31
0.0
  0
LINE
  5
2E2
  8
0
 62
     7
 10
52.4664
 20
128.35599999999999
 30
0.0
 11
52.4664
 21
128.44499999999999
 31
0.0
  0
LINE
  5
2E3
  8
0
 62
     7
 10
52.4664
 20
128.44499999999999
 30
0.0
 11
52.4664
 21
128.47999999999999
 31
0.0
  0
LINE
  5
2E4
  8
0
 62
     7
 10
52.4664
 20
128.47999999999999
 30
0.0
 11
52.4664
 21
128.49799999999999
 31
0.0
  0
LINE
  5
2E5
  8
0
 62
     7
 10
52.4664
 20
128.49799999999999
 30
0.0
 11
52.4664
 21
128.51599999999999
 31
0.0
  0
LINE
  5
2E6
  8
0
 62
     7
 10
66.883499999999984
 20
130.7579999999999
 30
0.0
 11
66.918999999999997
 21
130.7579999999999
 31
0.0
  0
LINE
  5
2E7
  8
0
 62
     7
 10
66.918999999999997
 20
130.7579999999999
 30
0.0
 11
66.972399999999993
 21
130.7579999999999
 31
0.0
  0
LINE
  5
2E8
  8
0
 62
     7
 10
66.972399999999993
 20
130.7579999999999
 30
0.0
 11
67.007900000000006
 21
130.74100000000001
 31
0.0
  0
LINE
  5
2E9
  8
0
 62
     7
 10
67.007900000000006
 20
130.74100000000001
 30
0.0
 11
67.061300000000003
 21
130.72300000000001
 31
0.0
  0
LINE
  5
2EA
  8
0
 62
     7
 10
67.061300000000003
 20
130.72300000000001
 30
0.0
 11
67.097099999999998
 21
130.70500000000001
 31
0.0
  0
LINE
  5
2EB
  8
0
 62
     7
 10
67.097099999999998
 20
130.70500000000001
 30
0.0
 11
67.132599999999996
 21
130.68700000000001
 31
0.0
  0
LINE
  5
2EC
  8
0
 62
     7
 10
67.132599999999996
 20
130.68700000000001
 30
0.0
 11
67.168099999999995
 21
130.66999999999999
 31
0.0
  0
LINE
  5
2ED
  8
0
 62
     7
 10
67.168099999999995
 20
130.66999999999999
 30
0.0
 11
67.203900000000004
 21
130.63399999999999
 31
0.0
  0
LINE
  5
2EE
  8
0
 62
     7
 10
67.203900000000004
 20
130.63399999999999
 30
0.0
 11
67.239400000000003
 21
130.59800000000001
 31
0.0
  0
LINE
  5
2EF
  8
0
 62
     7
 10
67.239400000000003
 20
130.59800000000001
 30
0.0
 11
67.275199999999998
 21
130.56299999999999
 31
0.0
  0
LINE
  5
2F0
  8
0
 62
     7
 10
67.275199999999998
 20
130.56299999999999
 30
0.0
 11
67.2928
 21
130.52699999999999
 31
0.0
  0
LINE
  5
2F1
  8
0
 62
     7
 10
67.2928
 20
130.52699999999999
 30
0.0
 11
67.328299999999984
 21
130.49199999999999
 31
0.0
  0
LINE
  5
2F2
  8
0
 62
     7
 10
67.328299999999984
 20
130.49199999999999
 30
0.0
 11
67.346199999999996
 21
130.43799999999999
 31
0.0
  0
LINE
  5
2F3
  8
0
 62
     7
 10
67.346199999999996
 20
130.43799999999999
 30
0.0
 11
67.346199999999996
 21
130.40299999999999
 31
0.0
  0
LINE
  5
2F4
  8
0
 62
     7
 10
67.346199999999996
 20
130.40299999999999
 30
0.0
 11
67.364099999999993
 21
130.34899999999999
 31
0.0
  0
LINE
  5
2F5
  8
0
 62
     7
 10
67.364099999999993
 20
130.34899999999999
 30
0.0
 11
67.364099999999993
 21
130.31299999999999
 31
0.0
  0
LINE
  5
2F6
  8
0
 62
     7
 10
67.399600000000007
 20
128.51599999999999
 30
0.0
 11
67.399600000000007
 21
128.49799999999999
 31
0.0
  0
LINE
  5
2F7
  8
0
 62
     7
 10
67.399600000000007
 20
128.49799999999999
 30
0.0
 11
67.399600000000007
 21
128.47999999999999
 31
0.0
  0
LINE
  5
2F8
  8
0
 62
     7
 10
67.399600000000007
 20
128.47999999999999
 30
0.0
 11
67.399600000000007
 21
128.46199999999999
 31
0.0
  0
LINE
  5
2F9
  8
0
 62
     7
 10
67.488500000000002
 20
128.85400000000001
 30
0.0
 11
67.382000000000005
 21
130.31299999999999
 31
0.0
  0
LINE
  5
2FA
  8
0
 62
     7
 10
52.502200000000002
 20
130.31299999999999
 30
0.0
 11
52.395400000000002
 21
128.85400000000001
 31
0.0
  0
LINE
  5
2FB
  8
0
 62
     7
 10
66.883499999999984
 20
130.77600000000001
 30
0.0
 11
60.921000000000006
 21
130.81200000000001
 31
0.0
  0
LINE
  5
2FC
  8
0
 62
     7
 10
60.921000000000006
 20
130.81200000000001
 30
0.0
 11
54.958199999999998
 21
130.79400000000001
 31
0.0
  0
LINE
  5
2FD
  8
0
 62
     7
 10
54.958199999999998
 20
130.79400000000001
 30
0.0
 11
53.000399999999999
 21
130.77600000000001
 31
0.0
  0
LINE
  5
2FE
  8
0
 62
     7
 10
52.057099999999991
 20
127.715
 30
0.0
 11
52.057099999999991
 21
128.107
 31
0.0
  0
LINE
  5
2FF
  8
0
 62
     7
 10
52.057099999999991
 20
128.107
 30
0.0
 11
52.057099999999991
 21
129.13900000000001
 31
0.0
  0
LINE
  5
300
  8
0
 62
     7
 10
52.057099999999991
 20
129.13900000000001
 30
0.0
 11
52.377499999999998
 21
129.13900000000001
 31
0.0
  0
LINE
  5
301
  8
0
 62
     7
 10
52.377499999999998
 20
129.13900000000001
 30
0.0
 11
52.377499999999998
 21
127.64400000000001
 31
0.0
  0
LINE
  5
302
  8
0
 62
     7
 10
123.783
 20
103.989
 30
0.0
 11
123.658
 21
103.687
 31
0.0
  0
LINE
  5
303
  8
0
 62
     7
 10
123.658
 20
103.687
 30
0.0
 11
123.42700000000001
 21
103.384
 31
0.0
  0
LINE
  5
304
  8
0
 62
     7
 10
123.42700000000001
 20
103.384
 30
0.0
 11
123.124
 21
103.17100000000001
 31
0.0
  0
LINE
  5
305
  8
0
 62
     7
 10
123.124
 20
103.17100000000001
 30
0.0
 11
122.822
 21
103.04600000000001
 31
0.0
  0
LINE
  5
306
  8
0
 62
     7
 10
122.822
 20
103.04600000000001
 30
0.0
 11
122.51900000000001
 21
103.01000000000001
 31
0.0
  0
LINE
  5
307
  8
0
 62
     7
 10
122.51900000000001
 20
103.01000000000001
 30
0.0
 11
122.217
 21
103.04600000000001
 31
0.0
  0
LINE
  5
308
  8
0
 62
     7
 10
122.217
 20
103.04600000000001
 30
0.0
 11
121.914
 21
103.15300000000001
 31
0.0
  0
LINE
  5
309
  8
0
 62
     7
 10
121.914
 20
103.15300000000001
 30
0.0
 11
121.611
 21
103.348
 31
0.0
  0
LINE
  5
30A
  8
0
 62
     7
 10
121.611
 20
103.348
 30
0.0
 11
121.36199999999999
 21
103.651
 31
0.0
  0
LINE
  5
30B
  8
0
 62
     7
 10
121.36199999999999
 20
103.651
 30
0.0
 11
121.22
 21
103.953
 31
0.0
  0
LINE
  5
30C
  8
0
 62
     7
 10
121.22
 20
103.953
 30
0.0
 11
121.166
 21
104.256
 31
0.0
  0
LINE
  5
30D
  8
0
 62
     7
 10
121.166
 20
104.256
 30
0.0
 11
121.184
 21
104.559
 31
0.0
  0
LINE
  5
30E
  8
0
 62
     7
 10
121.184
 20
104.559
 30
0.0
 11
121.22
 21
104.70099999999999
 31
0.0
  0
LINE
  5
30F
  8
0
 62
     7
 10
125.46599999999999
 20
109.992
 30
0.0
 11
123.801
 21
103.971
 31
0.0
  0
LINE
  5
310
  8
0
 62
     7
 10
125.46599999999999
 20
109.992
 30
0.0
 11
122.90300000000001
 21
110.699
 31
0.0
  0
LINE
  5
311
  8
0
 62
     7
 10
122.90300000000001
 20
110.699
 30
0.0
 11
126.401
 21
123.33199999999999
 31
0.0
  0
LINE
  5
312
  8
0
 62
     7
 10
122.90300000000001
 20
110.699
 30
0.0
 11
121.23699999999999
 21
104.68300000000001
 31
0.0
  0
LINE
  5
313
  8
0
 62
     7
 10
130.58199999999999
 20
129.37
 30
0.0
 11
130.58199999999999
 21
129.38800000000001
 31
0.0
  0
LINE
  5
314
  8
0
 62
     7
 10
130.58199999999999
 20
129.38800000000001
 30
0.0
 11
130.58199999999999
 21
129.40600000000001
 31
0.0
  0
LINE
  5
315
  8
0
 62
     7
 10
130.58199999999999
 20
129.40600000000001
 30
0.0
 11
130.58199999999999
 21
129.42400000000001
 31
0.0
  0
LINE
  5
316
  8
0
 62
     7
 10
130.58199999999999
 20
129.42400000000001
 30
0.0
 11
130.58199999999999
 21
129.441
 31
0.0
  0
LINE
  5
317
  8
0
 62
     7
 10
130.58199999999999
 20
129.441
 30
0.0
 11
130.58199999999999
 21
129.459
 31
0.0
  0
LINE
  5
318
  8
0
 62
     7
 10
130.58199999999999
 20
129.459
 30
0.0
 11
130.59999999999999
 21
129.459
 31
0.0
  0
LINE
  5
319
  8
0
 62
     7
 10
126.16800000000001
 20
128.124
 30
0.0
 11
126.16800000000001
 21
128.142
 31
0.0
  0
LINE
  5
31A
  8
0
 62
     7
 10
126.16800000000001
 20
128.142
 30
0.0
 11
126.15000000000001
 21
128.16
 31
0.0
  0
LINE
  5
31B
  8
0
 62
     7
 10
126.15000000000001
 20
128.16
 30
0.0
 11
126.15000000000001
 21
128.178
 31
0.0
  0
LINE
  5
31C
  8
0
 62
     7
 10
126.15000000000001
 20
128.178
 30
0.0
 11
126.13200000000001
 21
128.178
 31
0.0
  0
LINE
  5
31D
  8
0
 62
     7
 10
126.13200000000001
 20
128.178
 30
0.0
 11
126.13200000000001
 21
128.19499999999999
 31
0.0
  0
LINE
  5
31E
  8
0
 62
     7
 10
126.13200000000001
 20
128.19499999999999
 30
0.0
 11
126.114
 21
128.19499999999999
 31
0.0
  0
LINE
  5
31F
  8
0
 62
     7
 10
126.73
 20
126.63200000000001
 30
0.0
 11
126.88200000000001
 21
126.28700000000001
 31
0.0
  0
LINE
  5
320
  8
0
 62
     7
 10
126.88200000000001
 20
126.28700000000001
 30
0.0
 11
127.11
 21
125.988
 31
0.0
  0
LINE
  5
321
  8
0
 62
     7
 10
127.11
 20
125.988
 30
0.0
 11
127.383
 21
125.718
 31
0.0
  0
LINE
  5
322
  8
0
 62
     7
 10
127.383
 20
125.718
 30
0.0
 11
127.732
 21
125.495
 31
0.0
  0
LINE
  5
323
  8
0
 62
     7
 10
127.732
 20
125.495
 30
0.0
 11
128.15600000000001
 21
125.319
 31
0.0
  0
LINE
  5
324
  8
0
 62
     7
 10
128.15600000000001
 20
125.319
 30
0.0
 11
128.642
 21
125.244
 31
0.0
  0
LINE
  5
325
  8
0
 62
     7
 10
128.642
 20
125.244
 30
0.0
 11
128.89400000000001
 21
125.241
 31
0.0
  0
ARC
  5
326
  8
0
 62
     7
 10
128.76840899999999
 20
127.03136600000001
 30
0.0
 40
1.794721
 50
274.00935900000002
 51
278.21601399999997
  0
ARC
  5
327
  8
0
 62
     7
 10
128.70614699999999
 20
127.565831
 30
0.0
 40
2.332644999999999
 50
277.8535950000001
 51
297.49548900000002
  0
LINE
  5
328
  8
0
 62
     7
 10
129.78299999999999
 20
125.497
 30
0.0
 11
129.995
 21
125.633
 31
0.0
  0
LINE
  5
329
  8
0
 62
     7
 10
129.995
 20
125.633
 30
0.0
 11
130.36799999999999
 21
125.953
 31
0.0
  0
LINE
  5
32A
  8
0
 62
     7
 10
130.36799999999999
 20
125.953
 30
0.0
 11
130.63499999999999
 21
126.327
 31
0.0
  0
LINE
  5
32B
  8
0
 62
     7
 10
130.63499999999999
 20
126.327
 30
0.0
 11
130.81399999999999
 21
126.7
 31
0.0
  0
LINE
  5
32C
  8
0
 62
     7
 10
130.81399999999999
 20
126.7
 30
0.0
 11
130.90199999999999
 21
127.074
 31
0.0
  0
LINE
  5
32D
  8
0
 62
     7
 10
130.90199999999999
 20
127.074
 30
0.0
 11
130.93799999999999
 21
127.44799999999999
 31
0.0
  0
LINE
  5
32E
  8
0
 62
     7
 10
130.93799999999999
 20
127.44799999999999
 30
0.0
 11
130.88399999999999
 21
127.822
 31
0.0
  0
LINE
  5
32F
  8
0
 62
     7
 10
126.73
 20
126.63200000000001
 30
0.0
 11
126.16800000000001
 21
128.124
 31
0.0
  0
LINE
  5
330
  8
0
 62
     7
 10
108.93899999999999
 20
116.55500000000001
 30
0.0
 11
110.096
 21
118.05
 31
0.0
  0
LINE
  5
331
  8
0
 62
     7
 10
110.096
 20
118.05
 30
0.0
 11
111.395
 21
119.54600000000001
 31
0.0
  0
LINE
  5
332
  8
0
 62
     7
 10
111.395
 20
119.54600000000001
 30
0.0
 11
112.872
 21
121.023
 31
0.0
  0
LINE
  5
333
  8
0
 62
     7
 10
112.872
 20
121.023
 30
0.0
 11
114.367
 21
122.357
 31
0.0
  0
LINE
  5
334
  8
0
 62
     7
 10
114.367
 20
122.357
 30
0.0
 11
115.86199999999999
 21
123.515
 31
0.0
  0
LINE
  5
335
  8
0
 62
     7
 10
115.86199999999999
 20
123.515
 30
0.0
 11
117.358
 21
124.565
 31
0.0
  0
LINE
  5
336
  8
0
 62
     7
 10
117.358
 20
124.565
 30
0.0
 11
118.852
 21
125.473
 31
0.0
  0
LINE
  5
337
  8
0
 62
     7
 10
118.852
 20
125.473
 30
0.0
 11
120.348
 21
126.291
 31
0.0
  0
LINE
  5
338
  8
0
 62
     7
 10
120.348
 20
126.291
 30
0.0
 11
121.843
 21
127.003
 31
0.0
  0
LINE
  5
339
  8
0
 62
     7
 10
121.843
 20
127.003
 30
0.0
 11
123.33799999999999
 21
127.626
 31
0.0
  0
LINE
  5
33A
  8
0
 62
     7
 10
123.33799999999999
 20
127.626
 30
0.0
 11
124.833
 21
128.142
 31
0.0
  0
LINE
  5
33B
  8
0
 62
     7
 10
124.833
 20
128.142
 30
0.0
 11
125.98999999999999
 21
128.51599999999999
 31
0.0
  0
LINE
  5
33C
  8
0
 62
     7
 10
109.223
 20
116.36
 30
0.0
 11
110.363
 21
117.855
 31
0.0
  0
LINE
  5
33D
  8
0
 62
     7
 10
110.363
 20
117.855
 30
0.0
 11
111.68000000000001
 21
119.34999999999999
 31
0.0
  0
LINE
  5
33E
  8
0
 62
     7
 10
111.68000000000001
 20
119.34999999999999
 30
0.0
 11
113.139
 21
120.827
 31
0.0
  0
LINE
  5
33F
  8
0
 62
     7
 10
113.139
 20
120.827
 30
0.0
 11
114.634
 21
122.14400000000001
 31
0.0
  0
LINE
  5
340
  8
0
 62
     7
 10
114.634
 20
122.14400000000001
 30
0.0
 11
116.129
 21
123.301
 31
0.0
  0
LINE
  5
341
  8
0
 62
     7
 10
116.129
 20
123.301
 30
0.0
 11
117.625
 21
124.334
 31
0.0
  0
LINE
  5
342
  8
0
 62
     7
 10
117.625
 20
124.334
 30
0.0
 11
119.119
 21
125.241
 31
0.0
  0
LINE
  5
343
  8
0
 62
     7
 10
119.119
 20
125.241
 30
0.0
 11
120.61499999999999
 21
126.042
 31
0.0
  0
LINE
  5
344
  8
0
 62
     7
 10
120.61499999999999
 20
126.042
 30
0.0
 11
122.11
 21
126.754
 31
0.0
  0
LINE
  5
345
  8
0
 62
     7
 10
122.11
 20
126.754
 30
0.0
 11
123.605
 21
127.35899999999999
 31
0.0
  0
LINE
  5
346
  8
0
 62
     7
 10
123.605
 20
127.35899999999999
 30
0.0
 11
125.09999999999999
 21
127.893
 31
0.0
  0
LINE
  5
347
  8
0
 62
     7
 10
125.09999999999999
 20
127.893
 30
0.0
 11
126.096
 21
128.19499999999999
 31
0.0
  0
LINE
  5
348
  8
0
 62
     7
 10
107.123
 20
113.74299999999999
 30
0.0
 11
108.03100000000001
 21
115.238
 31
0.0
  0
LINE
  5
349
  8
0
 62
     7
 10
108.03100000000001
 20
115.238
 30
0.0
 11
108.93899999999999
 21
116.55500000000001
 31
0.0
  0
LINE
  5
34A
  8
0
 62
     7
 10
107.408
 20
113.583
 30
0.0
 11
108.333
 21
115.078
 31
0.0
  0
LINE
  5
34B
  8
0
 62
     7
 10
108.333
 20
115.078
 30
0.0
 11
109.223
 21
116.377
 31
0.0
  0
LINE
  5
34C
  8
0
 62
     7
 10
129.3179999999999
 20
129.10300000000001
 30
0.0
 11
126.114
 21
128.19499999999999
 31
0.0
  0
LINE
  5
34D
  8
0
 62
     7
 10
130.49299999999999
 20
129.779
 30
0.0
 11
130.59999999999999
 21
129.459
 31
0.0
  0
LINE
  5
34E
  8
0
 62
     7
 10
129.3179999999999
 20
129.10300000000001
 30
0.0
 11
130.59999999999999
 21
129.459
 31
0.0
  0
LINE
  5
34F
  8
0
 62
     7
 10
126.096
 20
128.19499999999999
 30
0.0
 11
126.114
 21
128.19499999999999
 31
0.0
  0
LINE
  5
350
  8
0
 62
     7
 10
129.21199999999999
 20
129.42400000000001
 30
0.0
 11
125.98999999999999
 21
128.51599999999999
 31
0.0
  0
LINE
  5
351
  8
0
 62
     7
 10
129.21199999999999
 20
129.42400000000001
 30
0.0
 11
130.49299999999999
 21
129.779
 31
0.0
  0
LINE
  5
352
  8
0
 62
     7
 10
130.88399999999999
 20
127.822
 30
0.0
 11
130.58199999999999
 21
129.37
 31
0.0
  0
LINE
  5
353
  8
0
 62
     7
 10
107.14100000000001
 20
113.72499999999999
 30
0.0
 11
107.426
 21
113.565
 31
0.0
  0
LINE
  5
354
  8
0
 62
     7
 10
125.491
 20
123.81699999999999
 30
0.0
 11
125.491
 21
123.8
 31
0.0
  0
LINE
  5
355
  8
0
 62
     7
 10
125.491
 20
123.8
 30
0.0
 11
125.491
 21
123.764
 31
0.0
  0
LINE
  5
356
  8
0
 62
     7
 10
125.491
 20
123.764
 30
0.0
 11
125.509
 21
123.70999999999999
 31
0.0
  0
LINE
  5
357
  8
0
 62
     7
 10
125.509
 20
123.70999999999999
 30
0.0
 11
125.527
 21
123.675
 31
0.0
  0
LINE
  5
358
  8
0
 62
     7
 10
125.527
 20
123.675
 30
0.0
 11
125.545
 21
123.639
 31
0.0
  0
LINE
  5
359
  8
0
 62
     7
 10
125.545
 20
123.639
 30
0.0
 11
125.598
 21
123.55
 31
0.0
  0
LINE
  5
35A
  8
0
 62
     7
 10
125.598
 20
123.55
 30
0.0
 11
125.652
 21
123.479
 31
0.0
  0
LINE
  5
35B
  8
0
 62
     7
 10
125.652
 20
123.479
 30
0.0
 11
125.723
 21
123.425
 31
0.0
  0
LINE
  5
35C
  8
0
 62
     7
 10
125.723
 20
123.425
 30
0.0
 11
125.794
 21
123.39
 31
0.0
  0
LINE
  5
35D
  8
0
 62
     7
 10
125.794
 20
123.39
 30
0.0
 11
125.883
 21
123.354
 31
0.0
  0
LINE
  5
35E
  8
0
 62
     7
 10
125.883
 20
123.354
 30
0.0
 11
125.97199999999999
 21
123.354
 31
0.0
  0
LINE
  5
35F
  8
0
 62
     7
 10
134.96000000000001
 20
122.90900000000001
 30
0.0
 11
134.97799999999989
 21
122.90900000000001
 31
0.0
  0
LINE
  5
360
  8
0
 62
     7
 10
134.97799999999989
 20
122.90900000000001
 30
0.0
 11
134.99600000000001
 21
122.90900000000001
 31
0.0
  0
LINE
  5
361
  8
0
 62
     7
 10
134.99600000000001
 20
122.90900000000001
 30
0.0
 11
135.04900000000001
 21
122.90900000000001
 31
0.0
  0
LINE
  5
362
  8
0
 62
     7
 10
135.04900000000001
 20
122.90900000000001
 30
0.0
 11
135.10299999999989
 21
122.89100000000001
 31
0.0
  0
LINE
  5
363
  8
0
 62
     7
 10
135.10299999999989
 20
122.89100000000001
 30
0.0
 11
135.26300000000001
 21
122.89100000000001
 31
0.0
  0
LINE
  5
364
  8
0
 62
     7
 10
135.26300000000001
 20
122.89100000000001
 30
0.0
 11
135.405
 21
122.89100000000001
 31
0.0
  0
LINE
  5
365
  8
0
 62
     7
 10
135.405
 20
122.89100000000001
 30
0.0
 11
135.619
 21
122.874
 31
0.0
  0
LINE
  5
366
  8
0
 62
     7
 10
135.619
 20
122.874
 30
0.0
 11
135.833
 21
122.874
 31
0.0
  0
LINE
  5
367
  8
0
 62
     7
 10
135.833
 20
122.874
 30
0.0
 11
136.02799999999999
 21
122.85599999999999
 31
0.0
  0
LINE
  5
368
  8
0
 62
     7
 10
136.02799999999999
 20
122.85599999999999
 30
0.0
 11
136.24199999999999
 21
122.83799999999999
 31
0.0
  0
LINE
  5
369
  8
0
 62
     7
 10
136.24199999999999
 20
122.83799999999999
 30
0.0
 11
136.38399999999999
 21
122.83799999999999
 31
0.0
  0
LINE
  5
36A
  8
0
 62
     7
 10
136.38399999999999
 20
122.83799999999999
 30
0.0
 11
136.5439999999999
 21
122.81999999999999
 31
0.0
  0
LINE
  5
36B
  8
0
 62
     7
 10
136.5439999999999
 20
122.81999999999999
 30
0.0
 11
136.59800000000001
 21
122.81999999999999
 31
0.0
  0
LINE
  5
36C
  8
0
 62
     7
 10
136.59800000000001
 20
122.81999999999999
 30
0.0
 11
136.65100000000001
 21
122.81999999999999
 31
0.0
  0
LINE
  5
36D
  8
0
 62
     7
 10
136.65100000000001
 20
122.81999999999999
 30
0.0
 11
136.66900000000001
 21
122.81999999999999
 31
0.0
  0
LINE
  5
36E
  8
0
 62
     7
 10
136.66900000000001
 20
122.81999999999999
 30
0.0
 11
136.68700000000001
 21
122.81999999999999
 31
0.0
  0
LINE
  5
36F
  8
0
 62
     7
 10
134.96000000000001
 20
122.90900000000001
 30
0.0
 11
132.71799999999999
 21
123.01600000000001
 31
0.0
  0
LINE
  5
370
  8
0
 62
     7
 10
132.71799999999999
 20
123.01600000000001
 30
0.0
 11
130.45699999999999
 21
123.123
 31
0.0
  0
LINE
  5
371
  8
0
 62
     7
 10
130.45699999999999
 20
123.123
 30
0.0
 11
129.79900000000001
 21
123.15900000000001
 31
0.0
  0
LINE
  5
372
  8
0
 62
     7
 10
129.79900000000001
 20
123.15900000000001
 30
0.0
 11
125.97199999999999
 21
123.354
 31
0.0
  0
LINE
  5
373
  8
0
 62
     7
 10
140.49600000000001
 20
122.625
 30
0.0
 11
139.535
 21
122.678
 31
0.0
  0
LINE
  5
374
  8
0
 62
     7
 10
139.535
 20
122.678
 30
0.0
 11
138.59100000000001
 21
122.732
 31
0.0
  0
LINE
  5
375
  8
0
 62
     7
 10
138.59100000000001
 20
122.732
 30
0.0
 11
137.648
 21
122.767
 31
0.0
  0
LINE
  5
376
  8
0
 62
     7
 10
137.648
 20
122.767
 30
0.0
 11
136.68700000000001
 21
122.81999999999999
 31
0.0
  0
LINE
  5
377
  8
0
 62
     7
 10
125.491
 20
123.81699999999999
 30
0.0
 11
125.367
 21
125.348
 31
0.0
  0
LINE
  5
378
  8
0
 62
     7
 10
125.367
 20
125.348
 30
0.0
 11
125.331
 21
126.878
 31
0.0
  0
LINE
  5
379
  8
0
 62
     7
 10
125.331
 20
126.878
 30
0.0
 11
125.331
 21
127.946
 31
0.0
  0
LINE
  5
37A
  8
0
 62
     7
 10
125.456
 20
130.25999999999999
 30
0.0
 11
125.509
 21
130.43799999999999
 31
0.0
  0
LINE
  5
37B
  8
0
 62
     7
 10
125.509
 20
130.43799999999999
 30
0.0
 11
125.652
 21
130.59800000000001
 31
0.0
  0
LINE
  5
37C
  8
0
 62
     7
 10
125.652
 20
130.59800000000001
 30
0.0
 11
125.83
 21
130.68700000000001
 31
0.0
  0
LINE
  5
37D
  8
0
 62
     7
 10
125.83
 20
130.68700000000001
 30
0.0
 11
125.95399999999999
 21
130.70500000000001
 31
0.0
  0
LINE
  5
37E
  8
0
 62
     7
 10
125.349
 20
128.30199999999999
 30
0.0
 11
125.438
 21
129.833
 31
0.0
  0
LINE
  5
37F
  8
0
 62
     7
 10
125.438
 20
129.833
 30
0.0
 11
125.474
 21
130.22499999999999
 31
0.0
  0
LINE
  5
380
  8
0
 62
     7
 10
125.456
 20
130.22499999999999
 30
0.0
 11
125.474
 21
130.24199999999999
 31
0.0
  0
LINE
  5
381
  8
0
 62
     7
 10
140.49600000000001
 20
130.81200000000001
 30
0.0
 11
140.49600000000001
 21
122.625
 31
0.0
  0
LINE
  5
382
  8
0
 62
     7
 10
140.49600000000001
 20
130.81200000000001
 30
0.0
 11
125.97199999999999
 21
130.68700000000001
 31
0.0
  0
LINE
  5
383
  8
0
 62
     7
 10
56.570500000000003
 20
204.798
 30
0.0
 11
56.570500000000003
 21
218.71100000000001
 31
0.0
  0
LINE
  5
384
  8
0
 62
     7
 10
55.304099999999991
 20
204.798
 30
0.0
 11
55.304099999999991
 21
218.71100000000001
 31
0.0
  0
LINE
  5
385
  8
0
 62
     7
 10
54.972700000000003
 20
218.947
 30
0.0
 11
56.902000000000001
 21
219.55000000000001
 31
0.0
  0
LINE
  5
386
  8
0
 62
     7
 10
54.972700000000003
 20
217.89400000000001
 30
0.0
 11
56.902000000000001
 21
218.49700000000001
 31
0.0
  0
LINE
  5
387
  8
0
 62
     7
 10
54.972700000000003
 20
216.84200000000001
 30
0.0
 11
56.902000000000001
 21
217.44399999999999
 31
0.0
  0
LINE
  5
388
  8
0
 62
     7
 10
54.972700000000003
 20
215.78899999999999
 30
0.0
 11
56.902000000000001
 21
216.392
 31
0.0
  0
LINE
  5
389
  8
0
 62
     7
 10
54.972700000000003
 20
214.73599999999999
 30
0.0
 11
56.902000000000001
 21
215.339
 31
0.0
  0
LINE
  5
38A
  8
0
 62
     7
 10
54.972700000000003
 20
213.68299999999999
 30
0.0
 11
56.902000000000001
 21
214.28700000000001
 31
0.0
  0
LINE
  5
38B
  8
0
 62
     7
 10
54.972700000000003
 20
212.631
 30
0.0
 11
56.902000000000001
 21
213.23400000000001
 31
0.0
  0
LINE
  5
38C
  8
0
 62
     7
 10
54.972700000000003
 20
211.578
 30
0.0
 11
56.902000000000001
 21
212.18100000000001
 31
0.0
  0
LINE
  5
38D
  8
0
  6
AIGENLINE001
 62
     7
 10
55.9373
 20
203.70699999999999
 30
0.0
 11
55.9373
 21
221.79599999999999
 31
0.0
  0
LINE
  5
38E
  8
0
 62
     7
 10
56.570500000000003
 20
218.71100000000001
 30
0.0
 11
55.9373
 21
220.465
 31
0.0
  0
LINE
  5
38F
  8
0
 62
     7
 10
55.304099999999991
 20
218.71100000000001
 30
0.0
 11
55.9373
 21
220.465
 31
0.0
  0
LINE
  5
390
  8
0
 62
     7
 10
54.972700000000003
 20
209.47300000000001
 30
0.0
 11
56.902000000000001
 21
210.07599999999999
 31
0.0
  0
LINE
  5
391
  8
0
 62
     7
 10
54.972700000000003
 20
210.52500000000001
 30
0.0
 11
56.902000000000001
 21
211.12899999999999
 31
0.0
  0
LINE
  5
392
  8
0
 62
     7
 10
55.304099999999991
 20
208.798
 30
0.0
 11
56.570500000000003
 21
208.798
 31
0.0
  0
LINE
  5
393
  8
0
 62
     7
 10
64.561800000000005
 20
204.798
 30
0.0
 11
64.561800000000005
 21
218.71100000000001
 31
0.0
  0
LINE
  5
394
  8
0
 62
     7
 10
63.295400000000001
 20
204.798
 30
0.0
 11
63.295400000000001
 21
218.71100000000001
 31
0.0
  0
LINE
  5
395
  8
0
 62
     7
 10
62.963999999999999
 20
218.947
 30
0.0
 11
64.893299999999996
 21
219.55000000000001
 31
0.0
  0
LINE
  5
396
  8
0
 62
     7
 10
62.963999999999999
 20
217.89400000000001
 30
0.0
 11
64.893299999999996
 21
218.49700000000001
 31
0.0
  0
LINE
  5
397
  8
0
 62
     7
 10
62.963999999999999
 20
216.84200000000001
 30
0.0
 11
64.893299999999996
 21
217.44399999999999
 31
0.0
  0
LINE
  5
398
  8
0
 62
     7
 10
62.963999999999999
 20
215.78899999999999
 30
0.0
 11
64.893299999999996
 21
216.392
 31
0.0
  0
LINE
  5
399
  8
0
 62
     7
 10
62.963999999999999
 20
214.73599999999999
 30
0.0
 11
64.893299999999996
 21
215.339
 31
0.0
  0
LINE
  5
39A
  8
0
 62
     7
 10
62.963999999999999
 20
213.68299999999999
 30
0.0
 11
64.893299999999996
 21
214.28700000000001
 31
0.0
  0
LINE
  5
39B
  8
0
 62
     7
 10
62.963999999999999
 20
212.631
 30
0.0
 11
64.893299999999996
 21
213.23400000000001
 31
0.0
  0
LINE
  5
39C
  8
0
 62
     7
 10
62.963999999999999
 20
211.578
 30
0.0
 11
64.893299999999996
 21
212.18100000000001
 31
0.0
  0
LINE
  5
39D
  8
0
  6
AIGENLINE001
 62
     7
 10
63.928600000000003
 20
203.70699999999999
 30
0.0
 11
63.928600000000003
 21
221.79599999999999
 31
0.0
  0
LINE
  5
39E
  8
0
 62
     7
 10
64.561800000000005
 20
218.71100000000001
 30
0.0
 11
63.928600000000003
 21
220.465
 31
0.0
  0
LINE
  5
39F
  8
0
 62
     7
 10
63.295400000000001
 20
218.71100000000001
 30
0.0
 11
63.928600000000003
 21
220.465
 31
0.0
  0
LINE
  5
3A0
  8
0
 62
     7
 10
62.963999999999999
 20
209.47300000000001
 30
0.0
 11
64.893299999999996
 21
210.07599999999999
 31
0.0
  0
LINE
  5
3A1
  8
0
 62
     7
 10
62.963999999999999
 20
210.52500000000001
 30
0.0
 11
64.893299999999996
 21
211.12899999999999
 31
0.0
  0
LINE
  5
3A2
  8
0
 62
     7
 10
63.295400000000001
 20
208.798
 30
0.0
 11
64.561800000000005
 21
208.798
 31
0.0
  0
LINE
  5
3A3
  8
0
 62
     7
 10
140.49600000000001
 20
126.845
 30
0.0
 11
154.40899999999999
 21
126.845
 31
0.0
  0
LINE
  5
3A4
  8
0
 62
     7
 10
140.49600000000001
 20
128.11199999999999
 30
0.0
 11
154.40899999999999
 21
128.11199999999999
 31
0.0
  0
LINE
  5
3A5
  8
0
 62
     7
 10
154.64400000000001
 20
128.44300000000001
 30
0.0
 11
155.24799999999999
 21
126.514
 31
0.0
  0
LINE
  5
3A6
  8
0
 62
     7
 10
153.59200000000001
 20
128.44300000000001
 30
0.0
 11
154.19499999999999
 21
126.514
 31
0.0
  0
LINE
  5
3A7
  8
0
 62
     7
 10
152.5389999999999
 20
128.44300000000001
 30
0.0
 11
153.142
 21
126.514
 31
0.0
  0
LINE
  5
3A8
  8
0
 62
     7
 10
151.48699999999999
 20
128.44300000000001
 30
0.0
 11
152.09
 21
126.514
 31
0.0
  0
LINE
  5
3A9
  8
0
 62
     7
 10
150.434
 20
128.44300000000001
 30
0.0
 11
151.03700000000001
 21
126.514
 31
0.0
  0
LINE
  5
3AA
  8
0
 62
     7
 10
149.381
 20
128.44300000000001
 30
0.0
 11
149.98500000000001
 21
126.514
 31
0.0
  0
LINE
  5
3AB
  8
0
 62
     7
 10
148.32900000000001
 20
128.44300000000001
 30
0.0
 11
148.93199999999999
 21
126.514
 31
0.0
  0
LINE
  5
3AC
  8
0
 62
     7
 10
147.27600000000001
 20
128.44300000000001
 30
0.0
 11
147.87899999999999
 21
126.514
 31
0.0
  0
LINE
  5
3AD
  8
0
  6
AIGENLINE001
 62
     7
 10
139.405
 20
127.479
 30
0.0
 11
157.494
 21
127.479
 31
0.0
  0
LINE
  5
3AE
  8
0
 62
     7
 10
154.40899999999999
 20
126.845
 30
0.0
 11
156.16300000000001
 21
127.479
 31
0.0
  0
LINE
  5
3AF
  8
0
 62
     7
 10
154.40899999999999
 20
128.11199999999999
 30
0.0
 11
156.16300000000001
 21
127.479
 31
0.0
  0
LINE
  5
3B0
  8
0
 62
     7
 10
145.17099999999999
 20
128.44300000000001
 30
0.0
 11
145.774
 21
126.514
 31
0.0
  0
LINE
  5
3B1
  8
0
 62
     7
 10
146.22300000000001
 20
128.44300000000001
 30
0.0
 11
146.827
 21
126.514
 31
0.0
  0
LINE
  5
3B2
  8
0
 62
     7
 10
144.49600000000001
 20
128.11199999999999
 30
0.0
 11
144.49600000000001
 21
126.845
 31
0.0
  0
LINE
  5
3B3
  8
0
  6
AIGENLINE001
 62
     7
 10
61.927999999999997
 20
127.479
 30
0.0
 11
65.9285
 21
127.479
 31
0.0
  0
LINE
  5
3B4
  8
0
  6
AIGENLINE001
 62
     7
 10
59.9285
 20
169.15599999999989
 30
0.0
 11
59.9285
 21
206.81
 31
0.0
  0
LINE
  5
3B5
  8
0
  6
AIGENLINE001
 62
     7
 10
59.9285
 20
111.946
 30
0.0
 11
59.9285
 21
134.12
 31
0.0
  0
LINE
  5
3B6
  8
0
  6
AIGENLINE001
 62
     7
 10
63.928600000000003
 20
125.479
 30
0.0
 11
63.928600000000003
 21
129.47900000000001
 31
0.0
  0
ARC
  5
3B7
  8
0
  6
AIGENLINE003
 62
     7
 10
63.904548999999989
 20
127.453857
 30
0.0
 40
0.658092
 50
2.1281989999999991
 51
87.902956000000003
  0
ARC
  5
3B8
  8
0
  6
AIGENLINE003
 62
     7
 10
63.95302499999999
 20
127.453543
 30
0.0
 40
0.6584180000000001
 50
92.123345
 51
177.845461
  0
ARC
  5
3B9
  8
0
  6
AIGENLINE003
 62
     7
 10
63.953059000000003
 20
127.502726
 30
0.0
 40
0.6584399999999999
 50
182.12631200000001
 51
267.873718
  0
ARC
  5
3BA
  8
0
  6
AIGENLINE003
 62
     7
 10
63.904200000000003
 20
127.502726
 30
0.0
 40
0.6584399999999999
 50
272.12630200000001
 51
357.87370800000002
  0
LINE
  5
3BB
  8
0
  6
AIGENLINE001
 62
     7
 10
53.928100000000001
 20
127.479
 30
0.0
 11
57.92860000000001
 21
127.479
 31
0.0
  0
LINE
  5
3BC
  8
0
  6
AIGENLINE001
 62
     7
 10
55.928699999999999
 20
125.479
 30
0.0
 11
55.928699999999999
 21
129.47900000000001
 31
0.0
  0
ARC
  5
3BD
  8
0
  6
AIGENLINE003
 62
     7
 10
55.904308
 20
127.45388199999999
 30
0.0
 40
0.65808
 50
2.1261169999999989
 51
87.873874000000001
  0
ARC
  5
3BE
  8
0
  6
AIGENLINE003
 62
     7
 10
55.953118000000011
 20
127.453543
 30
0.0
 40
0.6584180000000001
 50
92.123345
 51
177.845461
  0
ARC
  5
3BF
  8
0
  6
AIGENLINE003
 62
     7
 10
55.953152000000003
 20
127.502726
 30
0.0
 40
0.6584399999999999
 50
182.12631200000001
 51
267.873718
  0
ARC
  5
3C0
  8
0
  6
AIGENLINE003
 62
     7
 10
55.904279000000002
 20
127.502382
 30
0.0
 40
0.6580970000000002
 50
272.12863700000003
 51
357.902537
  0
TEXT
  5
3C1
  8
_________2
 62
     7
 10
23.357900000000001
 20
52.358499999999999
 30
0.0
 40
4.2168199999999993
  1
・使用可能ペーパー：外径120mm以下、幅114mm以下、芯内径%%c32～38mm
 41
0.5
  0
TEXT
  5
3C2
  8
_________2
 62
     7
 10
23.357900000000001
 20
47.087499999999999
 30
0.0
 40
4.2168199999999993
  1
・ペーパー取り付けのため、紙巻器の右側に130mm以上の空間が必要です。
 41
0.5
  0
TEXT
  5
3C3
  8
_________2
 62
     7
 10
23.357900000000001
 20
41.816499999999998
 30
0.0
 40
4.2168199999999993
  1
・壁取付部には厚さ30mm以上の補強木を入れてください。
 41
0.5
  0
LINE
  5
3C4
  8
_________2
 62
     7
 10
205.30099999999999
 20
127.411
 30
0.0
 11
183.55000000000001
 21
127.411
 31
0.0
  0
LINE
  5
3C5
  8
_________2
 62
     7
 10
100.3
 20
-4.0910799999999998
 30
0.0
 11
100.3
 21
-21.071400000000001
 31
0.0
  0
LINE
  5
3C6
  8
_________2
 62
     7
 10
100.3
 20
275.93099999999998
 30
0.0
 11
100.3
 21
258.911
 31
0.0
  0
LINE
  5
3C7
  8
_________2
 62
     7
 10
17.049499999999998
 20
127.411
 30
0.0
 11
-4.70052
 21
127.411
 31
0.0
  0
LINE
  5
3C8
  8
_________2
 62
     7
 10
76.741
 20
29.8047
 30
0.0
 11
74.554699999999997
 21
29.8047
 31
0.0
  0
LINE
  5
3C9
  8
_________2
 62
     7
 10
77.233699999999999
 20
29.8047
 30
0.0
 11
76.981499999999997
 21
29.8047
 31
0.0
  0
LINE
  5
3CA
  8
_________2
 62
     7
 10
77.726299999999995
 20
29.8047
 30
0.0
 11
80.651200000000003
 21
29.8047
 31
0.0
  0
LINE
  5
3CB
  8
_________2
 62
     7
 10
77.233699999999999
 20
29.8047
 30
0.0
 11
77.485500000000002
 21
29.8047
 31
0.0
  0
LINE
  5
3CC
  8
_________2
 62
     7
 10
70.837100000000007
 20
29.8047
 30
0.0
 11
68.650499999999994
 21
29.8047
 31
0.0
  0
LINE
  5
3CD
  8
_________2
 62
     7
 10
71.329400000000007
 20
29.8047
 30
0.0
 11
71.077600000000004
 21
29.8047
 31
0.0
  0
LINE
  5
3CE
  8
_________2
 62
     7
 10
71.329400000000007
 20
30.2974
 30
0.0
 11
71.329400000000007
 21
32.484400000000001
 31
0.0
  0
LINE
  5
3CF
  8
_________2
 62
     7
 10
71.329400000000007
 20
29.8047
 30
0.0
 11
71.329400000000007
 21
30.056899999999999
 31
0.0
  0
LINE
  5
3D0
  8
_________2
 62
     7
 10
71.822100000000006
 20
29.8047
 30
0.0
 11
74.009
 21
29.8047
 31
0.0
  0
LINE
  5
3D1
  8
_________2
 62
     7
 10
71.329400000000007
 20
29.8047
 30
0.0
 11
71.581599999999995
 21
29.8047
 31
0.0
  0
LINE
  5
3D2
  8
_________2
 62
     7
 10
71.329400000000007
 20
29.312799999999999
 30
0.0
 11
71.329400000000007
 21
27.125800000000002
 31
0.0
  0
LINE
  5
3D3
  8
_________2
 62
     7
 10
71.329400000000007
 20
29.8047
 30
0.0
 11
71.329400000000007
 21
29.5532
 31
0.0
  0
LINE
  5
3D4
  8
_________2
 62
     7
 10
75.040499999999994
 20
28.5852
 30
0.0
 11
80.218500000000006
 21
27.720400000000001
 31
0.0
  0
LINE
  5
3D5
  8
_________2
 62
     7
 10
75.040499999999994
 20
31.0243
 30
0.0
 11
80.218500000000006
 21
31.889700000000001
 31
0.0
  0
LINE
  5
3D6
  8
_________2
 62
     7
 10
80.218500000000006
 20
27.720400000000001
 30
0.0
 11
80.218500000000006
 21
31.889700000000001
 31
0.0
  0
LINE
  5
3D7
  8
_________2
 62
     7
 10
75.040499999999994
 20
28.5852
 30
0.0
 11
75.040499999999994
 21
31.0243
 31
0.0
  0
ARC
  5
3D8
  8
_________2
 62
     7
 10
71.28285600000001
 20
29.757811
 30
0.0
 40
1.2673589999999999
 50
2.122214
 51
87.893958999999995
  0
ARC
  5
3D9
  8
_________2
 62
     7
 10
71.375959999999992
 20
29.758213000000001
 30
0.0
 40
1.2669559999999991
 50
92.104701000000006
 51
177.89526900000001
  0
ARC
  5
3DA
  8
_________2
 62
     7
 10
71.376357999999996
 20
29.851671
 30
0.0
 40
1.2673680000000001
 50
182.12203600000001
 51
267.877993
  0
ARC
  5
3DB
  8
_________2
 62
     7
 10
71.282531999999989
 20
29.851998999999999
 30
0.0
 40
1.267695999999999
 50
272.12015300000002
 51
357.863674
  0
ARC
  5
3DC
  8
_________2
 62
     7
 10
71.329430000000002
 20
29.804742999999998
 30
0.0
 40
2.0849849999999992
 50
0.00001
 51
89.999980000000008
  0
ARC
  5
3DD
  8
_________2
 62
     7
 10
71.329603000000006
 20
29.804915000000001
 30
0.0
 40
2.084813
 50
90.004733999999999
 51
180.00474399999999
  0
ARC
  5
3DE
  8
_________2
 62
     7
 10
71.409106000000008
 20
29.884775999999999
 30
0.0
 40
2.1657950000000001
 50
182.11776599999999
 51
267.89173399999999
  0
ARC
  5
3DF
  8
_________2
 62
     7
 10
71.249459000000002
 20
29.885429999999999
 30
0.0
 40
2.1664590000000001
 50
272.11546800000002
 51
357.86560400000002
  0
TEXT
  5
3E0
  8
_________2
 62
     7
 10
104.605
 20
1.6794899999999999
 30
0.0
 40
3.0923400000000001
  1
図番
 41
0.5
  0
LINE
  5
3E1
  8
_________2
 62
     7
 10
103.55
 20
5.9087199999999989
 30
0.0
 11
183.55099999999999
 21
5.9087199999999989
 31
0.0
  0
TEXT
  5
3E2
  8
_________2
 62
     7
 10
104.605
 20
11.6793
 30
0.0
 40
3.0923400000000001
  1
品番
 41
0.5
  0
TEXT
  5
3E3
  8
_________2
 62
     7
 10
104.605
 20
31.818100000000001
 30
0.0
 40
3.0923400000000001
  1
名称
 41
0.5
  0
TEXT
  5
3E4
  8
_________2
 62
     7
 10
91.845058333333341
 20
26.821999999999999
 30
0.0
 40
3.6545800000000002
  1
mm
 41
0.5
 72
     1
 11
93.367800000000003
 21
26.821999999999999
 31
0.0
  0
TEXT
  5
3E5
  8
_________2
 62
     7
 10
85.643199999999993
 20
31.818100000000001
 30
0.0
 40
3.0923400000000001
  1
単位
 41
0.5
  0
TEXT
  5
3E6
  8
_________2
 62
     7
 10
85.643199999999993
 20
19.410799999999998
 30
0.0
 40
3.0923400000000001
  1
尺度
 41
0.5
  0
TEXT
  5
3E7
  8
_________2
 62
     7
 10
90.548758666666686
 20
13.2179
 30
0.0
 40
3.6545800000000002
  1
1 ： 3
 41
0.5
 72
     1
 11
93.959699999999998
 21
13.2179
 31
0.0
  0
TEXT
  5
3E8
  8
_________2
 62
     7
 10
138.4663875
 20
9.1078600000000005
 30
0.0
 40
3.9357000000000002
  1
EC0200
 41
0.5
 72
     1
 11
143.55000000000001
 21
9.1078600000000005
 31
0.0
  0
TEXT
  5
3E9
  8
_________2
 62
     7
 10
138.4663875
 20
-0.8926299999999999
 30
0.0
 40
3.9357000000000002
  1
EC0200
 41
0.5
 72
     1
 11
143.55000000000001
 21
-0.8926299999999999
 31
0.0
  0
TEXT
  5
3EA
  8
_________2
 62
     7
 10
109.179
 20
24.2257
 30
0.0
 40
3.9357000000000002
  1
トレンド　ペーパーホルダー
 41
0.5
  0
TEXT
  5
3EB
  8
_________2
 62
     7
 10
39.425300333333333
 20
13.603
 30
0.0
 40
3.6545800000000002
  1
早川
 41
0.5
 72
     1
 11
41.313499999999998
 21
13.603
 31
0.0
  0
TEXT
  5
3EC
  8
_________2
 62
     7
 10
20.790090666666671
 20
13.603
 30
0.0
 40
3.6545800000000002
  1
菅原
 41
0.5
 72
     1
 11
22.7392
 21
13.603
 31
0.0
  0
TEXT
  5
3ED
  8
_________2
 62
     7
 10
67.785399999999996
 20
13.2179
 30
0.0
 40
3.6545800000000002
  1
15.12.24
 41
0.5
  0
TEXT
  5
3EE
  8
_________2
 62
     7
 10
66.593100000000007
 20
19.410799999999998
 30
0.0
 40
3.0923400000000001
  1
日付
 41
0.5
  0
TEXT
  5
3EF
  8
_________2
 62
     7
 10
29.639399999999998
 20
19.410799999999998
 30
0.0
 40
3.0923400000000001
  1
検図
 41
0.5
  0
TEXT
  5
3F0
  8
_________2
 62
     7
 10
18.021100000000001
 20
5.21143
 30
0.0
 40
3.0923400000000001
  1
備考
 41
0.5
  0
TEXT
  5
3F1
  8
_________2
 62
     7
 10
18.021100000000001
 20
19.410799999999998
 30
0.0
 40
3.0923400000000001
  1
製図
 41
0.5
  0
TEXT
  5
3F2
  8
_________2
 62
     7
 10
23.788465333333338
 20
27.936800000000002
 30
0.0
 40
4.4979399999999989
  1
セラトレーディング株式会社
 41
0.5
 72
     1
 11
41.180500000000002
 21
27.936800000000002
 31
0.0
  0
LINE
  5
3F3
  8
_________2
 62
     7
 10
183.55099999999999
 20
-4.0910799999999998
 30
0.0
 11
17.049499999999998
 21
-4.0910799999999998
 31
0.0
  0
LINE
  5
3F4
  8
_________2
 62
     7
 10
17.049499999999998
 20
-4.0910799999999998
 30
0.0
 11
17.049499999999998
 21
258.911
 31
0.0
  0
LINE
  5
3F5
  8
_________2
 62
     7
 10
17.049499999999998
 20
258.911
 30
0.0
 11
183.55099999999999
 21
258.911
 31
0.0
  0
LINE
  5
3F6
  8
_________2
 62
     7
 10
183.55099999999999
 20
258.911
 30
0.0
 11
183.55099999999999
 21
-4.0910799999999998
 31
0.0
  0
LINE
  5
3F7
  8
_________2
 62
     7
 10
65.549599999999998
 20
9.4089600000000004
 30
0.0
 11
65.549599999999998
 21
35.908799999999999
 31
0.0
  0
LINE
  5
3F8
  8
_________2
 62
     7
 10
84.549700000000016
 20
9.4089600000000004
 30
0.0
 11
84.549700000000016
 21
35.908799999999999
 31
0.0
  0
LINE
  5
3F9
  8
_________2
 62
     7
 10
103.55
 20
-4.0910799999999998
 30
0.0
 11
103.55
 21
35.908799999999999
 31
0.0
  0
LINE
  5
3FA
  8
_________2
 62
     7
 10
28.549299999999999
 20
9.4089600000000004
 30
0.0
 11
28.549299999999999
 21
23.409199999999998
 31
0.0
  0
LINE
  5
3FB
  8
_________2
 62
     7
 10
17.049499999999998
 20
9.4089600000000004
 30
0.0
 11
103.55
 21
9.4089600000000004
 31
0.0
  0
LINE
  5
3FC
  8
_________2
 62
     7
 10
17.049499999999998
 20
23.409199999999998
 30
0.0
 11
103.55
 21
23.409199999999998
 31
0.0
  0
LINE
  5
3FD
  8
_________2
 62
     7
 10
103.55
 20
15.9085
 30
0.0
 11
183.55099999999999
 21
15.9085
 31
0.0
  0
LINE
  5
3FE
  8
_________2
 62
     7
 10
17.049499999999998
 20
35.908799999999999
 30
0.0
 11
183.55099999999999
 21
35.908799999999999
 31
0.0
  0
ENDSEC
  0
EOF
