  0
SECTION
  2
HEADER
  9
$ACADVER
  1
AC1009
  9
$INSBASE
 10
0.0
 20
0.0
 30
0.0
  9
$EXTMIN
 10
-4.70052
 20
-21.071400000000001
 30
0.0
  9
$EXTMAX
 10
205.30099999999999
 20
275.93099999999998
 30
0.0
  9
$LIMMIN
 10
0.0
 20
0.0
  9
$LIMMAX
 10
12.0
 20
9.0
  9
$ORTHOMODE
 70
     0
  9
$REGENMODE
 70
     1
  9
$FILLMODE
 70
     1
  9
$QTEXTMODE
 70
     0
  9
$MIRRTEXT
 70
     1
  9
$DRAGMODE
 70
     2
  9
$LTSCALE
 40
1.0
  9
$OSMODE
 70
    37
  9
$ATTMODE
 70
     1
  9
$TEXTSIZE
 40
0.0
  9
$TRACEWID
 40
0.05
  9
$TEXTSTYLE
  7
STANDARD
  9
$CLAYER
  8
0
  9
$CELTYPE
  6
CONTINUOUS
  9
$CECOLOR
 62
   256
  9
$DIMSCALE
 40
1.0
  9
$DIMASZ
 40
0.18
  9
$DIMEXO
 40
0.0625
  9
$DIMDLI
 40
0.38
  9
$DIMRND
 40
0.0
  9
$DIMDLE
 40
0.0
  9
$DIMEXE
 40
0.18
  9
$DIMTP
 40
0.0
  9
$DIMTM
 40
0.0
  9
$DIMTXT
 40
0.18
  9
$DIMCEN
 40
0.09
  9
$DIMTSZ
 40
0.0
  9
$DIMTOL
 70
     0
  9
$DIMLIM
 70
     0
  9
$DIMTIH
 70
     1
  9
$DIMTOH
 70
     1
  9
$DIMSE1
 70
     0
  9
$DIMSE2
 70
     0
  9
$DIMTAD
 70
     0
  9
$DIMZIN
 70
     0
  9
$DIMBLK
  1

  9
$DIMASO
 70
     1
  9
$DIMSHO
 70
     1
  9
$DIMPOST
  1

  9
$DIMAPOST
  1

  9
$DIMALT
 70
     0
  9
$DIMALTD
 70
     2
  9
$DIMALTF
 40
25.399999999999999
  9
$DIMLFAC
 40
1.0
  9
$DIMTOFL
 70
     0
  9
$DIMTVP
 40
0.0
  9
$DIMTIX
 70
     0
  9
$DIMSOXD
 70
     0
  9
$DIMSAH
 70
     0
  9
$DIMBLK1
  1

  9
$DIMBLK2
  1

  9
$DIMSTYLE
  2
STANDARD
  9
$DIMCLRD
 70
     0
  9
$DIMCLRE
 70
     0
  9
$DIMCLRT
 70
     0
  9
$DIMTFAC
 40
1.0
  9
$DIMGAP
 40
0.09
  9
$LUNITS
 70
     2
  9
$LUPREC
 70
     4
  9
$SKETCHINC
 40
0.1
  9
$FILLETRAD
 40
0.0
  9
$AUNITS
 70
     0
  9
$AUPREC
 70
     0
  9
$MENU
  1
.
  9
$ELEVATION
 40
0.0
  9
$PELEVATION
 40
0.0
  9
$THICKNESS
 40
0.0
  9
$LIMCHECK
 70
     0
  9
$BLIPMODE
 70
     0
  9
$CHAMFERA
 40
0.0
  9
$CHAMFERB
 40
0.0
  9
$SKPOLY
 70
     0
  9
$TDCREATE
 40
2444972.375
  9
$TDUPDATE
 40
2457436.2547508571
  9
$TDINDWG
 40
0.0000271412
  9
$TDUSRTIMER
 40
0.0000271412
  9
$USRTIMER
 70
     1
  9
$ANGBASE
 50
0.0
  9
$ANGDIR
 70
     0
  9
$PDMODE
 70
     0
  9
$PDSIZE
 40
0.0
  9
$PLINEWID
 40
0.0
  9
$COORDS
 70
     1
  9
$SPLFRAME
 70
     0
  9
$SPLINETYPE
 70
     6
  9
$SPLINESEGS
 70
     8
  9
$ATTDIA
 70
     1
  9
$ATTREQ
 70
     1
  9
$HANDLING
 70
     1
  9
$HANDSEED
  5
2DE
  9
$SURFTAB1
 70
     6
  9
$SURFTAB2
 70
     6
  9
$SURFTYPE
 70
     6
  9
$SURFU
 70
     6
  9
$SURFV
 70
     6
  9
$UCSNAME
  2

  9
$UCSORG
 10
0.0
 20
0.0
 30
0.0
  9
$UCSXDIR
 10
1.0
 20
0.0
 30
0.0
  9
$UCSYDIR
 10
0.0
 20
1.0
 30
0.0
  9
$PUCSNAME
  2

  9
$PUCSORG
 10
0.0
 20
0.0
 30
0.0
  9
$PUCSXDIR
 10
1.0
 20
0.0
 30
0.0
  9
$PUCSYDIR
 10
0.0
 20
1.0
 30
0.0
  9
$USERI1
 70
     0
  9
$USERI2
 70
     0
  9
$USERI3
 70
     0
  9
$USERI4
 70
     0
  9
$USERI5
 70
     0
  9
$USERR1
 40
0.0
  9
$USERR2
 40
0.0
  9
$USERR3
 40
0.0
  9
$USERR4
 40
0.0
  9
$USERR5
 40
0.0
  9
$WORLDVIEW
 70
     1
  9
$SHADEDGE
 70
     3
  9
$SHADEDIF
 70
    70
  9
$TILEMODE
 70
     1
  9
$MAXACTVP
 70
    48
  9
$PLIMCHECK
 70
     0
  9
$PEXTMIN
 10
1.0000000000000000E+020
 20
1.0000000000000000E+020
 30
1.0000000000000000E+020
  9
$PEXTMAX
 10
-1.0000000000000000E+020
 20
-1.0000000000000000E+020
 30
-1.0000000000000000E+020
  9
$PLIMMIN
 10
0.0
 20
0.0
  9
$PLIMMAX
 10
12.0
 20
9.0
  9
$UNITMODE
 70
     0
  9
$VISRETAIN
 70
     1
  9
$PLINEGEN
 70
     0
  9
$PSLTSCALE
 70
     1
  0
ENDSEC
  0
SECTION
  2
TABLES
  0
TABLE
  2
VPORT
 70
     1
  0
VPORT
  2
*ACTIVE
 70
     0
 10
0.0
 20
0.0
 11
1.0
 21
1.0
 12
165.72805692007461
 22
127.4298
 13
0.0
 23
0.0
 14
1.0
 24
1.0
 15
0.0
 25
0.0
 16
0.0
 26
0.0
 36
1.0
 17
0.0
 27
0.0
 37
0.0
 40
283.5288175207607
 41
2.1001926782273599
 42
50.0
 43
0.0
 44
0.0
 50
0.0
 51
0.0
 71
     0
 72
   100
 73
     1
 74
     1
 75
     0
 76
     0
 77
     0
 78
     0
  0
ENDTAB
  0
TABLE
  2
LTYPE
 70
     3
  0
LTYPE
  2
CONTINUOUS
 70
     0
  3
Solid line
 72
    65
 73
     0
 40
0.0
  0
LTYPE
  2
AIGENLINE001
 70
     0
  3
generate AI->DXF Converter
 72
    65
 73
     4
 40
5.8561449999999988
 49
3.5278
 49
-0.776115
 49
0.776115
 49
-0.776115
  0
LTYPE
  2
AIGENLINE002
 70
     0
  3
generate AI->DXF Converter
 72
    65
 73
     2
 40
1.5522299999999991
 49
0.776115
 49
-0.776115
  0
ENDTAB
  0
TABLE
  2
LAYER
 70
     2
  0
LAYER
  2
0
 70
     0
 62
     7
  6
CONTINUOUS
  0
LAYER
  2
_________2
 70
     0
 62
     7
  6
CONTINUOUS
  0
ENDTAB
  0
TABLE
  2
STYLE
 70
     1
  0
STYLE
  2
STANDARD
 70
     0
 40
0.0
 41
0.0
 50
0.0
 71
     0
 42
0.0
  3
TXT
  4
EXTFONT.SHX
  0
ENDTAB
  0
TABLE
  2
VIEW
 70
     0
  0
ENDTAB
  0
TABLE
  2
UCS
 70
     0
  0
ENDTAB
  0
TABLE
  2
APPID
 70
     3
  0
APPID
  2
ACAD
 70
     0
  0
APPID
  2
ACAD_NAV_VCDISPLAY
 70
     0
  0
APPID
  2
ACAD_MLEADERVER
 70
     0
  0
ENDTAB
  0
TABLE
  2
DIMSTYLE
 70
     1
  0
DIMSTYLE
  2
STANDARD
 70
     0
  3

  4

  5

  6

  7

 40
1.0
 41
0.18
 42
0.0625
 43
0.38
 44
0.18
 45
0.0
 46
0.0
 47
0.0
 48
0.0
140
0.18
141
0.09
142
0.0
143
25.399999999999999
144
1.0
145
0.0
146
1.0
147
0.09
 71
     0
 72
     0
 73
     1
 74
     1
 75
     0
 76
     0
 77
     0
 78
     0
170
     0
171
     2
172
     0
173
     0
174
     0
175
     0
176
     0
177
     0
178
     0
  0
ENDTAB
  0
ENDSEC
  0
SECTION
  2
BLOCKS
  0
BLOCK
  8
0
  2
$MODEL_SPACE
 70
     0
 10
0.0
 20
0.0
 30
0.0
  3
$MODEL_SPACE
  1

  0
ENDBLK
  5
1A
  8
0
  0
BLOCK
 67
     1
  8
0
  2
$PAPER_SPACE
 70
     0
 10
0.0
 20
0.0
 30
0.0
  3
$PAPER_SPACE
  1

  0
ENDBLK
  5
17
 67
     1
  8
0
  0
ENDSEC
  0
SECTION
  2
ENTITIES
  0
TEXT
  5
23
  8
0
 62
     7
 10
73.306691000000001
 20
187.42400000000001
 30
0.0
 40
3.0923400000000001
  1
（%%c6\U+00D730 樹脂プラグ付）
 41
0.5
 72
     2
 11
95.519999999999996
 21
187.42400000000001
 31
0.0
  0
TEXT
  5
24
  8
0
 62
     7
 10
63.926592999999997
 20
191.98099999999999
 30
0.0
 40
3.0923400000000001
  1
%%c3.8\U+00D750 十字穴付SUS丸頭木ネジ
 41
0.5
 72
     2
 11
95.519999999999996
 21
191.98099999999999
 31
0.0
  0
TEXT
  5
25
  8
0
 62
     7
 10
107.79300000000001
 20
157.041135
 30
0.0
 40
3.0923400000000001
  1
%%c18
 50
90.0
 41
0.5
 72
     1
 11
107.79300000000001
 21
158.845
 31
0.0
  0
TEXT
  5
26
  8
0
 62
     7
 10
36.152200000000001
 20
165.59937249999999
 30
0.0
 40
3.0923400000000001
  1
70
 50
90.0
 41
0.5
 72
     1
 11
36.152200000000001
 21
166.75899999999999
 31
0.0
  0
TEXT
  5
27
  8
0
 62
     7
 10
161.78399999999999
 20
115.92713500000001
 30
0.0
 40
3.0923400000000001
  1
10
 50
90.0
 41
0.5
 72
     2
 11
161.78399999999999
 21
117.73099999999999
 31
0.0
  0
TEXT
  5
28
  8
0
 62
     7
 10
168.17400000000001
 20
106.58052499999999
 30
0.0
 40
3.0923400000000001
  1
26
 50
90.0
 41
0.5
 72
     1
 11
168.17400000000001
 21
107.869
 31
0.0
  0
TEXT
  5
29
  8
0
 62
     7
 10
71.052935000000005
 20
146.774
 30
0.0
 40
3.0923400000000001
  1
167
 41
0.5
 72
     1
 11
72.856800000000007
 21
146.774
 31
0.0
  0
TEXT
  5
2A
  8
0
 62
     7
 10
51.402225000000001
 20
208.66800000000001
 30
0.0
 40
3.0923400000000001
  1
46
 41
0.5
 72
     1
 11
52.6907
 21
208.66800000000001
 31
0.0
  0
TEXT
  5
2B
  8
0
 62
     7
 10
51.409925000000001
 20
201.773
 30
0.0
 40
3.0923400000000001
  1
24
 41
0.5
 72
     1
 11
52.698399999999999
 21
201.773
 31
0.0
  0
LINE
  5
2C
  8
0
 62
     7
 10
137.74299999999999
 20
108.23099999999999
 30
0.0
 11
151.65600000000001
 21
108.23099999999999
 31
0.0
  0
LINE
  5
2D
  8
0
 62
     7
 10
137.74299999999999
 20
109.498
 30
0.0
 11
151.65600000000001
 21
109.498
 31
0.0
  0
LINE
  5
2E
  8
0
 62
     7
 10
151.892
 20
109.82899999999999
 30
0.0
 11
152.495
 21
107.90000000000001
 31
0.0
  0
LINE
  5
2F
  8
0
 62
     7
 10
150.839
 20
109.82899999999999
 30
0.0
 11
151.44300000000001
 21
107.90000000000001
 31
0.0
  0
LINE
  5
30
  8
0
 62
     7
 10
149.786
 20
109.82899999999999
 30
0.0
 11
150.3899999999999
 21
107.90000000000001
 31
0.0
  0
LINE
  5
31
  8
0
 62
     7
 10
148.73400000000001
 20
109.82899999999999
 30
0.0
 11
149.33699999999999
 21
107.90000000000001
 31
0.0
  0
LINE
  5
32
  8
0
 62
     7
 10
147.68100000000001
 20
109.82899999999999
 30
0.0
 11
148.28399999999999
 21
107.90000000000001
 31
0.0
  0
LINE
  5
33
  8
0
 62
     7
 10
146.62899999999999
 20
109.82899999999999
 30
0.0
 11
147.232
 21
107.90000000000001
 31
0.0
  0
LINE
  5
34
  8
0
 62
     7
 10
145.57599999999999
 20
109.82899999999999
 30
0.0
 11
146.179
 21
107.90000000000001
 31
0.0
  0
LINE
  5
35
  8
0
 62
     7
 10
144.523
 20
109.82899999999999
 30
0.0
 11
145.12700000000001
 21
107.90000000000001
 31
0.0
  0
LINE
  5
36
  8
0
  6
AIGENLINE001
 62
     7
 10
136.65199999999999
 20
108.864
 30
0.0
 11
154.74199999999999
 21
108.864
 31
0.0
  0
LINE
  5
37
  8
0
 62
     7
 10
151.65600000000001
 20
108.23099999999999
 30
0.0
 11
153.41
 21
108.864
 31
0.0
  0
LINE
  5
38
  8
0
 62
     7
 10
151.65600000000001
 20
109.498
 30
0.0
 11
153.41
 21
108.864
 31
0.0
  0
LINE
  5
39
  8
0
 62
     7
 10
142.41800000000001
 20
109.82899999999999
 30
0.0
 11
143.02099999999999
 21
107.90000000000001
 31
0.0
  0
LINE
  5
3A
  8
0
 62
     7
 10
143.471
 20
109.82899999999999
 30
0.0
 11
144.07400000000001
 21
107.90000000000001
 31
0.0
  0
LINE
  5
3B
  8
0
 62
     7
 10
141.74299999999999
 20
109.498
 30
0.0
 11
141.74299999999999
 21
108.23099999999999
 31
0.0
  0
LINE
  5
3C
  8
0
 62
     7
 10
57.331699999999998
 20
178.5079999999999
 30
0.0
 11
57.331699999999998
 21
192.41999999999999
 31
0.0
  0
LINE
  5
3D
  8
0
 62
     7
 10
56.064999999999998
 20
178.5079999999999
 30
0.0
 11
56.064999999999998
 21
192.41999999999999
 31
0.0
  0
LINE
  5
3E
  8
0
 62
     7
 10
55.733899999999991
 20
192.65600000000001
 30
0.0
 11
57.662799999999997
 21
193.25999999999999
 31
0.0
  0
LINE
  5
3F
  8
0
 62
     7
 10
55.733899999999991
 20
191.60400000000001
 30
0.0
 11
57.662799999999997
 21
192.20699999999999
 31
0.0
  0
LINE
  5
40
  8
0
 62
     7
 10
55.733899999999991
 20
190.5509999999999
 30
0.0
 11
57.662799999999997
 21
191.154
 31
0.0
  0
LINE
  5
41
  8
0
 62
     7
 10
55.733899999999991
 20
189.499
 30
0.0
 11
57.662799999999997
 21
190.102
 31
0.0
  0
LINE
  5
42
  8
0
 62
     7
 10
55.733899999999991
 20
188.446
 30
0.0
 11
57.662799999999997
 21
189.04900000000001
 31
0.0
  0
LINE
  5
43
  8
0
 62
     7
 10
55.733899999999991
 20
187.393
 30
0.0
 11
57.662799999999997
 21
187.99600000000001
 31
0.0
  0
LINE
  5
44
  8
0
 62
     7
 10
55.733899999999991
 20
186.34
 30
0.0
 11
57.662799999999997
 21
186.94399999999999
 31
0.0
  0
LINE
  5
45
  8
0
 62
     7
 10
55.733899999999991
 20
185.28800000000001
 30
0.0
 11
57.662799999999997
 21
185.89099999999999
 31
0.0
  0
LINE
  5
46
  8
0
  6
AIGENLINE001
 62
     7
 10
56.698500000000003
 20
177.416
 30
0.0
 11
56.698500000000003
 21
195.50599999999989
 31
0.0
  0
LINE
  5
47
  8
0
 62
     7
 10
57.331699999999998
 20
192.41999999999999
 30
0.0
 11
56.698500000000003
 21
194.17500000000001
 31
0.0
  0
LINE
  5
48
  8
0
 62
     7
 10
56.064999999999998
 20
192.41999999999999
 30
0.0
 11
56.698500000000003
 21
194.17500000000001
 31
0.0
  0
LINE
  5
49
  8
0
 62
     7
 10
55.733899999999991
 20
183.18299999999999
 30
0.0
 11
57.662799999999997
 21
183.786
 31
0.0
  0
LINE
  5
4A
  8
0
 62
     7
 10
55.733899999999991
 20
184.23500000000001
 30
0.0
 11
57.662799999999997
 21
184.83799999999999
 31
0.0
  0
LINE
  5
4B
  8
0
 62
     7
 10
56.064999999999998
 20
182.5079999999999
 30
0.0
 11
57.331699999999998
 21
182.5079999999999
 31
0.0
  0
LINE
  5
4C
  8
0
 62
     7
 10
49.331699999999998
 20
178.5079999999999
 30
0.0
 11
49.331699999999998
 21
192.41999999999999
 31
0.0
  0
LINE
  5
4D
  8
0
 62
     7
 10
48.065100000000001
 20
178.5079999999999
 30
0.0
 11
48.065100000000001
 21
192.41999999999999
 31
0.0
  0
LINE
  5
4E
  8
0
 62
     7
 10
47.733800000000002
 20
192.65600000000001
 30
0.0
 11
49.6629
 21
193.25999999999999
 31
0.0
  0
LINE
  5
4F
  8
0
 62
     7
 10
47.733800000000002
 20
191.60400000000001
 30
0.0
 11
49.6629
 21
192.20699999999999
 31
0.0
  0
LINE
  5
50
  8
0
 62
     7
 10
47.733800000000002
 20
190.5509999999999
 30
0.0
 11
49.6629
 21
191.154
 31
0.0
  0
LINE
  5
51
  8
0
 62
     7
 10
47.733800000000002
 20
189.499
 30
0.0
 11
49.6629
 21
190.102
 31
0.0
  0
LINE
  5
52
  8
0
 62
     7
 10
47.733800000000002
 20
188.446
 30
0.0
 11
49.6629
 21
189.04900000000001
 31
0.0
  0
LINE
  5
53
  8
0
 62
     7
 10
47.733800000000002
 20
187.393
 30
0.0
 11
49.6629
 21
187.99600000000001
 31
0.0
  0
LINE
  5
54
  8
0
 62
     7
 10
47.733800000000002
 20
186.34
 30
0.0
 11
49.6629
 21
186.94399999999999
 31
0.0
  0
LINE
  5
55
  8
0
 62
     7
 10
47.733800000000002
 20
185.28800000000001
 30
0.0
 11
49.6629
 21
185.89099999999999
 31
0.0
  0
LINE
  5
56
  8
0
  6
AIGENLINE001
 62
     7
 10
52.698399999999999
 20
100.795
 30
0.0
 11
52.698399999999999
 21
116.51300000000001
 31
0.0
  0
LINE
  5
57
  8
0
  6
AIGENLINE001
 62
     7
 10
52.698399999999999
 20
152.95500000000001
 30
0.0
 11
52.698399999999999
 21
180.864
 31
0.0
  0
LINE
  5
58
  8
0
  6
AIGENLINE001
 62
     7
 10
48.698500000000003
 20
177.416
 30
0.0
 11
48.698500000000003
 21
195.50599999999989
 31
0.0
  0
LINE
  5
59
  8
0
 62
     7
 10
49.331699999999998
 20
192.41999999999999
 30
0.0
 11
48.698500000000003
 21
194.17500000000001
 31
0.0
  0
LINE
  5
5A
  8
0
 62
     7
 10
48.065100000000001
 20
192.41999999999999
 30
0.0
 11
48.698500000000003
 21
194.17500000000001
 31
0.0
  0
LINE
  5
5B
  8
0
 62
     7
 10
47.733800000000002
 20
183.18299999999999
 30
0.0
 11
49.6629
 21
183.786
 31
0.0
  0
LINE
  5
5C
  8
0
 62
     7
 10
47.733800000000002
 20
184.23500000000001
 30
0.0
 11
49.6629
 21
184.83799999999999
 31
0.0
  0
LINE
  5
5D
  8
0
 62
     7
 10
48.065100000000001
 20
182.5079999999999
 30
0.0
 11
49.331699999999998
 21
182.5079999999999
 31
0.0
  0
LINE
  5
5E
  8
0
 62
     7
 10
45.023200000000003
 20
156.36799999999999
 30
0.0
 11
45.023200000000003
 21
145.37899999999999
 31
0.0
  0
LINE
  5
5F
  8
0
 62
     7
 10
100.69
 20
145.37899999999999
 30
0.0
 11
100.69
 21
155.39400000000001
 31
0.0
  0
LINE
  5
60
  8
0
 62
     7
 10
47.233199999999997
 20
146.66200000000001
 30
0.0
 11
45.021500000000003
 21
146.06899999999999
 31
0.0
  0
LINE
  5
61
  8
0
 62
     7
 10
45.021500000000003
 20
146.06899999999999
 30
0.0
 11
47.233199999999997
 21
145.477
 31
0.0
  0
LINE
  5
62
  8
0
 62
     7
 10
47.233199999999997
 20
145.477
 30
0.0
 11
47.233199999999997
 21
146.66200000000001
 31
0.0
  0
LINE
  5
63
  8
0
 62
     7
 10
98.478300000000004
 20
145.48599999999999
 30
0.0
 11
100.69
 21
146.07900000000001
 31
0.0
  0
LINE
  5
64
  8
0
 62
     7
 10
100.69
 20
146.07900000000001
 30
0.0
 11
98.478300000000004
 21
146.672
 31
0.0
  0
LINE
  5
65
  8
0
 62
     7
 10
98.478300000000004
 20
146.672
 30
0.0
 11
98.478300000000004
 21
145.48599999999999
 31
0.0
  0
LINE
  5
66
  8
0
 62
     7
 10
45.022199999999998
 20
146.07400000000001
 30
0.0
 11
100.68899999999999
 21
146.07400000000001
 31
0.0
  0
LINE
  5
67
  8
0
 62
     7
 10
45.023200000000003
 20
178.97499999999999
 30
0.0
 11
45.023200000000003
 21
208.66300000000001
 31
0.0
  0
LINE
  5
68
  8
0
 62
     7
 10
60.3581
 20
208.66300000000001
 30
0.0
 11
60.3581
 21
178.97499999999999
 31
0.0
  0
LINE
  5
69
  8
0
 62
     7
 10
47.234999999999999
 20
208.55500000000001
 30
0.0
 11
45.023200000000003
 21
207.96299999999999
 31
0.0
  0
LINE
  5
6A
  8
0
 62
     7
 10
45.023200000000003
 20
207.96299999999999
 30
0.0
 11
47.234999999999999
 21
207.37
 31
0.0
  0
LINE
  5
6B
  8
0
 62
     7
 10
47.234999999999999
 20
207.37
 30
0.0
 11
47.234999999999999
 21
208.55500000000001
 31
0.0
  0
LINE
  5
6C
  8
0
 62
     7
 10
58.1477
 20
207.38
 30
0.0
 11
60.35949999999999
 21
207.97200000000001
 31
0.0
  0
LINE
  5
6D
  8
0
 62
     7
 10
60.35949999999999
 20
207.97200000000001
 30
0.0
 11
58.1477
 21
208.565
 31
0.0
  0
LINE
  5
6E
  8
0
 62
     7
 10
58.1477
 20
208.565
 30
0.0
 11
58.1477
 21
207.38
 31
0.0
  0
LINE
  5
6F
  8
0
 62
     7
 10
45.023899999999998
 20
207.96799999999999
 30
0.0
 11
60.358800000000002
 21
207.96799999999999
 31
0.0
  0
LINE
  5
70
  8
0
 62
     7
 10
48.698500000000003
 20
195.97300000000001
 30
0.0
 11
48.698500000000003
 21
201.768
 31
0.0
  0
LINE
  5
71
  8
0
 62
     7
 10
56.698500000000003
 20
201.768
 30
0.0
 11
56.698500000000003
 21
195.97300000000001
 31
0.0
  0
LINE
  5
72
  8
0
 62
     7
 10
50.910200000000003
 20
201.66
 30
0.0
 11
48.698500000000003
 21
201.06800000000001
 31
0.0
  0
LINE
  5
73
  8
0
 62
     7
 10
48.698500000000003
 20
201.06800000000001
 30
0.0
 11
50.910200000000003
 21
200.47499999999999
 31
0.0
  0
LINE
  5
74
  8
0
 62
     7
 10
50.910200000000003
 20
200.47499999999999
 30
0.0
 11
50.910200000000003
 21
201.66
 31
0.0
  0
LINE
  5
75
  8
0
 62
     7
 10
54.488100000000003
 20
200.48500000000001
 30
0.0
 11
56.6999
 21
201.077
 31
0.0
  0
LINE
  5
76
  8
0
 62
     7
 10
56.6999
 20
201.077
 30
0.0
 11
54.488100000000003
 21
201.66999999999999
 31
0.0
  0
LINE
  5
77
  8
0
 62
     7
 10
54.488100000000003
 20
201.66999999999999
 30
0.0
 11
54.488100000000003
 21
200.48500000000001
 31
0.0
  0
LINE
  5
78
  8
0
 62
     7
 10
48.699100000000001
 20
201.07300000000001
 30
0.0
 11
56.699199999999998
 21
201.07300000000001
 31
0.0
  0
LINE
  5
79
  8
0
 62
     7
 10
109.188
 20
161.84399999999999
 30
0.0
 11
101.28700000000001
 21
161.84399999999999
 31
0.0
  0
LINE
  5
7A
  8
0
 62
     7
 10
101.089
 20
155.845
 30
0.0
 11
109.188
 21
155.845
 31
0.0
  0
LINE
  5
7B
  8
0
 62
     7
 10
109.08
 20
159.63300000000001
 30
0.0
 11
108.488
 21
161.84399999999999
 31
0.0
  0
LINE
  5
7C
  8
0
 62
     7
 10
108.488
 20
161.84399999999999
 30
0.0
 11
107.896
 21
159.63300000000001
 31
0.0
  0
LINE
  5
7D
  8
0
 62
     7
 10
107.896
 20
159.63300000000001
 30
0.0
 11
109.08
 21
159.63300000000001
 31
0.0
  0
LINE
  5
7E
  8
0
 62
     7
 10
107.905
 20
158.05600000000001
 30
0.0
 11
108.497
 21
155.845
 31
0.0
  0
LINE
  5
7F
  8
0
 62
     7
 10
108.497
 20
155.845
 30
0.0
 11
109.09
 21
158.05600000000001
 31
0.0
  0
LINE
  5
80
  8
0
 62
     7
 10
109.09
 20
158.05600000000001
 30
0.0
 11
107.905
 21
158.05600000000001
 31
0.0
  0
LINE
  5
81
  8
0
 62
     7
 10
108.49299999999999
 20
161.84299999999999
 30
0.0
 11
108.49299999999999
 21
155.845
 31
0.0
  0
LINE
  5
82
  8
0
 62
     7
 10
36.147399999999998
 20
178.5079999999999
 30
0.0
 11
44.323199999999993
 21
178.5079999999999
 31
0.0
  0
LINE
  5
83
  8
0
 62
     7
 10
36.156999999999996
 20
155.011
 30
0.0
 11
45.687100000000001
 21
155.011
 31
0.0
  0
LINE
  5
84
  8
0
 62
     7
 10
37.439999999999998
 20
176.297
 30
0.0
 11
36.8474
 21
178.5079999999999
 31
0.0
  0
LINE
  5
85
  8
0
 62
     7
 10
36.8474
 20
178.5079999999999
 30
0.0
 11
36.2547
 21
176.297
 31
0.0
  0
LINE
  5
86
  8
0
 62
     7
 10
36.2547
 20
176.297
 30
0.0
 11
37.439999999999998
 21
176.297
 31
0.0
  0
LINE
  5
87
  8
0
 62
     7
 10
36.264299999999999
 20
157.221
 30
0.0
 11
36.857100000000003
 21
155.00999999999999
 31
0.0
  0
LINE
  5
88
  8
0
 62
     7
 10
36.857100000000003
 20
155.00999999999999
 30
0.0
 11
37.449599999999997
 21
157.221
 31
0.0
  0
LINE
  5
89
  8
0
 62
     7
 10
37.449599999999997
 20
157.221
 30
0.0
 11
36.264299999999999
 21
157.221
 31
0.0
  0
LINE
  5
8A
  8
0
 62
     7
 10
36.852200000000011
 20
178.5079999999999
 30
0.0
 11
36.852200000000011
 21
155.00999999999999
 31
0.0
  0
LINE
  5
8B
  8
0
 62
     7
 10
163.18000000000001
 20
108.864
 30
0.0
 11
155.71299999999999
 21
108.864
 31
0.0
  0
LINE
  5
8C
  8
0
 62
     7
 10
161.892
 20
106.65300000000001
 30
0.0
 11
162.48400000000001
 21
108.864
 31
0.0
  0
LINE
  5
8D
  8
0
 62
     7
 10
162.48400000000001
 20
108.864
 30
0.0
 11
163.077
 21
106.65300000000001
 31
0.0
  0
LINE
  5
8E
  8
0
 62
     7
 10
163.077
 20
106.65300000000001
 30
0.0
 11
161.892
 21
106.65300000000001
 31
0.0
  0
LINE
  5
8F
  8
0
 62
     7
 10
163.077
 20
114.40900000000001
 30
0.0
 11
162.48400000000001
 21
112.19799999999999
 31
0.0
  0
LINE
  5
90
  8
0
 62
     7
 10
162.48400000000001
 20
112.19799999999999
 30
0.0
 11
161.892
 21
114.40900000000001
 31
0.0
  0
LINE
  5
91
  8
0
 62
     7
 10
161.892
 20
114.40900000000001
 30
0.0
 11
163.077
 21
114.40900000000001
 31
0.0
  0
LINE
  5
92
  8
0
 62
     7
 10
162.48400000000001
 20
117.73099999999999
 30
0.0
 11
162.48400000000001
 21
105.7
 31
0.0
  0
LINE
  5
93
  8
0
 62
     7
 10
138.21000000000001
 20
112.19799999999999
 30
0.0
 11
169.56899999999999
 21
112.19799999999999
 31
0.0
  0
LINE
  5
94
  8
0
 62
     7
 10
169.56899999999999
 20
103.541
 30
0.0
 11
138.21000000000001
 21
103.541
 31
0.0
  0
LINE
  5
95
  8
0
 62
     7
 10
168.28599999999989
 20
109.98699999999999
 30
0.0
 11
168.87899999999999
 21
112.199
 31
0.0
  0
LINE
  5
96
  8
0
 62
     7
 10
168.87899999999999
 20
112.199
 30
0.0
 11
169.47099999999989
 21
109.98699999999999
 31
0.0
  0
LINE
  5
97
  8
0
 62
     7
 10
169.47099999999989
 20
109.98699999999999
 30
0.0
 11
168.28599999999989
 21
109.98699999999999
 31
0.0
  0
LINE
  5
98
  8
0
 62
     7
 10
169.46199999999999
 20
105.752
 30
0.0
 11
168.869
 21
103.541
 31
0.0
  0
LINE
  5
99
  8
0
 62
     7
 10
168.869
 20
103.541
 30
0.0
 11
168.27699999999999
 21
105.752
 31
0.0
  0
LINE
  5
9A
  8
0
 62
     7
 10
168.27699999999999
 20
105.752
 30
0.0
 11
169.46199999999999
 21
105.752
 31
0.0
  0
LINE
  5
9B
  8
0
 62
     7
 10
168.874
 20
112.199
 30
0.0
 11
168.874
 21
103.542
 31
0.0
  0
LINE
  5
9C
  8
0
 62
     7
 10
60.219099999999997
 20
161.99799999999999
 30
0.0
 11
60.219099999999997
 21
161.983
 31
0.0
  0
LINE
  5
9D
  8
0
 62
     7
 10
60.219099999999997
 20
161.983
 30
0.0
 11
60.219099999999997
 21
161.96700000000001
 31
0.0
  0
LINE
  5
9E
  8
0
 62
     7
 10
60.219099999999997
 20
161.96700000000001
 30
0.0
 11
60.219099999999997
 21
161.952
 31
0.0
  0
LINE
  5
9F
  8
0
 62
     7
 10
60.219099999999997
 20
161.952
 30
0.0
 11
60.219099999999997
 21
161.93600000000001
 31
0.0
  0
LINE
  5
A0
  8
0
 62
     7
 10
60.219099999999997
 20
161.93600000000001
 30
0.0
 11
60.203800000000001
 21
161.88999999999999
 31
0.0
  0
LINE
  5
A1
  8
0
 62
     7
 10
60.203800000000001
 20
161.88999999999999
 30
0.0
 11
60.203800000000001
 21
161.84399999999999
 31
0.0
  0
LINE
  5
A2
  8
0
 62
     7
 10
60.203800000000001
 20
161.84399999999999
 30
0.0
 11
60.188099999999999
 21
161.67400000000001
 31
0.0
  0
LINE
  5
A3
  8
0
 62
     7
 10
60.188099999999999
 20
161.67400000000001
 30
0.0
 11
60.172899999999998
 21
161.45699999999999
 31
0.0
  0
LINE
  5
A4
  8
0
 62
     7
 10
60.172899999999998
 20
161.45699999999999
 30
0.0
 11
60.157400000000003
 21
161.21000000000001
 31
0.0
  0
LINE
  5
A5
  8
0
 62
     7
 10
60.157400000000003
 20
161.21000000000001
 30
0.0
 11
60.126399999999997
 21
160.947
 31
0.0
  0
LINE
  5
A6
  8
0
 62
     7
 10
60.126399999999997
 20
160.947
 30
0.0
 11
60.110900000000001
 21
160.63800000000001
 31
0.0
  0
LINE
  5
A7
  8
0
 62
     7
 10
60.110900000000001
 20
160.63800000000001
 30
0.0
 11
60.095399999999998
 21
160.31299999999999
 31
0.0
  0
LINE
  5
A8
  8
0
 62
     7
 10
60.095399999999998
 20
160.31299999999999
 30
0.0
 11
60.064599999999999
 21
159.602
 31
0.0
  0
LINE
  5
A9
  8
0
 62
     7
 10
60.064599999999999
 20
159.602
 30
0.0
 11
60.048900000000003
 21
158.845
 31
0.0
  0
LINE
  5
AA
  8
0
 62
     7
 10
60.048900000000003
 20
158.845
 30
0.0
 11
60.048900000000003
 21
158.62799999999999
 31
0.0
  0
LINE
  5
AB
  8
0
 62
     7
 10
60.048900000000003
 20
158.62799999999999
 30
0.0
 11
60.048900000000003
 21
158.458
 31
0.0
  0
LINE
  5
AC
  8
0
 62
     7
 10
60.048900000000003
 20
158.458
 30
0.0
 11
60.048900000000003
 21
158.28800000000001
 31
0.0
  0
LINE
  5
AD
  8
0
 62
     7
 10
60.048900000000003
 20
158.28800000000001
 30
0.0
 11
60.048900000000003
 21
158.08699999999999
 31
0.0
  0
LINE
  5
AE
  8
0
 62
     7
 10
60.048900000000003
 20
158.08699999999999
 30
0.0
 11
60.048900000000003
 21
157.73099999999999
 31
0.0
  0
LINE
  5
AF
  8
0
 62
     7
 10
60.048900000000003
 20
157.73099999999999
 30
0.0
 11
60.064599999999999
 21
157.376
 31
0.0
  0
LINE
  5
B0
  8
0
 62
     7
 10
60.064599999999999
 20
157.376
 30
0.0
 11
60.080300000000001
 21
157.036
 31
0.0
  0
LINE
  5
B1
  8
0
 62
     7
 10
60.080300000000001
 20
157.036
 30
0.0
 11
60.095399999999998
 21
156.74199999999999
 31
0.0
  0
LINE
  5
B2
  8
0
 62
     7
 10
60.095399999999998
 20
156.74199999999999
 30
0.0
 11
60.110900000000001
 21
156.464
 31
0.0
  0
LINE
  5
B3
  8
0
 62
     7
 10
60.110900000000001
 20
156.464
 30
0.0
 11
60.126399999999997
 21
156.232
 31
0.0
  0
LINE
  5
B4
  8
0
 62
     7
 10
60.126399999999997
 20
156.232
 30
0.0
 11
60.141800000000003
 21
156.01599999999999
 31
0.0
  0
LINE
  5
B5
  8
0
 62
     7
 10
60.141800000000003
 20
156.01599999999999
 30
0.0
 11
60.157400000000003
 21
155.845
 31
0.0
  0
LINE
  5
B6
  8
0
 62
     7
 10
60.157400000000003
 20
155.845
 30
0.0
 11
60.157400000000003
 21
155.78399999999999
 31
0.0
  0
LINE
  5
B7
  8
0
 62
     7
 10
60.157400000000003
 20
155.78399999999999
 30
0.0
 11
60.157400000000003
 21
155.73699999999999
 31
0.0
  0
LINE
  5
B8
  8
0
 62
     7
 10
60.157400000000003
 20
155.73699999999999
 30
0.0
 11
60.157400000000003
 21
155.691
 31
0.0
  0
LINE
  5
B9
  8
0
 62
     7
 10
45.2239
 20
157.63900000000001
 30
0.0
 11
45.255200000000002
 21
157.23699999999999
 31
0.0
  0
LINE
  5
BA
  8
0
 62
     7
 10
45.255200000000002
 20
157.23699999999999
 30
0.0
 11
45.347900000000003
 21
156.83500000000001
 31
0.0
  0
LINE
  5
BB
  8
0
 62
     7
 10
45.347900000000003
 20
156.83500000000001
 30
0.0
 11
45.51789999999999
 21
156.43299999999999
 31
0.0
  0
LINE
  5
BC
  8
0
 62
     7
 10
45.51789999999999
 20
156.43299999999999
 30
0.0
 11
45.780599999999993
 21
156.03100000000001
 31
0.0
  0
LINE
  5
BD
  8
0
 62
     7
 10
45.780599999999993
 20
156.03100000000001
 30
0.0
 11
46.151800000000001
 21
155.64500000000001
 31
0.0
  0
LINE
  5
BE
  8
0
 62
     7
 10
46.151800000000001
 20
155.64500000000001
 30
0.0
 11
46.553699999999999
 21
155.351
 31
0.0
  0
LINE
  5
BF
  8
0
 62
     7
 10
46.553699999999999
 20
155.351
 30
0.0
 11
46.9557
 21
155.16499999999999
 31
0.0
  0
LINE
  5
C0
  8
0
 62
     7
 10
46.9557
 20
155.16499999999999
 30
0.0
 11
47.357599999999991
 21
155.05699999999999
 31
0.0
  0
LINE
  5
C1
  8
0
 62
     7
 10
47.357599999999991
 20
155.05699999999999
 30
0.0
 11
47.759500000000003
 21
155.011
 31
0.0
  0
LINE
  5
C2
  8
0
 62
     7
 10
47.759500000000003
 20
155.011
 30
0.0
 11
47.883200000000002
 21
155.011
 31
0.0
  0
LINE
  5
C3
  8
0
 62
     7
 10
59.600700000000003
 20
155.011
 30
0.0
 11
59.786200000000001
 21
155.042
 31
0.0
  0
LINE
  5
C4
  8
0
 62
     7
 10
59.786200000000001
 20
155.042
 30
0.0
 11
59.971699999999998
 21
155.15000000000001
 31
0.0
  0
LINE
  5
C5
  8
0
 62
     7
 10
59.971699999999998
 20
155.15000000000001
 30
0.0
 11
60.110900000000001
 21
155.33500000000001
 31
0.0
  0
LINE
  5
C6
  8
0
 62
     7
 10
60.110900000000001
 20
155.33500000000001
 30
0.0
 11
60.157400000000003
 21
155.52099999999999
 31
0.0
  0
LINE
  5
C7
  8
0
 62
     7
 10
60.157400000000003
 20
155.52099999999999
 30
0.0
 11
60.172899999999998
 21
155.583
 31
0.0
  0
LINE
  5
C8
  8
0
 62
     7
 10
59.585500000000003
 20
155.011
 30
0.0
 11
47.883200000000002
 21
155.011
 31
0.0
  0
LINE
  5
C9
  8
0
 62
     7
 10
60.157400000000003
 20
155.691
 30
0.0
 11
60.157400000000003
 21
155.56800000000001
 31
0.0
  0
LINE
  5
CA
  8
0
 62
     7
 10
60.219099999999997
 20
161.99799999999999
 30
0.0
 11
60.3581
 21
178.5079999999999
 31
0.0
  0
LINE
  5
CB
  8
0
 62
     7
 10
45.023200000000003
 20
178.5079999999999
 30
0.0
 11
45.2087
 21
157.654
 31
0.0
  0
LINE
  5
CC
  8
0
 62
     7
 10
45.023200000000003
 20
178.5079999999999
 30
0.0
 11
60.3581
 21
178.5079999999999
 31
0.0
  0
LINE
  5
CD
  8
0
 62
     7
 10
99.685500000000005
 20
155.845
 30
0.0
 11
60.157400000000003
 21
155.845
 31
0.0
  0
LINE
  5
CE
  8
0
 62
     7
 10
99.685500000000005
 20
161.84399999999999
 30
0.0
 11
99.685500000000005
 21
161.76599999999999
 31
0.0
  0
LINE
  5
CF
  8
0
 62
     7
 10
99.685500000000005
 20
161.76599999999999
 30
0.0
 11
99.685500000000005
 21
161.47200000000001
 31
0.0
  0
LINE
  5
D0
  8
0
 62
     7
 10
99.685500000000005
 20
161.84399999999999
 30
0.0
 11
60.203800000000001
 21
161.84399999999999
 31
0.0
  0
LINE
  5
D1
  8
0
 62
     7
 10
99.685500000000005
 20
155.90700000000001
 30
0.0
 11
99.685500000000005
 21
156.20099999999999
 31
0.0
  0
LINE
  5
D2
  8
0
 62
     7
 10
99.685500000000005
 20
156.20099999999999
 30
0.0
 11
99.685500000000005
 21
161.47200000000001
 31
0.0
  0
LINE
  5
D3
  8
0
 62
     7
 10
99.685500000000005
 20
155.845
 30
0.0
 11
99.685500000000005
 21
155.90700000000001
 31
0.0
  0
LINE
  5
D4
  8
0
 62
     7
 10
100.319
 20
155.845
 30
0.0
 11
100.474
 21
155.86099999999999
 31
0.0
  0
LINE
  5
D5
  8
0
 62
     7
 10
100.474
 20
155.86099999999999
 30
0.0
 11
100.613
 21
155.98400000000001
 31
0.0
  0
LINE
  5
D6
  8
0
 62
     7
 10
100.613
 20
155.98400000000001
 30
0.0
 11
100.65900000000001
 21
156.124
 31
0.0
  0
LINE
  5
D7
  8
0
 62
     7
 10
100.65900000000001
 20
156.124
 30
0.0
 11
100.675
 21
156.16999999999999
 31
0.0
  0
LINE
  5
D8
  8
0
 62
     7
 10
100.675
 20
156.16999999999999
 30
0.0
 11
100.69
 21
158.845
 31
0.0
  0
LINE
  5
D9
  8
0
 62
     7
 10
100.69
 20
158.845
 30
0.0
 11
100.675
 21
161.51900000000001
 31
0.0
  0
LINE
  5
DA
  8
0
 62
     7
 10
100.675
 20
161.50299999999999
 30
0.0
 11
100.64400000000001
 21
161.642
 31
0.0
  0
LINE
  5
DB
  8
0
 62
     7
 10
100.64400000000001
 20
161.642
 30
0.0
 11
100.52
 21
161.78200000000001
 31
0.0
  0
LINE
  5
DC
  8
0
 62
     7
 10
100.52
 20
161.78200000000001
 30
0.0
 11
100.381
 21
161.828
 31
0.0
  0
LINE
  5
DD
  8
0
 62
     7
 10
100.381
 20
161.828
 30
0.0
 11
100.319
 21
161.84399999999999
 31
0.0
  0
LINE
  5
DE
  8
0
 62
     7
 10
99.747200000000007
 20
161.84399999999999
 30
0.0
 11
99.685500000000005
 21
161.76599999999999
 31
0.0
  0
LINE
  5
DF
  8
0
 62
     7
 10
99.747200000000007
 20
161.84399999999999
 30
0.0
 11
100.319
 21
161.84399999999999
 31
0.0
  0
LINE
  5
E0
  8
0
 62
     7
 10
99.685500000000005
 20
156.20099999999999
 30
0.0
 11
99.685500000000005
 21
161.47200000000001
 31
0.0
  0
LINE
  5
E1
  8
0
 62
     7
 10
99.685500000000005
 20
161.47200000000001
 30
0.0
 11
99.685500000000005
 21
161.76599999999999
 31
0.0
  0
LINE
  5
E2
  8
0
 62
     7
 10
99.685500000000005
 20
155.90700000000001
 30
0.0
 11
99.747200000000007
 21
155.845
 31
0.0
  0
LINE
  5
E3
  8
0
 62
     7
 10
99.747200000000007
 20
155.845
 30
0.0
 11
100.319
 21
155.845
 31
0.0
  0
LINE
  5
E4
  8
0
 62
     7
 10
99.685500000000005
 20
155.90700000000001
 30
0.0
 11
99.685500000000005
 21
156.20099999999999
 31
0.0
  0
LINE
  5
E5
  8
0
 62
     7
 10
99.747200000000007
 20
161.84399999999999
 30
0.0
 11
99.747200000000007
 21
155.845
 31
0.0
  0
LINE
  5
E6
  8
0
 62
     7
 10
114.88
 20
104.67
 30
0.0
 11
119.208
 21
104.453
 31
0.0
  0
LINE
  5
E7
  8
0
 62
     7
 10
119.208
 20
104.453
 30
0.0
 11
123.53700000000001
 21
104.23699999999999
 31
0.0
  0
LINE
  5
E8
  8
0
 62
     7
 10
123.53700000000001
 20
104.23699999999999
 30
0.0
 11
127.86499999999999
 21
104.02
 31
0.0
  0
LINE
  5
E9
  8
0
 62
     7
 10
127.86499999999999
 20
104.02
 30
0.0
 11
132.19399999999999
 21
103.804
 31
0.0
  0
LINE
  5
EA
  8
0
 62
     7
 10
132.19399999999999
 20
103.804
 30
0.0
 11
132.209
 21
103.804
 31
0.0
  0
LINE
  5
EB
  8
0
 62
     7
 10
132.209
 20
103.804
 30
0.0
 11
132.22399999999999
 21
103.804
 31
0.0
  0
LINE
  5
EC
  8
0
 62
     7
 10
132.22399999999999
 20
103.804
 30
0.0
 11
132.286
 21
103.804
 31
0.0
  0
LINE
  5
ED
  8
0
 62
     7
 10
132.286
 20
103.804
 30
0.0
 11
132.333
 21
103.804
 31
0.0
  0
LINE
  5
EE
  8
0
 62
     7
 10
132.333
 20
103.804
 30
0.0
 11
132.50299999999999
 21
103.804
 31
0.0
  0
LINE
  5
EF
  8
0
 62
     7
 10
132.50299999999999
 20
103.804
 30
0.0
 11
132.65700000000001
 21
103.804
 31
0.0
  0
LINE
  5
F0
  8
0
 62
     7
 10
132.65700000000001
 20
103.804
 30
0.0
 11
132.858
 21
103.788
 31
0.0
  0
LINE
  5
F1
  8
0
 62
     7
 10
132.858
 20
103.788
 30
0.0
 11
133.07499999999999
 21
103.773
 31
0.0
  0
LINE
  5
F2
  8
0
 62
     7
 10
133.07499999999999
 20
103.773
 30
0.0
 11
133.27600000000001
 21
103.773
 31
0.0
  0
LINE
  5
F3
  8
0
 62
     7
 10
133.27600000000001
 20
103.773
 30
0.0
 11
133.49199999999999
 21
103.75700000000001
 31
0.0
  0
LINE
  5
F4
  8
0
 62
     7
 10
133.49199999999999
 20
103.75700000000001
 30
0.0
 11
133.64699999999999
 21
103.742
 31
0.0
  0
LINE
  5
F5
  8
0
 62
     7
 10
133.64699999999999
 20
103.742
 30
0.0
 11
133.80099999999999
 21
103.726
 31
0.0
  0
LINE
  5
F6
  8
0
 62
     7
 10
133.80099999999999
 20
103.726
 30
0.0
 11
133.863
 21
103.726
 31
0.0
  0
LINE
  5
F7
  8
0
 62
     7
 10
133.863
 20
103.726
 30
0.0
 11
133.92500000000001
 21
103.726
 31
0.0
  0
LINE
  5
F8
  8
0
 62
     7
 10
133.92500000000001
 20
103.726
 30
0.0
 11
133.94
 21
103.726
 31
0.0
  0
LINE
  5
F9
  8
0
 62
     7
 10
133.94
 20
103.726
 30
0.0
 11
133.95599999999999
 21
103.726
 31
0.0
  0
LINE
  5
FA
  8
0
 62
     7
 10
133.95599999999999
 20
103.726
 30
0.0
 11
134.899
 21
103.68000000000001
 31
0.0
  0
LINE
  5
FB
  8
0
 62
     7
 10
134.899
 20
103.68000000000001
 30
0.0
 11
135.84200000000001
 21
103.634
 31
0.0
  0
LINE
  5
FC
  8
0
 62
     7
 10
135.84200000000001
 20
103.634
 30
0.0
 11
136.785
 21
103.587
 31
0.0
  0
LINE
  5
FD
  8
0
 62
     7
 10
136.785
 20
103.587
 30
0.0
 11
137.74299999999999
 21
103.541
 31
0.0
  0
LINE
  5
FE
  8
0
 62
     7
 10
114.864
 20
104.685
 30
0.0
 11
114.694
 21
104.71599999999999
 31
0.0
  0
LINE
  5
FF
  8
0
 62
     7
 10
114.694
 20
104.71599999999999
 30
0.0
 11
114.524
 21
104.84
 31
0.0
  0
LINE
  5
100
  8
0
 62
     7
 10
114.524
 20
104.84
 30
0.0
 11
114.431
 21
105.01000000000001
 31
0.0
  0
LINE
  5
101
  8
0
 62
     7
 10
114.431
 20
105.01000000000001
 30
0.0
 11
114.401
 21
105.133
 31
0.0
  0
LINE
  5
102
  8
0
 62
     7
 10
114.401
 20
105.11799999999999
 30
0.0
 11
114.401
 21
105.133
 31
0.0
  0
LINE
  5
103
  8
0
 62
     7
 10
114.401
 20
105.133
 30
0.0
 11
114.277
 21
106.55500000000001
 31
0.0
  0
LINE
  5
104
  8
0
 62
     7
 10
114.277
 20
106.55500000000001
 30
0.0
 11
114.23
 21
107.97799999999999
 31
0.0
  0
LINE
  5
105
  8
0
 62
     7
 10
114.23
 20
107.97799999999999
 30
0.0
 11
114.246
 21
109.40000000000001
 31
0.0
  0
LINE
  5
106
  8
0
 62
     7
 10
114.246
 20
109.40000000000001
 30
0.0
 11
114.30800000000001
 21
110.822
 31
0.0
  0
LINE
  5
107
  8
0
 62
     7
 10
114.30800000000001
 20
110.822
 30
0.0
 11
114.369
 21
111.533
 31
0.0
  0
LINE
  5
108
  8
0
 62
     7
 10
114.369
 20
111.533
 30
0.0
 11
114.369
 21
111.54900000000001
 31
0.0
  0
LINE
  5
109
  8
0
 62
     7
 10
114.38500000000001
 20
111.56399999999999
 30
0.0
 11
114.431
 21
111.73399999999999
 31
0.0
  0
LINE
  5
10A
  8
0
 62
     7
 10
114.431
 20
111.73399999999999
 30
0.0
 11
114.55500000000001
 21
111.904
 31
0.0
  0
LINE
  5
10B
  8
0
 62
     7
 10
114.55500000000001
 20
111.904
 30
0.0
 11
114.72499999999999
 21
111.997
 31
0.0
  0
LINE
  5
10C
  8
0
 62
     7
 10
114.72499999999999
 20
111.997
 30
0.0
 11
114.88
 21
112.012
 31
0.0
  0
LINE
  5
10D
  8
0
 62
     7
 10
137.74299999999999
 20
107.962
 30
0.0
 11
137.74299999999999
 21
106.30800000000001
 31
0.0
  0
LINE
  5
10E
  8
0
 62
     7
 10
137.74299999999999
 20
109.97199999999999
 30
0.0
 11
137.74299999999999
 21
111.626
 31
0.0
  0
LINE
  5
10F
  8
0
 62
     7
 10
137.74299999999999
 20
108.28700000000001
 30
0.0
 11
137.74299999999999
 21
109.64700000000001
 31
0.0
  0
LINE
  5
110
  8
0
 62
     7
 10
137.74299999999999
 20
106.30800000000001
 30
0.0
 11
137.74299999999999
 21
105.01000000000001
 31
0.0
  0
LINE
  5
111
  8
0
 62
     7
 10
137.74299999999999
 20
108.28700000000001
 30
0.0
 11
137.74299999999999
 21
107.962
 31
0.0
  0
LINE
  5
112
  8
0
 62
     7
 10
137.74299999999999
 20
111.626
 30
0.0
 11
137.74299999999999
 21
111.703
 31
0.0
  0
LINE
  5
113
  8
0
 62
     7
 10
137.74299999999999
 20
109.97199999999999
 30
0.0
 11
137.74299999999999
 21
109.64700000000001
 31
0.0
  0
LINE
  5
114
  8
0
 62
     7
 10
137.74299999999999
 20
111.703
 30
0.0
 11
137.74299999999999
 21
112.152
 31
0.0
  0
LINE
  5
115
  8
0
 62
     7
 10
137.74299999999999
 20
105.01000000000001
 30
0.0
 11
137.74299999999999
 21
104.592
 31
0.0
  0
LINE
  5
116
  8
0
 62
     7
 10
137.74299999999999
 20
112.152
 30
0.0
 11
137.74299999999999
 21
112.19799999999999
 31
0.0
  0
LINE
  5
117
  8
0
 62
     7
 10
137.74299999999999
 20
112.19799999999999
 30
0.0
 11
114.88
 21
111.997
 31
0.0
  0
LINE
  5
118
  8
0
 62
     7
 10
137.74299999999999
 20
104.592
 30
0.0
 11
137.74299999999999
 21
103.541
 31
0.0
  0
LINE
  5
119
  8
0
 62
     7
 10
137.74299999999999
 20
107.962
 30
0.0
 11
137.74299999999999
 21
106.30800000000001
 31
0.0
  0
LINE
  5
11A
  8
0
 62
     7
 10
137.74299999999999
 20
109.97199999999999
 30
0.0
 11
137.74299999999999
 21
111.626
 31
0.0
  0
LINE
  5
11B
  8
0
 62
     7
 10
137.74299999999999
 20
108.28700000000001
 30
0.0
 11
137.74299999999999
 21
109.64700000000001
 31
0.0
  0
LINE
  5
11C
  8
0
 62
     7
 10
137.74299999999999
 20
108.28700000000001
 30
0.0
 11
137.74299999999999
 21
107.962
 31
0.0
  0
LINE
  5
11D
  8
0
 62
     7
 10
137.74299999999999
 20
109.64700000000001
 30
0.0
 11
137.74299999999999
 21
109.97199999999999
 31
0.0
  0
LINE
  5
11E
  8
0
 62
     7
 10
59.832599999999999
 20
104.592
 30
0.0
 11
59.863599999999998
 21
104.608
 31
0.0
  0
LINE
  5
11F
  8
0
 62
     7
 10
59.863599999999998
 20
104.608
 30
0.0
 11
59.894599999999997
 21
104.608
 31
0.0
  0
LINE
  5
120
  8
0
 62
     7
 10
59.894599999999997
 20
104.608
 30
0.0
 11
59.925400000000003
 21
104.639
 31
0.0
  0
LINE
  5
121
  8
0
 62
     7
 10
59.925400000000003
 20
104.639
 30
0.0
 11
59.956400000000002
 21
104.654
 31
0.0
  0
LINE
  5
122
  8
0
 62
     7
 10
59.956400000000002
 20
104.654
 30
0.0
 11
60.0182
 21
104.70099999999999
 31
0.0
  0
LINE
  5
123
  8
0
 62
     7
 10
60.0182
 20
104.70099999999999
 30
0.0
 11
60.064599999999999
 21
104.747
 31
0.0
  0
LINE
  5
124
  8
0
 62
     7
 10
60.064599999999999
 20
104.747
 30
0.0
 11
60.110900000000001
 21
104.809
 31
0.0
  0
LINE
  5
125
  8
0
 62
     7
 10
60.110900000000001
 20
104.809
 30
0.0
 11
60.141800000000003
 21
104.87
 31
0.0
  0
LINE
  5
126
  8
0
 62
     7
 10
60.141800000000003
 20
104.87
 30
0.0
 11
60.157400000000003
 21
104.901
 31
0.0
  0
LINE
  5
127
  8
0
 62
     7
 10
60.157400000000003
 20
104.901
 30
0.0
 11
60.172899999999998
 21
104.94799999999999
 31
0.0
  0
LINE
  5
128
  8
0
 62
     7
 10
60.172899999999998
 20
104.94799999999999
 30
0.0
 11
60.172899999999998
 21
104.979
 31
0.0
  0
LINE
  5
129
  8
0
 62
     7
 10
60.172899999999998
 20
104.979
 30
0.0
 11
60.188099999999999
 21
105.01000000000001
 31
0.0
  0
LINE
  5
12A
  8
0
 62
     7
 10
53.571699999999993
 20
103.773
 30
0.0
 11
53.556600000000003
 21
103.773
 31
0.0
  0
LINE
  5
12B
  8
0
 62
     7
 10
53.556600000000003
 20
103.773
 30
0.0
 11
53.540900000000001
 21
103.75700000000001
 31
0.0
  0
LINE
  5
12C
  8
0
 62
     7
 10
53.540900000000001
 20
103.75700000000001
 30
0.0
 11
53.510100000000001
 21
103.75700000000001
 31
0.0
  0
LINE
  5
12D
  8
0
 62
     7
 10
53.510100000000001
 20
103.75700000000001
 30
0.0
 11
53.479100000000003
 21
103.75700000000001
 31
0.0
  0
LINE
  5
12E
  8
0
 62
     7
 10
53.479100000000003
 20
103.75700000000001
 30
0.0
 11
53.432699999999997
 21
103.75700000000001
 31
0.0
  0
LINE
  5
12F
  8
0
 62
     7
 10
53.432699999999997
 20
103.75700000000001
 30
0.0
 11
53.386600000000001
 21
103.742
 31
0.0
  0
LINE
  5
130
  8
0
 62
     7
 10
53.386600000000001
 20
103.742
 30
0.0
 11
53.324599999999997
 21
103.742
 31
0.0
  0
LINE
  5
131
  8
0
 62
     7
 10
53.324599999999997
 20
103.742
 30
0.0
 11
53.185400000000001
 21
103.726
 31
0.0
  0
LINE
  5
132
  8
0
 62
     7
 10
53.185400000000001
 20
103.726
 30
0.0
 11
53.030900000000003
 21
103.726
 31
0.0
  0
LINE
  5
133
  8
0
 62
     7
 10
53.030900000000003
 20
103.726
 30
0.0
 11
52.860700000000001
 21
103.726
 31
0.0
  0
LINE
  5
134
  8
0
 62
     7
 10
52.860700000000001
 20
103.726
 30
0.0
 11
52.6907
 21
103.726
 31
0.0
  0
LINE
  5
135
  8
0
 62
     7
 10
51.809600000000003
 20
103.773
 30
0.0
 11
51.809600000000003
 21
103.788
 31
0.0
  0
LINE
  5
136
  8
0
 62
     7
 10
51.809600000000003
 20
103.788
 30
0.0
 11
51.825200000000002
 21
103.788
 31
0.0
  0
LINE
  5
137
  8
0
 62
     7
 10
51.825200000000002
 20
103.788
 30
0.0
 11
51.840400000000002
 21
103.788
 31
0.0
  0
LINE
  5
138
  8
0
 62
     7
 10
51.840400000000002
 20
103.788
 30
0.0
 11
51.856099999999998
 21
103.788
 31
0.0
  0
LINE
  5
139
  8
0
 62
     7
 10
51.856099999999998
 20
103.788
 30
0.0
 11
51.9024
 21
103.788
 31
0.0
  0
LINE
  5
13A
  8
0
 62
     7
 10
51.9024
 20
103.788
 30
0.0
 11
51.964300000000001
 21
103.804
 31
0.0
  0
LINE
  5
13B
  8
0
 62
     7
 10
51.964300000000001
 20
103.804
 30
0.0
 11
52.087899999999998
 21
103.804
 31
0.0
  0
LINE
  5
13C
  8
0
 62
     7
 10
52.087899999999998
 20
103.804
 30
0.0
 11
52.273299999999999
 21
103.804
 31
0.0
  0
LINE
  5
13D
  8
0
 62
     7
 10
52.273299999999999
 20
103.804
 30
0.0
 11
52.4435
 21
103.804
 31
0.0
  0
LINE
  5
13E
  8
0
 62
     7
 10
52.4435
 20
103.804
 30
0.0
 11
52.582700000000003
 21
103.804
 31
0.0
  0
LINE
  5
13F
  8
0
 62
     7
 10
52.582700000000003
 20
103.804
 30
0.0
 11
52.6907
 21
103.804
 31
0.0
  0
LINE
  5
140
  8
0
 62
     7
 10
52.6907
 20
103.804
 30
0.0
 11
52.906999999999996
 21
103.804
 31
0.0
  0
LINE
  5
141
  8
0
 62
     7
 10
52.906999999999996
 20
103.804
 30
0.0
 11
53.108199999999989
 21
103.804
 31
0.0
  0
LINE
  5
142
  8
0
 62
     7
 10
53.108199999999989
 20
103.804
 30
0.0
 11
53.308900000000001
 21
103.804
 31
0.0
  0
LINE
  5
143
  8
0
 62
     7
 10
53.308900000000001
 20
103.804
 30
0.0
 11
53.432699999999997
 21
103.804
 31
0.0
  0
LINE
  5
144
  8
0
 62
     7
 10
53.432699999999997
 20
103.804
 30
0.0
 11
53.494599999999998
 21
103.788
 31
0.0
  0
LINE
  5
145
  8
0
 62
     7
 10
53.494599999999998
 20
103.788
 30
0.0
 11
53.540900000000001
 21
103.788
 31
0.0
  0
LINE
  5
146
  8
0
 62
     7
 10
53.540900000000001
 20
103.788
 30
0.0
 11
53.556600000000003
 21
103.788
 31
0.0
  0
LINE
  5
147
  8
0
 62
     7
 10
53.556600000000003
 20
103.788
 30
0.0
 11
53.571699999999993
 21
103.788
 31
0.0
  0
LINE
  5
148
  8
0
 62
     7
 10
53.571699999999993
 20
103.788
 30
0.0
 11
53.571699999999993
 21
103.773
 31
0.0
  0
LINE
  5
149
  8
0
 62
     7
 10
52.6907
 20
103.726
 30
0.0
 11
52.613500000000002
 21
103.726
 31
0.0
  0
LINE
  5
14A
  8
0
 62
     7
 10
52.613500000000002
 20
103.726
 30
0.0
 11
52.520600000000002
 21
103.726
 31
0.0
  0
LINE
  5
14B
  8
0
 62
     7
 10
52.520600000000002
 20
103.726
 30
0.0
 11
52.4435
 21
103.726
 31
0.0
  0
LINE
  5
14C
  8
0
 62
     7
 10
52.4435
 20
103.726
 30
0.0
 11
52.350799999999992
 21
103.726
 31
0.0
  0
LINE
  5
14D
  8
0
 62
     7
 10
52.350799999999992
 20
103.726
 30
0.0
 11
52.288800000000002
 21
103.726
 31
0.0
  0
LINE
  5
14E
  8
0
 62
     7
 10
52.288800000000002
 20
103.726
 30
0.0
 11
52.195900000000002
 21
103.726
 31
0.0
  0
LINE
  5
14F
  8
0
 62
     7
 10
52.195900000000002
 20
103.726
 30
0.0
 11
52.134399999999999
 21
103.742
 31
0.0
  0
LINE
  5
150
  8
0
 62
     7
 10
52.134399999999999
 20
103.742
 30
0.0
 11
52.072400000000002
 21
103.742
 31
0.0
  0
LINE
  5
151
  8
0
 62
     7
 10
52.072400000000002
 20
103.742
 30
0.0
 11
51.964300000000001
 21
103.75700000000001
 31
0.0
  0
LINE
  5
152
  8
0
 62
     7
 10
51.964300000000001
 20
103.75700000000001
 30
0.0
 11
51.871400000000001
 21
103.75700000000001
 31
0.0
  0
LINE
  5
153
  8
0
 62
     7
 10
51.871400000000001
 20
103.75700000000001
 30
0.0
 11
51.856099999999998
 21
103.75700000000001
 31
0.0
  0
LINE
  5
154
  8
0
 62
     7
 10
51.856099999999998
 20
103.75700000000001
 30
0.0
 11
51.825200000000002
 21
103.773
 31
0.0
  0
LINE
  5
155
  8
0
 62
     7
 10
51.825200000000002
 20
103.773
 30
0.0
 11
51.809600000000003
 21
103.773
 31
0.0
  0
LINE
  5
156
  8
0
 62
     7
 10
45.6723
 20
112.152
 30
0.0
 11
45.595100000000002
 21
112.136
 31
0.0
  0
LINE
  5
157
  8
0
 62
     7
 10
45.595100000000002
 20
112.136
 30
0.0
 11
45.502200000000002
 21
112.121
 31
0.0
  0
LINE
  5
158
  8
0
 62
     7
 10
45.502200000000002
 20
112.121
 30
0.0
 11
45.455899999999993
 21
112.09
 31
0.0
  0
LINE
  5
159
  8
0
 62
     7
 10
45.455899999999993
 20
112.09
 30
0.0
 11
45.4251
 21
112.074
 31
0.0
  0
LINE
  5
15A
  8
0
 62
     7
 10
45.4251
 20
112.074
 30
0.0
 11
45.378700000000002
 21
112.04300000000001
 31
0.0
  0
LINE
  5
15B
  8
0
 62
     7
 10
45.378700000000002
 20
112.04300000000001
 30
0.0
 11
45.347900000000003
 21
112.012
 31
0.0
  0
LINE
  5
15C
  8
0
 62
     7
 10
45.347900000000003
 20
112.012
 30
0.0
 11
45.316699999999997
 21
111.98099999999999
 31
0.0
  0
LINE
  5
15D
  8
0
 62
     7
 10
45.316699999999997
 20
111.98099999999999
 30
0.0
 11
45.285899999999998
 21
111.95
 31
0.0
  0
LINE
  5
15E
  8
0
 62
     7
 10
45.285899999999998
 20
111.95
 30
0.0
 11
45.255200000000002
 21
111.904
 31
0.0
  0
LINE
  5
15F
  8
0
 62
     7
 10
45.255200000000002
 20
111.904
 30
0.0
 11
45.239600000000003
 21
111.873
 31
0.0
  0
LINE
  5
160
  8
0
 62
     7
 10
45.239600000000003
 20
111.873
 30
0.0
 11
45.2087
 21
111.79600000000001
 31
0.0
  0
LINE
  5
161
  8
0
 62
     7
 10
45.2087
 20
111.79600000000001
 30
0.0
 11
45.19319999999999
 21
111.703
 31
0.0
  0
LINE
  5
162
  8
0
 62
     7
 10
45.564300000000003
 20
104.592
 30
0.0
 11
45.51789999999999
 21
104.608
 31
0.0
  0
LINE
  5
163
  8
0
 62
     7
 10
45.51789999999999
 20
104.608
 30
0.0
 11
45.487099999999991
 21
104.608
 31
0.0
  0
LINE
  5
164
  8
0
 62
     7
 10
45.487099999999991
 20
104.608
 30
0.0
 11
45.455899999999993
 21
104.639
 31
0.0
  0
LINE
  5
165
  8
0
 62
     7
 10
45.455899999999993
 20
104.639
 30
0.0
 11
45.4251
 21
104.654
 31
0.0
  0
LINE
  5
166
  8
0
 62
     7
 10
45.4251
 20
104.654
 30
0.0
 11
45.39439999999999
 21
104.67
 31
0.0
  0
LINE
  5
167
  8
0
 62
     7
 10
45.39439999999999
 20
104.67
 30
0.0
 11
45.363100000000003
 21
104.70099999999999
 31
0.0
  0
LINE
  5
168
  8
0
 62
     7
 10
45.363100000000003
 20
104.70099999999999
 30
0.0
 11
45.347900000000003
 21
104.71599999999999
 31
0.0
  0
LINE
  5
169
  8
0
 62
     7
 10
45.347900000000003
 20
104.71599999999999
 30
0.0
 11
45.316699999999997
 21
104.747
 31
0.0
  0
LINE
  5
16A
  8
0
 62
     7
 10
45.316699999999997
 20
104.747
 30
0.0
 11
45.301600000000001
 21
104.77800000000001
 31
0.0
  0
LINE
  5
16B
  8
0
 62
     7
 10
45.301600000000001
 20
104.77800000000001
 30
0.0
 11
45.270600000000002
 21
104.809
 31
0.0
  0
LINE
  5
16C
  8
0
 62
     7
 10
45.270600000000002
 20
104.809
 30
0.0
 11
45.255200000000002
 21
104.84
 31
0.0
  0
LINE
  5
16D
  8
0
 62
     7
 10
45.255200000000002
 20
104.84
 30
0.0
 11
45.239600000000003
 21
104.87
 31
0.0
  0
LINE
  5
16E
  8
0
 62
     7
 10
45.239600000000003
 20
104.87
 30
0.0
 11
45.2239
 21
104.901
 31
0.0
  0
LINE
  5
16F
  8
0
 62
     7
 10
45.2239
 20
104.901
 30
0.0
 11
45.2239
 21
104.94799999999999
 31
0.0
  0
LINE
  5
170
  8
0
 62
     7
 10
45.2239
 20
104.94799999999999
 30
0.0
 11
45.2087
 21
104.979
 31
0.0
  0
LINE
  5
171
  8
0
 62
     7
 10
45.2087
 20
104.979
 30
0.0
 11
45.2087
 21
105.01000000000001
 31
0.0
  0
LINE
  5
172
  8
0
 62
     7
 10
60.0182
 20
105.164
 30
0.0
 11
60.0182
 21
105.18000000000001
 31
0.0
  0
LINE
  5
173
  8
0
 62
     7
 10
60.0182
 20
105.18000000000001
 30
0.0
 11
60.0182
 21
105.226
 31
0.0
  0
LINE
  5
174
  8
0
 62
     7
 10
60.0182
 20
105.226
 30
0.0
 11
60.033799999999992
 21
105.288
 31
0.0
  0
LINE
  5
175
  8
0
 62
     7
 10
60.033799999999992
 20
105.288
 30
0.0
 11
60.033799999999992
 21
105.36499999999999
 31
0.0
  0
LINE
  5
176
  8
0
 62
     7
 10
60.033799999999992
 20
105.36499999999999
 30
0.0
 11
60.048900000000003
 21
105.473
 31
0.0
  0
LINE
  5
177
  8
0
 62
     7
 10
60.048900000000003
 20
105.473
 30
0.0
 11
60.048900000000003
 21
105.59699999999999
 31
0.0
  0
LINE
  5
178
  8
0
 62
     7
 10
60.048900000000003
 20
105.59699999999999
 30
0.0
 11
60.064599999999999
 21
105.752
 31
0.0
  0
LINE
  5
179
  8
0
 62
     7
 10
60.064599999999999
 20
105.752
 30
0.0
 11
60.080300000000001
 21
105.90600000000001
 31
0.0
  0
LINE
  5
17A
  8
0
 62
     7
 10
60.080300000000001
 20
105.90600000000001
 30
0.0
 11
60.110900000000001
 21
106.47799999999999
 31
0.0
  0
LINE
  5
17B
  8
0
 62
     7
 10
60.110900000000001
 20
106.47799999999999
 30
0.0
 11
60.141800000000003
 21
107.158
 31
0.0
  0
LINE
  5
17C
  8
0
 62
     7
 10
60.141800000000003
 20
107.158
 30
0.0
 11
60.157400000000003
 21
107.88500000000001
 31
0.0
  0
LINE
  5
17D
  8
0
 62
     7
 10
60.157400000000003
 20
107.88500000000001
 30
0.0
 11
60.157400000000003
 21
108.673
 31
0.0
  0
LINE
  5
17E
  8
0
 62
     7
 10
60.157400000000003
 20
108.673
 30
0.0
 11
60.141800000000003
 21
109.431
 31
0.0
  0
LINE
  5
17F
  8
0
 62
     7
 10
60.141800000000003
 20
109.431
 30
0.0
 11
60.126399999999997
 21
110.111
 31
0.0
  0
LINE
  5
180
  8
0
 62
     7
 10
60.126399999999997
 20
110.111
 30
0.0
 11
60.110900000000001
 21
110.42
 31
0.0
  0
LINE
  5
181
  8
0
 62
     7
 10
60.110900000000001
 20
110.42
 30
0.0
 11
60.095399999999998
 21
110.68300000000001
 31
0.0
  0
LINE
  5
182
  8
0
 62
     7
 10
60.095399999999998
 20
110.68300000000001
 30
0.0
 11
60.080300000000001
 21
110.93000000000001
 31
0.0
  0
LINE
  5
183
  8
0
 62
     7
 10
60.080300000000001
 20
110.93000000000001
 30
0.0
 11
60.064599999999999
 21
111.131
 31
0.0
  0
LINE
  5
184
  8
0
 62
     7
 10
60.064599999999999
 20
111.131
 30
0.0
 11
60.064599999999999
 21
111.208
 31
0.0
  0
LINE
  5
185
  8
0
 62
     7
 10
60.064599999999999
 20
111.208
 30
0.0
 11
60.048900000000003
 21
111.286
 31
0.0
  0
LINE
  5
186
  8
0
 62
     7
 10
60.048900000000003
 20
111.286
 30
0.0
 11
60.048900000000003
 21
111.348
 31
0.0
  0
LINE
  5
187
  8
0
 62
     7
 10
60.048900000000003
 20
111.348
 30
0.0
 11
60.048900000000003
 21
111.41
 31
0.0
  0
LINE
  5
188
  8
0
 62
     7
 10
60.048900000000003
 20
111.41
 30
0.0
 11
60.048900000000003
 21
111.441
 31
0.0
  0
LINE
  5
189
  8
0
 62
     7
 10
60.048900000000003
 20
111.441
 30
0.0
 11
60.048900000000003
 21
111.471
 31
0.0
  0
LINE
  5
18A
  8
0
 62
     7
 10
60.048900000000003
 20
111.471
 30
0.0
 11
60.048900000000003
 21
111.48699999999999
 31
0.0
  0
LINE
  5
18B
  8
0
 62
     7
 10
60.048900000000003
 20
111.48699999999999
 30
0.0
 11
60.048900000000003
 21
111.502
 31
0.0
  0
LINE
  5
18C
  8
0
 62
     7
 10
60.048900000000003
 20
111.502
 30
0.0
 11
60.048900000000003
 21
111.48699999999999
 31
0.0
  0
LINE
  5
18D
  8
0
 62
     7
 10
60.048900000000003
 20
111.48699999999999
 30
0.0
 11
60.048900000000003
 21
111.471
 31
0.0
  0
LINE
  5
18E
  8
0
 62
     7
 10
60.048900000000003
 20
111.471
 30
0.0
 11
60.064599999999999
 21
111.441
 31
0.0
  0
LINE
  5
18F
  8
0
 62
     7
 10
60.064599999999999
 20
111.441
 30
0.0
 11
60.064599999999999
 21
111.39400000000001
 31
0.0
  0
LINE
  5
190
  8
0
 62
     7
 10
60.064599999999999
 20
111.39400000000001
 30
0.0
 11
60.064599999999999
 21
111.363
 31
0.0
  0
LINE
  5
191
  8
0
 62
     7
 10
60.064599999999999
 20
111.363
 30
0.0
 11
60.064599999999999
 21
111.33199999999999
 31
0.0
  0
LINE
  5
192
  8
0
 62
     7
 10
60.048900000000003
 20
111.48699999999999
 30
0.0
 11
60.048900000000003
 21
111.471
 31
0.0
  0
LINE
  5
193
  8
0
 62
     7
 10
60.048900000000003
 20
111.471
 30
0.0
 11
60.048900000000003
 21
111.456
 31
0.0
  0
LINE
  5
194
  8
0
 62
     7
 10
60.048900000000003
 20
111.456
 30
0.0
 11
60.048900000000003
 21
111.441
 31
0.0
  0
LINE
  5
195
  8
0
 62
     7
 10
60.0182
 20
105.226
 30
0.0
 11
60.0182
 21
105.20999999999999
 31
0.0
  0
LINE
  5
196
  8
0
 62
     7
 10
60.0182
 20
105.20999999999999
 30
0.0
 11
60.0182
 21
105.19499999999999
 31
0.0
  0
LINE
  5
197
  8
0
 62
     7
 10
60.0182
 20
105.19499999999999
 30
0.0
 11
60.0182
 21
105.18000000000001
 31
0.0
  0
LINE
  5
198
  8
0
 62
     7
 10
59.709000000000003
 20
112.152
 30
0.0
 11
59.755400000000002
 21
112.152
 31
0.0
  0
LINE
  5
199
  8
0
 62
     7
 10
59.755400000000002
 20
112.152
 30
0.0
 11
59.801900000000003
 21
112.136
 31
0.0
  0
LINE
  5
19A
  8
0
 62
     7
 10
59.801900000000003
 20
112.136
 30
0.0
 11
59.848199999999999
 21
112.136
 31
0.0
  0
LINE
  5
19B
  8
0
 62
     7
 10
59.848199999999999
 20
112.136
 30
0.0
 11
59.894599999999997
 21
112.121
 31
0.0
  0
LINE
  5
19C
  8
0
 62
     7
 10
59.894599999999997
 20
112.121
 30
0.0
 11
59.971699999999998
 21
112.074
 31
0.0
  0
LINE
  5
19D
  8
0
 62
     7
 10
59.971699999999998
 20
112.074
 30
0.0
 11
60.048900000000003
 21
112.012
 31
0.0
  0
LINE
  5
19E
  8
0
 62
     7
 10
60.048900000000003
 20
112.012
 30
0.0
 11
60.080300000000001
 21
111.98099999999999
 31
0.0
  0
LINE
  5
19F
  8
0
 62
     7
 10
60.080300000000001
 20
111.98099999999999
 30
0.0
 11
60.095399999999998
 21
111.95
 31
0.0
  0
LINE
  5
1A0
  8
0
 62
     7
 10
60.095399999999998
 20
111.95
 30
0.0
 11
60.126399999999997
 21
111.919
 31
0.0
  0
LINE
  5
1A1
  8
0
 62
     7
 10
60.126399999999997
 20
111.919
 30
0.0
 11
60.157400000000003
 21
111.873
 31
0.0
  0
LINE
  5
1A2
  8
0
 62
     7
 10
60.157400000000003
 20
111.873
 30
0.0
 11
60.172899999999998
 21
111.842
 31
0.0
  0
LINE
  5
1A3
  8
0
 62
     7
 10
60.172899999999998
 20
111.842
 30
0.0
 11
60.188099999999999
 21
111.79600000000001
 31
0.0
  0
LINE
  5
1A4
  8
0
 62
     7
 10
60.188099999999999
 20
111.79600000000001
 30
0.0
 11
60.188099999999999
 21
111.73399999999999
 31
0.0
  0
LINE
  5
1A5
  8
0
 62
     7
 10
60.188099999999999
 20
111.73399999999999
 30
0.0
 11
60.203800000000001
 21
111.703
 31
0.0
  0
LINE
  5
1A6
  8
0
 62
     7
 10
45.548799999999993
 20
104.592
 30
0.0
 11
46.770099999999999
 21
104.268
 31
0.0
  0
LINE
  5
1A7
  8
0
 62
     7
 10
46.770099999999999
 20
104.268
 30
0.0
 11
47.991000000000007
 21
103.989
 31
0.0
  0
LINE
  5
1A8
  8
0
 62
     7
 10
47.991000000000007
 20
103.989
 30
0.0
 11
49.212499999999999
 21
103.788
 31
0.0
  0
LINE
  5
1A9
  8
0
 62
     7
 10
49.212499999999999
 20
103.788
 30
0.0
 11
50.433900000000001
 21
103.649
 31
0.0
  0
LINE
  5
1AA
  8
0
 62
     7
 10
50.433900000000001
 20
103.649
 30
0.0
 11
51.654899999999998
 21
103.572
 31
0.0
  0
LINE
  5
1AB
  8
0
 62
     7
 10
51.654899999999998
 20
103.572
 30
0.0
 11
52.876199999999997
 21
103.541
 31
0.0
  0
LINE
  5
1AC
  8
0
 62
     7
 10
52.876199999999997
 20
103.541
 30
0.0
 11
54.0976
 21
103.587
 31
0.0
  0
LINE
  5
1AD
  8
0
 62
     7
 10
54.0976
 20
103.587
 30
0.0
 11
55.318600000000004
 21
103.68000000000001
 31
0.0
  0
LINE
  5
1AE
  8
0
 62
     7
 10
55.318600000000004
 20
103.68000000000001
 30
0.0
 11
56.540100000000002
 21
103.84999999999999
 31
0.0
  0
LINE
  5
1AF
  8
0
 62
     7
 10
56.540100000000002
 20
103.84999999999999
 30
0.0
 11
57.761400000000002
 21
104.06699999999999
 31
0.0
  0
LINE
  5
1B0
  8
0
 62
     7
 10
57.761400000000002
 20
104.06699999999999
 30
0.0
 11
58.982300000000002
 21
104.36
 31
0.0
  0
LINE
  5
1B1
  8
0
 62
     7
 10
58.982300000000002
 20
104.36
 30
0.0
 11
59.832599999999999
 21
104.608
 31
0.0
  0
LINE
  5
1B2
  8
0
 62
     7
 10
60.2346
 20
111.348
 30
0.0
 11
60.203800000000001
 21
111.703
 31
0.0
  0
LINE
  5
1B3
  8
0
 62
     7
 10
60.188099999999999
 20
105.02500000000001
 30
0.0
 11
60.219099999999997
 21
105.334
 31
0.0
  0
LINE
  5
1B4
  8
0
 62
     7
 10
45.19319999999999
 20
111.703
 30
0.0
 11
45.085000000000001
 21
110.28100000000001
 31
0.0
  0
LINE
  5
1B5
  8
0
 62
     7
 10
45.085000000000001
 20
110.28100000000001
 30
0.0
 11
45.038899999999998
 21
108.85899999999999
 31
0.0
  0
LINE
  5
1B6
  8
0
 62
     7
 10
45.038899999999998
 20
108.85899999999999
 30
0.0
 11
45.053999999999988
 21
107.437
 31
0.0
  0
LINE
  5
1B7
  8
0
 62
     7
 10
45.053999999999988
 20
107.437
 30
0.0
 11
45.131399999999992
 21
106.015
 31
0.0
  0
LINE
  5
1B8
  8
0
 62
     7
 10
45.131399999999992
 20
106.015
 30
0.0
 11
45.2087
 21
105.02500000000001
 31
0.0
  0
LINE
  5
1B9
  8
0
 62
     7
 10
59.709000000000003
 20
112.167
 30
0.0
 11
54.159100000000002
 21
112.21299999999999
 31
0.0
  0
LINE
  5
1BA
  8
0
 62
     7
 10
54.159100000000002
 20
112.21299999999999
 30
0.0
 11
48.6096
 21
112.19799999999999
 31
0.0
  0
LINE
  5
1BB
  8
0
 62
     7
 10
48.6096
 20
112.19799999999999
 30
0.0
 11
45.6723
 21
112.167
 31
0.0
  0
LINE
  5
1BC
  8
0
 62
     7
 10
99.685500000000005
 20
111.27
 30
0.0
 11
99.685500000000005
 21
110.961
 31
0.0
  0
LINE
  5
1BD
  8
0
 62
     7
 10
99.685500000000005
 20
110.961
 30
0.0
 11
99.685500000000005
 21
108.333
 31
0.0
  0
LINE
  5
1BE
  8
0
 62
     7
 10
99.685500000000005
 20
111.27
 30
0.0
 11
99.685500000000005
 21
111.33199999999999
 31
0.0
  0
LINE
  5
1BF
  8
0
 62
     7
 10
99.685500000000005
 20
105.334
 30
0.0
 11
99.685500000000005
 21
105.396
 31
0.0
  0
LINE
  5
1C0
  8
0
 62
     7
 10
99.685500000000005
 20
105.396
 30
0.0
 11
99.685500000000005
 21
105.705
 31
0.0
  0
LINE
  5
1C1
  8
0
 62
     7
 10
99.685500000000005
 20
105.705
 30
0.0
 11
99.685500000000005
 21
107.42100000000001
 31
0.0
  0
LINE
  5
1C2
  8
0
 62
     7
 10
99.685500000000005
 20
107.42100000000001
 30
0.0
 11
99.685500000000005
 21
108.333
 31
0.0
  0
LINE
  5
1C3
  8
0
 62
     7
 10
60.033799999999992
 20
105.334
 30
0.0
 11
99.685500000000005
 21
105.334
 31
0.0
  0
LINE
  5
1C4
  8
0
 62
     7
 10
99.685500000000005
 20
111.33199999999999
 30
0.0
 11
60.048900000000003
 21
111.33199999999999
 31
0.0
  0
LINE
  5
1C5
  8
0
 62
     7
 10
100.675
 20
111.008
 30
0.0
 11
100.64400000000001
 21
111.14700000000001
 31
0.0
  0
LINE
  5
1C6
  8
0
 62
     7
 10
100.64400000000001
 20
111.14700000000001
 30
0.0
 11
100.52
 21
111.286
 31
0.0
  0
LINE
  5
1C7
  8
0
 62
     7
 10
100.52
 20
111.286
 30
0.0
 11
100.381
 21
111.33199999999999
 31
0.0
  0
LINE
  5
1C8
  8
0
 62
     7
 10
100.381
 20
111.33199999999999
 30
0.0
 11
100.319
 21
111.33199999999999
 31
0.0
  0
LINE
  5
1C9
  8
0
 62
     7
 10
100.69
 20
108.349
 30
0.0
 11
100.675
 21
111.023
 31
0.0
  0
LINE
  5
1CA
  8
0
 62
     7
 10
100.319
 20
105.334
 30
0.0
 11
100.474
 21
105.36499999999999
 31
0.0
  0
LINE
  5
1CB
  8
0
 62
     7
 10
100.474
 20
105.36499999999999
 30
0.0
 11
100.613
 21
105.489
 31
0.0
  0
LINE
  5
1CC
  8
0
 62
     7
 10
100.613
 20
105.489
 30
0.0
 11
100.65900000000001
 21
105.628
 31
0.0
  0
LINE
  5
1CD
  8
0
 62
     7
 10
100.65900000000001
 20
105.628
 30
0.0
 11
100.675
 21
105.67400000000001
 31
0.0
  0
LINE
  5
1CE
  8
0
 62
     7
 10
100.675
 20
105.67400000000001
 30
0.0
 11
100.69
 21
108.349
 31
0.0
  0
LINE
  5
1CF
  8
0
 62
     7
 10
99.747200000000007
 20
107.40600000000001
 30
0.0
 11
99.747200000000007
 21
111.33199999999999
 31
0.0
  0
LINE
  5
1D0
  8
0
 62
     7
 10
99.747200000000007
 20
111.33199999999999
 30
0.0
 11
99.685500000000005
 21
111.27
 31
0.0
  0
LINE
  5
1D1
  8
0
 62
     7
 10
99.685500000000005
 20
111.27
 30
0.0
 11
99.685500000000005
 21
110.961
 31
0.0
  0
LINE
  5
1D2
  8
0
 62
     7
 10
99.685500000000005
 20
110.961
 30
0.0
 11
99.685500000000005
 21
108.333
 31
0.0
  0
LINE
  5
1D3
  8
0
 62
     7
 10
99.747200000000007
 20
111.33199999999999
 30
0.0
 11
100.319
 21
111.33199999999999
 31
0.0
  0
LINE
  5
1D4
  8
0
 62
     7
 10
99.685500000000005
 20
108.333
 30
0.0
 11
99.685500000000005
 21
107.42100000000001
 31
0.0
  0
LINE
  5
1D5
  8
0
 62
     7
 10
99.747200000000007
 20
107.40600000000001
 30
0.0
 11
99.747200000000007
 21
105.334
 31
0.0
  0
LINE
  5
1D6
  8
0
 62
     7
 10
99.747200000000007
 20
105.334
 30
0.0
 11
99.685500000000005
 21
105.396
 31
0.0
  0
LINE
  5
1D7
  8
0
 62
     7
 10
99.685500000000005
 20
105.396
 30
0.0
 11
99.685500000000005
 21
105.705
 31
0.0
  0
LINE
  5
1D8
  8
0
 62
     7
 10
99.685500000000005
 20
105.705
 30
0.0
 11
99.685500000000005
 21
107.42100000000001
 31
0.0
  0
LINE
  5
1D9
  8
0
 62
     7
 10
99.747200000000007
 20
105.334
 30
0.0
 11
100.319
 21
105.334
 31
0.0
  0
LINE
  5
1DA
  8
0
 62
     7
 10
62.000100000000003
 20
191.28100000000001
 30
0.0
 11
95.519999999999996
 21
191.28100000000001
 31
0.0
  0
LINE
  5
1DB
  8
0
 62
     7
 10
58.8078
 20
188.92699999999999
 30
0.0
 11
57.662799999999997
 21
186.94399999999999
 31
0.0
  0
LINE
  5
1DC
  8
0
 62
     7
 10
57.662799999999997
 20
186.94399999999999
 30
0.0
 11
59.646000000000001
 21
188.089
 31
0.0
  0
LINE
  5
1DD
  8
0
 62
     7
 10
59.646000000000001
 20
188.089
 30
0.0
 11
58.8078
 21
188.92699999999999
 31
0.0
  0
LINE
  5
1DE
  8
0
 62
     7
 10
57.662799999999997
 20
186.94399999999999
 30
0.0
 11
62.000100000000003
 21
191.28100000000001
 31
0.0
  0
ARC
  5
1DF
  8
0
 62
     7
 10
117.964546
 20
108.21762099999999
 30
0.0
 40
3.117259999999999
 50
2.1165050000000001
 51
87.883484999999993
  0
ARC
  5
1E0
  8
0
 62
     7
 10
118.194796
 20
108.21762200000001
 30
0.0
 40
3.1172589999999998
 50
92.116477999999987
 51
177.88349199999999
  0
ARC
  5
1E1
  8
0
 62
     7
 10
118.194796
 20
108.44786999999999
 30
0.0
 40
3.1172589999999998
 50
182.11650800000001
 51
267.88352200000003
  0
ARC
  5
1E2
  8
0
 62
     7
 10
117.964546
 20
108.44787100000001
 30
0.0
 40
3.117259999999999
 50
272.11651499999999
 51
357.88349499999998
  0
LINE
  5
1E3
  8
0
  6
AIGENLINE001
 62
     7
 10
54.698300000000003
 20
108.864
 30
0.0
 11
58.698799999999999
 21
108.864
 31
0.0
  0
LINE
  5
1E4
  8
0
  6
AIGENLINE001
 62
     7
 10
56.698500000000003
 20
106.864
 30
0.0
 11
56.698500000000003
 21
110.86499999999999
 31
0.0
  0
ARC
  5
1E5
  8
0
  6
AIGENLINE002
 62
     7
 10
56.674275999999992
 20
108.83989099999999
 30
0.0
 40
0.6580960000000001
 50
2.1280149999999991
 51
87.887558999999996
  0
ARC
  5
1E6
  8
0
  6
AIGENLINE002
 62
     7
 10
56.722934000000002
 20
108.839569
 30
0.0
 40
0.658423
 50
92.123772999999986
 51
177.845033
  0
ARC
  5
1E7
  8
0
  6
AIGENLINE002
 62
     7
 10
56.722954000000001
 20
108.888747
 30
0.0
 40
0.6584290000000002
 50
182.12545499999999
 51
267.874574
  0
ARC
  5
1E8
  8
0
  6
AIGENLINE002
 62
     7
 10
56.674100000000003
 20
108.888583
 30
0.0
 40
0.6582660000000001
 50
272.12725499999999
 51
357.88833499999998
  0
LINE
  5
1E9
  8
0
  6
AIGENLINE001
 62
     7
 10
46.6982
 20
108.864
 30
0.0
 11
50.698700000000002
 21
108.864
 31
0.0
  0
LINE
  5
1EA
  8
0
  6
AIGENLINE001
 62
     7
 10
48.698500000000003
 20
106.864
 30
0.0
 11
48.698500000000003
 21
110.86499999999999
 31
0.0
  0
ARC
  5
1EB
  8
0
  6
AIGENLINE002
 62
     7
 10
48.674196999999999
 20
108.83989099999999
 30
0.0
 40
0.6580960000000001
 50
2.1280149999999991
 51
87.887558999999996
  0
ARC
  5
1EC
  8
0
  6
AIGENLINE002
 62
     7
 10
48.72285999999999
 20
108.839744
 30
0.0
 40
0.658249
 50
92.124724999999998
 51
177.85966099999999
  0
ARC
  5
1ED
  8
0
  6
AIGENLINE002
 62
     7
 10
48.723041000000002
 20
108.888735
 30
0.0
 40
0.658423
 50
182.124415
 51
267.86003499999998
  0
ARC
  5
1EE
  8
0
  6
AIGENLINE002
 62
     7
 10
48.674025999999998
 20
108.888578
 30
0.0
 40
0.658261
 50
272.12682699999999
 51
357.88876299999998
  0
LINE
  5
1EF
  8
_________2
 62
     7
 10
205.30099999999999
 20
127.411
 30
0.0
 11
183.55000000000001
 21
127.411
 31
0.0
  0
LINE
  5
1F0
  8
_________2
 62
     7
 10
100.3
 20
-4.0910799999999998
 30
0.0
 11
100.3
 21
-21.071400000000001
 31
0.0
  0
LINE
  5
1F1
  8
_________2
 62
     7
 10
100.3
 20
275.93099999999998
 30
0.0
 11
100.3
 21
258.911
 31
0.0
  0
LINE
  5
1F2
  8
_________2
 62
     7
 10
17.049499999999998
 20
127.411
 30
0.0
 11
-4.70052
 21
127.411
 31
0.0
  0
LINE
  5
1F3
  8
_________2
 62
     7
 10
76.741
 20
29.8047
 30
0.0
 11
74.554699999999997
 21
29.8047
 31
0.0
  0
LINE
  5
1F4
  8
_________2
 62
     7
 10
77.233699999999999
 20
29.8047
 30
0.0
 11
76.981499999999997
 21
29.8047
 31
0.0
  0
LINE
  5
1F5
  8
_________2
 62
     7
 10
77.726299999999995
 20
29.8047
 30
0.0
 11
80.651200000000003
 21
29.8047
 31
0.0
  0
LINE
  5
1F6
  8
_________2
 62
     7
 10
77.233699999999999
 20
29.8047
 30
0.0
 11
77.485500000000002
 21
29.8047
 31
0.0
  0
LINE
  5
1F7
  8
_________2
 62
     7
 10
70.837100000000007
 20
29.8047
 30
0.0
 11
68.650499999999994
 21
29.8047
 31
0.0
  0
LINE
  5
1F8
  8
_________2
 62
     7
 10
71.329400000000007
 20
29.8047
 30
0.0
 11
71.077600000000004
 21
29.8047
 31
0.0
  0
LINE
  5
1F9
  8
_________2
 62
     7
 10
71.329400000000007
 20
30.2974
 30
0.0
 11
71.329400000000007
 21
32.484400000000001
 31
0.0
  0
LINE
  5
1FA
  8
_________2
 62
     7
 10
71.329400000000007
 20
29.8047
 30
0.0
 11
71.329400000000007
 21
30.056899999999999
 31
0.0
  0
LINE
  5
1FB
  8
_________2
 62
     7
 10
71.822100000000006
 20
29.8047
 30
0.0
 11
74.009
 21
29.8047
 31
0.0
  0
LINE
  5
1FC
  8
_________2
 62
     7
 10
71.329400000000007
 20
29.8047
 30
0.0
 11
71.581599999999995
 21
29.8047
 31
0.0
  0
LINE
  5
1FD
  8
_________2
 62
     7
 10
71.329400000000007
 20
29.312799999999999
 30
0.0
 11
71.329400000000007
 21
27.125800000000002
 31
0.0
  0
LINE
  5
1FE
  8
_________2
 62
     7
 10
71.329400000000007
 20
29.8047
 30
0.0
 11
71.329400000000007
 21
29.5532
 31
0.0
  0
LINE
  5
1FF
  8
_________2
 62
     7
 10
75.040499999999994
 20
28.5852
 30
0.0
 11
80.218500000000006
 21
27.720400000000001
 31
0.0
  0
LINE
  5
200
  8
_________2
 62
     7
 10
75.040499999999994
 20
31.0243
 30
0.0
 11
80.218500000000006
 21
31.889700000000001
 31
0.0
  0
LINE
  5
201
  8
_________2
 62
     7
 10
80.218500000000006
 20
27.720400000000001
 30
0.0
 11
80.218500000000006
 21
31.889700000000001
 31
0.0
  0
LINE
  5
202
  8
_________2
 62
     7
 10
75.040499999999994
 20
28.5852
 30
0.0
 11
75.040499999999994
 21
31.0243
 31
0.0
  0
ARC
  5
203
  8
_________2
 62
     7
 10
71.28285600000001
 20
29.757811
 30
0.0
 40
1.2673589999999999
 50
2.122214
 51
87.893958999999995
  0
ARC
  5
204
  8
_________2
 62
     7
 10
71.375959999999992
 20
29.758213000000001
 30
0.0
 40
1.2669559999999991
 50
92.104701000000006
 51
177.89526900000001
  0
ARC
  5
205
  8
_________2
 62
     7
 10
71.376357999999996
 20
29.851671
 30
0.0
 40
1.2673680000000001
 50
182.12203600000001
 51
267.877993
  0
ARC
  5
206
  8
_________2
 62
     7
 10
71.282531999999989
 20
29.851998999999999
 30
0.0
 40
1.267695999999999
 50
272.12015300000002
 51
357.863674
  0
ARC
  5
207
  8
_________2
 62
     7
 10
71.329430000000002
 20
29.804742999999998
 30
0.0
 40
2.0849849999999992
 50
0.00001
 51
89.999980000000008
  0
ARC
  5
208
  8
_________2
 62
     7
 10
71.329603000000006
 20
29.804915000000001
 30
0.0
 40
2.084813
 50
90.004733999999999
 51
180.00474399999999
  0
ARC
  5
209
  8
_________2
 62
     7
 10
71.409106000000008
 20
29.884775999999999
 30
0.0
 40
2.1657950000000001
 50
182.11776599999999
 51
267.89173399999999
  0
ARC
  5
20A
  8
_________2
 62
     7
 10
71.249459000000002
 20
29.885429999999999
 30
0.0
 40
2.1664590000000001
 50
272.11546800000002
 51
357.86560400000002
  0
TEXT
  5
20B
  8
_________2
 62
     7
 10
104.605
 20
1.6794899999999999
 30
0.0
 40
3.0923400000000001
  1
図番
 41
0.5
  0
LINE
  5
20C
  8
_________2
 62
     7
 10
103.55
 20
5.9087199999999989
 30
0.0
 11
183.55099999999999
 21
5.9087199999999989
 31
0.0
  0
TEXT
  5
20D
  8
_________2
 62
     7
 10
104.605
 20
11.6793
 30
0.0
 40
3.0923400000000001
  1
品番
 41
0.5
  0
TEXT
  5
20E
  8
_________2
 62
     7
 10
104.605
 20
31.818100000000001
 30
0.0
 40
3.0923400000000001
  1
名称
 41
0.5
  0
TEXT
  5
20F
  8
_________2
 62
     7
 10
91.845058333333341
 20
26.821999999999999
 30
0.0
 40
3.6545800000000002
  1
mm
 41
0.5
 72
     1
 11
93.367800000000003
 21
26.821999999999999
 31
0.0
  0
TEXT
  5
210
  8
_________2
 62
     7
 10
85.643199999999993
 20
31.818100000000001
 30
0.0
 40
3.0923400000000001
  1
単位
 41
0.5
  0
TEXT
  5
211
  8
_________2
 62
     7
 10
85.643199999999993
 20
19.410799999999998
 30
0.0
 40
3.0923400000000001
  1
尺度
 41
0.5
  0
TEXT
  5
212
  8
_________2
 62
     7
 10
90.548758666666686
 20
13.2179
 30
0.0
 40
3.6545800000000002
  1
1 ： 3
 41
0.5
 72
     1
 11
93.959699999999998
 21
13.2179
 31
0.0
  0
TEXT
  5
213
  8
_________2
 62
     7
 10
138.30240000000001
 20
9.1078600000000005
 30
0.0
 40
3.9357000000000002
  1
EC0205
 41
0.5
 72
     1
 11
143.55000000000001
 21
9.1078600000000005
 31
0.0
  0
TEXT
  5
214
  8
_________2
 62
     7
 10
138.30240000000001
 20
-0.8926299999999999
 30
0.0
 40
3.9357000000000002
  1
EC0205
 41
0.5
 72
     1
 11
143.55000000000001
 21
-0.8926299999999999
 31
0.0
  0
TEXT
  5
215
  8
_________2
 62
     7
 10
23.357900000000001
 20
52.358499999999999
 30
0.0
 40
4.2168199999999993
  1
・使用可能ペーパー：外径120mm以下、幅114mm以下、芯内径%%c32～38mm
 41
0.5
  0
TEXT
  5
216
  8
_________2
 62
     7
 10
23.357900000000001
 20
47.087499999999999
 30
0.0
 40
4.2168199999999993
  1
・ペーパー取り付けのため、紙巻器の右側に130mm以上の空間が必要です。
 41
0.5
  0
TEXT
  5
217
  8
_________2
 62
     7
 10
23.357900000000001
 20
41.816499999999998
 30
0.0
 40
4.2168199999999993
  1
・壁取付部には厚さ30mm以上の補強木を入れてください。
 41
0.5
  0
TEXT
  5
218
  8
_________2
 62
     7
 10
109.179
 20
24.2257
 30
0.0
 40
3.9357000000000002
  1
トレンド　スペアーペーパーホルダー
 41
0.5
  0
TEXT
  5
219
  8
_________2
 62
     7
 10
39.425300333333333
 20
13.603
 30
0.0
 40
3.6545800000000002
  1
早川
 41
0.5
 72
     1
 11
41.313499999999998
 21
13.603
 31
0.0
  0
TEXT
  5
21A
  8
_________2
 62
     7
 10
20.790090666666671
 20
13.603
 30
0.0
 40
3.6545800000000002
  1
菅原
 41
0.5
 72
     1
 11
22.7392
 21
13.603
 31
0.0
  0
TEXT
  5
21B
  8
_________2
 62
     7
 10
67.785399999999996
 20
13.2179
 30
0.0
 40
3.6545800000000002
  1
15.12.24
 41
0.5
  0
TEXT
  5
21C
  8
_________2
 62
     7
 10
66.593100000000007
 20
19.410799999999998
 30
0.0
 40
3.0923400000000001
  1
日付
 41
0.5
  0
TEXT
  5
21D
  8
_________2
 62
     7
 10
29.639399999999998
 20
19.410799999999998
 30
0.0
 40
3.0923400000000001
  1
検図
 41
0.5
  0
TEXT
  5
21E
  8
_________2
 62
     7
 10
18.021100000000001
 20
5.21143
 30
0.0
 40
3.0923400000000001
  1
備考
 41
0.5
  0
TEXT
  5
21F
  8
_________2
 62
     7
 10
18.021100000000001
 20
19.410799999999998
 30
0.0
 40
3.0923400000000001
  1
製図
 41
0.5
  0
TEXT
  5
220
  8
_________2
 62
     7
 10
23.788465333333338
 20
27.936800000000002
 30
0.0
 40
4.4979399999999989
  1
セラトレーディング株式会社
 41
0.5
 72
     1
 11
41.180500000000002
 21
27.936800000000002
 31
0.0
  0
LINE
  5
221
  8
_________2
 62
     7
 10
183.55099999999999
 20
-4.0910799999999998
 30
0.0
 11
17.049499999999998
 21
-4.0910799999999998
 31
0.0
  0
LINE
  5
222
  8
_________2
 62
     7
 10
17.049499999999998
 20
-4.0910799999999998
 30
0.0
 11
17.049499999999998
 21
258.911
 31
0.0
  0
LINE
  5
223
  8
_________2
 62
     7
 10
17.049499999999998
 20
258.911
 30
0.0
 11
183.55099999999999
 21
258.911
 31
0.0
  0
LINE
  5
224
  8
_________2
 62
     7
 10
183.55099999999999
 20
258.911
 30
0.0
 11
183.55099999999999
 21
-4.0910799999999998
 31
0.0
  0
LINE
  5
225
  8
_________2
 62
     7
 10
65.549599999999998
 20
9.4089600000000004
 30
0.0
 11
65.549599999999998
 21
35.908799999999999
 31
0.0
  0
LINE
  5
226
  8
_________2
 62
     7
 10
84.549700000000016
 20
9.4089600000000004
 30
0.0
 11
84.549700000000016
 21
35.908799999999999
 31
0.0
  0
LINE
  5
227
  8
_________2
 62
     7
 10
103.55
 20
-4.0910799999999998
 30
0.0
 11
103.55
 21
35.908799999999999
 31
0.0
  0
LINE
  5
228
  8
_________2
 62
     7
 10
28.549299999999999
 20
9.4089600000000004
 30
0.0
 11
28.549299999999999
 21
23.409199999999998
 31
0.0
  0
LINE
  5
229
  8
_________2
 62
     7
 10
17.049499999999998
 20
9.4089600000000004
 30
0.0
 11
103.55
 21
9.4089600000000004
 31
0.0
  0
LINE
  5
22A
  8
_________2
 62
     7
 10
17.049499999999998
 20
23.409199999999998
 30
0.0
 11
103.55
 21
23.409199999999998
 31
0.0
  0
LINE
  5
22B
  8
_________2
 62
     7
 10
103.55
 20
15.9085
 30
0.0
 11
183.55099999999999
 21
15.9085
 31
0.0
  0
LINE
  5
22C
  8
_________2
 62
     7
 10
17.049499999999998
 20
35.908799999999999
 30
0.0
 11
183.55099999999999
 21
35.908799999999999
 31
0.0
  0
ENDSEC
  0
EOF
