  0
SECTION
  2
HEADER
  9
$ACADVER
  1
AC1009
  9
$INSBASE
 10
0.0
 20
0.0
 30
0.0
  9
$EXTMIN
 10
-4.70052
 20
-21.071400000000001
 30
0.0
  9
$EXTMAX
 10
205.30099999999999
 20
275.93099999999998
 30
0.0
  9
$LIMMIN
 10
0.0
 20
0.0
  9
$LIMMAX
 10
12.0
 20
9.0
  9
$ORTHOMODE
 70
     0
  9
$REGENMODE
 70
     1
  9
$FILLMODE
 70
     1
  9
$QTEXTMODE
 70
     0
  9
$MIRRTEXT
 70
     1
  9
$DRAGMODE
 70
     2
  9
$LTSCALE
 40
1.0
  9
$OSMODE
 70
    37
  9
$ATTMODE
 70
     1
  9
$TEXTSIZE
 40
0.0
  9
$TRACEWID
 40
0.05
  9
$TEXTSTYLE
  7
STANDARD
  9
$CLAYER
  8
0
  9
$CELTYPE
  6
CONTINUOUS
  9
$CECOLOR
 62
   256
  9
$DIMSCALE
 40
1.0
  9
$DIMASZ
 40
0.18
  9
$DIMEXO
 40
0.0625
  9
$DIMDLI
 40
0.38
  9
$DIMRND
 40
0.0
  9
$DIMDLE
 40
0.0
  9
$DIMEXE
 40
0.18
  9
$DIMTP
 40
0.0
  9
$DIMTM
 40
0.0
  9
$DIMTXT
 40
0.18
  9
$DIMCEN
 40
0.09
  9
$DIMTSZ
 40
0.0
  9
$DIMTOL
 70
     0
  9
$DIMLIM
 70
     0
  9
$DIMTIH
 70
     1
  9
$DIMTOH
 70
     1
  9
$DIMSE1
 70
     0
  9
$DIMSE2
 70
     0
  9
$DIMTAD
 70
     0
  9
$DIMZIN
 70
     0
  9
$DIMBLK
  1

  9
$DIMASO
 70
     1
  9
$DIMSHO
 70
     1
  9
$DIMPOST
  1

  9
$DIMAPOST
  1

  9
$DIMALT
 70
     0
  9
$DIMALTD
 70
     2
  9
$DIMALTF
 40
25.399999999999999
  9
$DIMLFAC
 40
1.0
  9
$DIMTOFL
 70
     0
  9
$DIMTVP
 40
0.0
  9
$DIMTIX
 70
     0
  9
$DIMSOXD
 70
     0
  9
$DIMSAH
 70
     0
  9
$DIMBLK1
  1

  9
$DIMBLK2
  1

  9
$DIMSTYLE
  2
STANDARD
  9
$DIMCLRD
 70
     0
  9
$DIMCLRE
 70
     0
  9
$DIMCLRT
 70
     0
  9
$DIMTFAC
 40
1.0
  9
$DIMGAP
 40
0.09
  9
$LUNITS
 70
     2
  9
$LUPREC
 70
     4
  9
$SKETCHINC
 40
0.1
  9
$FILLETRAD
 40
0.0
  9
$AUNITS
 70
     0
  9
$AUPREC
 70
     0
  9
$MENU
  1
.
  9
$ELEVATION
 40
0.0
  9
$PELEVATION
 40
0.0
  9
$THICKNESS
 40
0.0
  9
$LIMCHECK
 70
     0
  9
$BLIPMODE
 70
     0
  9
$CHAMFERA
 40
0.0
  9
$CHAMFERB
 40
0.0
  9
$SKPOLY
 70
     0
  9
$TDCREATE
 40
2444972.375
  9
$TDUPDATE
 40
2457436.245953206
  9
$TDINDWG
 40
0.0000348032
  9
$TDUSRTIMER
 40
0.0000348032
  9
$USRTIMER
 70
     1
  9
$ANGBASE
 50
0.0
  9
$ANGDIR
 70
     0
  9
$PDMODE
 70
     0
  9
$PDSIZE
 40
0.0
  9
$PLINEWID
 40
0.0
  9
$COORDS
 70
     1
  9
$SPLFRAME
 70
     0
  9
$SPLINETYPE
 70
     6
  9
$SPLINESEGS
 70
     8
  9
$ATTDIA
 70
     1
  9
$ATTREQ
 70
     1
  9
$HANDLING
 70
     1
  9
$HANDSEED
  5
54E
  9
$SURFTAB1
 70
     6
  9
$SURFTAB2
 70
     6
  9
$SURFTYPE
 70
     6
  9
$SURFU
 70
     6
  9
$SURFV
 70
     6
  9
$UCSNAME
  2

  9
$UCSORG
 10
0.0
 20
0.0
 30
0.0
  9
$UCSXDIR
 10
1.0
 20
0.0
 30
0.0
  9
$UCSYDIR
 10
0.0
 20
1.0
 30
0.0
  9
$PUCSNAME
  2

  9
$PUCSORG
 10
0.0
 20
0.0
 30
0.0
  9
$PUCSXDIR
 10
1.0
 20
0.0
 30
0.0
  9
$PUCSYDIR
 10
0.0
 20
1.0
 30
0.0
  9
$USERI1
 70
     0
  9
$USERI2
 70
     0
  9
$USERI3
 70
     0
  9
$USERI4
 70
     0
  9
$USERI5
 70
     0
  9
$USERR1
 40
0.0
  9
$USERR2
 40
0.0
  9
$USERR3
 40
0.0
  9
$USERR4
 40
0.0
  9
$USERR5
 40
0.0
  9
$WORLDVIEW
 70
     1
  9
$SHADEDGE
 70
     3
  9
$SHADEDIF
 70
    70
  9
$TILEMODE
 70
     1
  9
$MAXACTVP
 70
    48
  9
$PLIMCHECK
 70
     0
  9
$PEXTMIN
 10
1.0000000000000000E+020
 20
1.0000000000000000E+020
 30
1.0000000000000000E+020
  9
$PEXTMAX
 10
-1.0000000000000000E+020
 20
-1.0000000000000000E+020
 30
-1.0000000000000000E+020
  9
$PLIMMIN
 10
0.0
 20
0.0
  9
$PLIMMAX
 10
12.0
 20
9.0
  9
$UNITMODE
 70
     0
  9
$VISRETAIN
 70
     1
  9
$PLINEGEN
 70
     0
  9
$PSLTSCALE
 70
     1
  0
ENDSEC
  0
SECTION
  2
TABLES
  0
TABLE
  2
VPORT
 70
     1
  0
VPORT
  2
*ACTIVE
 70
     0
 10
0.0
 20
0.0
 11
1.0
 21
1.0
 12
156.29059996312719
 22
127.4298
 13
0.0
 23
0.0
 14
1.0
 24
1.0
 15
0.0
 25
0.0
 16
0.0
 26
0.0
 36
1.0
 17
0.0
 27
0.0
 37
0.0
 40
282.89992383679322
 41
2.0381526104417671
 42
50.0
 43
0.0
 44
0.0
 50
0.0
 51
0.0
 71
     0
 72
   100
 73
     1
 74
     1
 75
     0
 76
     0
 77
     0
 78
     0
  0
ENDTAB
  0
TABLE
  2
LTYPE
 70
     3
  0
LTYPE
  2
CONTINUOUS
 70
     0
  3
Solid line
 72
    65
 73
     0
 40
0.0
  0
LTYPE
  2
AIGENLINE001
 70
     0
  3
generate AI->DXF Converter
 72
    65
 73
     4
 40
5.8561449999999988
 49
3.5278
 49
-0.776115
 49
0.776115
 49
-0.776115
  0
LTYPE
  2
AIGENLINE002
 70
     0
  3
generate AI->DXF Converter
 72
    65
 73
     2
 40
1.5522299999999991
 49
0.776115
 49
-0.776115
  0
ENDTAB
  0
TABLE
  2
LAYER
 70
     2
  0
LAYER
  2
0
 70
     0
 62
     7
  6
CONTINUOUS
  0
LAYER
  2
_________2
 70
     0
 62
     7
  6
CONTINUOUS
  0
ENDTAB
  0
TABLE
  2
STYLE
 70
     1
  0
STYLE
  2
STANDARD
 70
     0
 40
0.0
 41
0.0
 50
0.0
 71
     0
 42
0.0
  3
TXT
  4
EXTFONT.SHX
  0
ENDTAB
  0
TABLE
  2
VIEW
 70
     0
  0
ENDTAB
  0
TABLE
  2
UCS
 70
     0
  0
ENDTAB
  0
TABLE
  2
APPID
 70
     3
  0
APPID
  2
ACAD
 70
     0
  0
APPID
  2
ACAD_NAV_VCDISPLAY
 70
     0
  0
APPID
  2
ACAD_MLEADERVER
 70
     0
  0
ENDTAB
  0
TABLE
  2
DIMSTYLE
 70
     1
  0
DIMSTYLE
  2
STANDARD
 70
     0
  3

  4

  5

  6

  7

 40
1.0
 41
0.18
 42
0.0625
 43
0.38
 44
0.18
 45
0.0
 46
0.0
 47
0.0
 48
0.0
140
0.18
141
0.09
142
0.0
143
25.399999999999999
144
1.0
145
0.0
146
1.0
147
0.09
 71
     0
 72
     0
 73
     1
 74
     1
 75
     0
 76
     0
 77
     0
 78
     0
170
     0
171
     2
172
     0
173
     0
174
     0
175
     0
176
     0
177
     0
178
     0
  0
ENDTAB
  0
ENDSEC
  0
SECTION
  2
BLOCKS
  0
BLOCK
  8
0
  2
$MODEL_SPACE
 70
     0
 10
0.0
 20
0.0
 30
0.0
  3
$MODEL_SPACE
  1

  0
ENDBLK
  5
1A
  8
0
  0
BLOCK
 67
     1
  8
0
  2
$PAPER_SPACE
 70
     0
 10
0.0
 20
0.0
 30
0.0
  3
$PAPER_SPACE
  1

  0
ENDBLK
  5
17
 67
     1
  8
0
  0
ENDSEC
  0
SECTION
  2
ENTITIES
  0
TEXT
  5
23
  8
0
 62
     7
 10
65.514424999999989
 20
218.69
 30
0.0
 40
3.0923400000000001
  1
46
 41
0.5
 72
     1
 11
66.802899999999994
 21
218.69
 31
0.0
  0
TEXT
  5
24
  8
0
 62
     7
 10
65.118882499999998
 20
76.194299999999998
 30
0.0
 40
3.0923400000000001
  1
190
 41
0.5
 72
     1
 11
66.793899999999994
 21
76.194299999999998
 31
0.0
  0
TEXT
  5
25
  8
0
 62
     7
 10
110.361
 20
108.52213500000001
 30
0.0
 40
3.0923400000000001
  1
136
 50
90.0
 41
0.5
 72
     1
 11
110.361
 21
110.32599999999999
 31
0.0
  0
TEXT
  5
26
  8
0
 62
     7
 10
110.361
 20
176.302525
 30
0.0
 40
3.0923400000000001
  1
73
 50
90.0
 41
0.5
 72
     1
 11
110.361
 21
177.59100000000001
 31
0.0
  0
TEXT
  5
27
  8
0
 62
     7
 10
103.35899999999999
 20
180.885525
 30
0.0
 40
3.0923400000000001
  1
46
 50
90.0
 41
0.5
 72
     1
 11
103.35899999999999
 21
182.17400000000001
 31
0.0
  0
TEXT
  5
28
  8
0
 62
     7
 10
65.509924999999996
 20
212.935
 30
0.0
 40
3.0923400000000001
  1
24
 41
0.5
 72
     1
 11
66.798400000000001
 21
212.935
 31
0.0
  0
TEXT
  5
29
  8
0
 62
     7
 10
88.055690999999996
 20
199.33199999999999
 30
0.0
 40
3.0923400000000001
  1
（%%c6\U+00D730 樹脂プラグ付）
 41
0.5
 72
     2
 11
110.26900000000001
 21
199.33199999999999
 31
0.0
  0
TEXT
  5
2A
  8
0
 62
     7
 10
78.675592999999992
 20
204.11600000000001
 30
0.0
 40
3.0923400000000001
  1
%%c3.8\U+00D750 十字穴付SUS丸頭木ネジ
 41
0.5
 72
     2
 11
110.26900000000001
 21
204.11600000000001
 31
0.0
  0
TEXT
  5
2B
  8
0
 62
     7
 10
169.00899999999999
 20
138.80613500000001
 30
0.0
 40
3.0923400000000001
  1
10
 50
90.0
 41
0.5
 72
     2
 11
169.00899999999999
 21
140.61000000000001
 31
0.0
  0
TEXT
  5
2C
  8
0
 62
     7
 10
175.15899999999999
 20
129.95352500000001
 30
0.0
 40
3.0923400000000001
  1
25
 50
90.0
 41
0.5
 72
     1
 11
175.15899999999999
 21
131.24199999999999
 31
0.0
  0
TEXT
  5
2D
  8
0
 62
     7
 10
121.81699999999999
 20
110.53700000000001
 30
0.0
 40
3.0923400000000001
  1
%%c8
 50
345.00099999999998
 41
0.5
  0
LINE
  5
2E
  8
0
 62
     7
 10
63.436000000000007
 20
189.7579999999999
 30
0.0
 11
63.436000000000007
 21
203.66999999999999
 31
0.0
  0
LINE
  5
2F
  8
0
 62
     7
 10
62.169600000000003
 20
189.7579999999999
 30
0.0
 11
62.169600000000003
 21
203.66999999999999
 31
0.0
  0
LINE
  5
30
  8
0
 62
     7
 10
61.838099999999997
 20
203.90600000000001
 30
0.0
 11
63.767400000000002
 21
204.50999999999999
 31
0.0
  0
LINE
  5
31
  8
0
 62
     7
 10
61.838099999999997
 20
202.85400000000001
 30
0.0
 11
63.767400000000002
 21
203.45699999999999
 31
0.0
  0
LINE
  5
32
  8
0
 62
     7
 10
61.838099999999997
 20
201.80099999999999
 30
0.0
 11
63.767400000000002
 21
202.404
 31
0.0
  0
LINE
  5
33
  8
0
 62
     7
 10
61.838099999999997
 20
200.74799999999999
 30
0.0
 11
63.767400000000002
 21
201.352
 31
0.0
  0
LINE
  5
34
  8
0
 62
     7
 10
61.838099999999997
 20
199.696
 30
0.0
 11
63.767400000000002
 21
200.29900000000001
 31
0.0
  0
LINE
  5
35
  8
0
 62
     7
 10
61.838099999999997
 20
198.643
 30
0.0
 11
63.767400000000002
 21
199.24700000000001
 31
0.0
  0
LINE
  5
36
  8
0
 62
     7
 10
61.838099999999997
 20
197.59
 30
0.0
 11
63.767400000000002
 21
198.19399999999999
 31
0.0
  0
LINE
  5
37
  8
0
 62
     7
 10
61.838099999999997
 20
196.53800000000001
 30
0.0
 11
63.767400000000002
 21
197.14099999999999
 31
0.0
  0
LINE
  5
38
  8
0
  6
AIGENLINE001
 62
     7
 10
62.802799999999998
 20
188.666
 30
0.0
 11
62.802799999999998
 21
206.756
 31
0.0
  0
LINE
  5
39
  8
0
 62
     7
 10
63.436000000000007
 20
203.66999999999999
 30
0.0
 11
62.802799999999998
 21
205.42500000000001
 31
0.0
  0
LINE
  5
3A
  8
0
 62
     7
 10
62.169600000000003
 20
203.66999999999999
 30
0.0
 11
62.802799999999998
 21
205.42500000000001
 31
0.0
  0
LINE
  5
3B
  8
0
 62
     7
 10
61.838099999999997
 20
194.43299999999999
 30
0.0
 11
63.767400000000002
 21
195.035
 31
0.0
  0
LINE
  5
3C
  8
0
 62
     7
 10
61.838099999999997
 20
195.48500000000001
 30
0.0
 11
63.767400000000002
 21
196.08799999999999
 31
0.0
  0
LINE
  5
3D
  8
0
 62
     7
 10
62.169600000000003
 20
193.75800000000001
 30
0.0
 11
63.436000000000007
 21
193.75800000000001
 31
0.0
  0
LINE
  5
3E
  8
0
 62
     7
 10
71.427300000000002
 20
189.7579999999999
 30
0.0
 11
71.427300000000002
 21
203.66999999999999
 31
0.0
  0
LINE
  5
3F
  8
0
 62
     7
 10
70.160799999999995
 20
189.7579999999999
 30
0.0
 11
70.160799999999995
 21
203.66999999999999
 31
0.0
  0
LINE
  5
40
  8
0
 62
     7
 10
69.829400000000007
 20
203.90600000000001
 30
0.0
 11
71.758700000000005
 21
204.50999999999999
 31
0.0
  0
LINE
  5
41
  8
0
 62
     7
 10
69.829400000000007
 20
202.85400000000001
 30
0.0
 11
71.758700000000005
 21
203.45699999999999
 31
0.0
  0
LINE
  5
42
  8
0
 62
     7
 10
69.829400000000007
 20
201.80099999999999
 30
0.0
 11
71.758700000000005
 21
202.404
 31
0.0
  0
LINE
  5
43
  8
0
 62
     7
 10
69.829400000000007
 20
200.74799999999999
 30
0.0
 11
71.758700000000005
 21
201.352
 31
0.0
  0
LINE
  5
44
  8
0
 62
     7
 10
69.829400000000007
 20
199.696
 30
0.0
 11
71.758700000000005
 21
200.29900000000001
 31
0.0
  0
LINE
  5
45
  8
0
 62
     7
 10
69.829400000000007
 20
198.643
 30
0.0
 11
71.758700000000005
 21
199.24700000000001
 31
0.0
  0
LINE
  5
46
  8
0
 62
     7
 10
69.829400000000007
 20
197.59
 30
0.0
 11
71.758700000000005
 21
198.19399999999999
 31
0.0
  0
LINE
  5
47
  8
0
 62
     7
 10
69.829400000000007
 20
196.53800000000001
 30
0.0
 11
71.758700000000005
 21
197.14099999999999
 31
0.0
  0
LINE
  5
48
  8
0
  6
AIGENLINE001
 62
     7
 10
70.7941
 20
188.666
 30
0.0
 11
70.7941
 21
206.756
 31
0.0
  0
LINE
  5
49
  8
0
 62
     7
 10
71.427300000000002
 20
203.66999999999999
 30
0.0
 11
70.7941
 21
205.42500000000001
 31
0.0
  0
LINE
  5
4A
  8
0
 62
     7
 10
70.160799999999995
 20
203.66999999999999
 30
0.0
 11
70.7941
 21
205.42500000000001
 31
0.0
  0
LINE
  5
4B
  8
0
 62
     7
 10
69.829400000000007
 20
194.43299999999999
 30
0.0
 11
71.758700000000005
 21
195.035
 31
0.0
  0
LINE
  5
4C
  8
0
 62
     7
 10
69.829400000000007
 20
195.48500000000001
 30
0.0
 11
71.758700000000005
 21
196.08799999999999
 31
0.0
  0
LINE
  5
4D
  8
0
 62
     7
 10
70.160799999999995
 20
193.75800000000001
 30
0.0
 11
71.427300000000002
 21
193.75800000000001
 31
0.0
  0
LINE
  5
4E
  8
0
 62
     7
 10
59.208799999999997
 20
190.458
 30
0.0
 11
59.208799999999997
 21
218.69
 31
0.0
  0
LINE
  5
4F
  8
0
 62
     7
 10
74.396999999999991
 20
218.69
 30
0.0
 11
74.396999999999991
 21
190.458
 31
0.0
  0
LINE
  5
50
  8
0
 62
     7
 10
61.419199999999989
 20
218.57499999999999
 30
0.0
 11
59.208100000000002
 21
217.983
 31
0.0
  0
LINE
  5
51
  8
0
 62
     7
 10
59.208100000000002
 20
217.983
 30
0.0
 11
61.419199999999989
 21
217.38999999999999
 31
0.0
  0
LINE
  5
52
  8
0
 62
     7
 10
61.419199999999989
 20
217.38999999999999
 30
0.0
 11
61.419199999999989
 21
218.57499999999999
 31
0.0
  0
LINE
  5
53
  8
0
 62
     7
 10
72.186599999999984
 20
217.405
 30
0.0
 11
74.3977
 21
217.99700000000001
 31
0.0
  0
LINE
  5
54
  8
0
 62
     7
 10
74.3977
 20
217.99700000000001
 30
0.0
 11
72.186599999999984
 21
218.59
 31
0.0
  0
LINE
  5
55
  8
0
 62
     7
 10
72.186599999999984
 20
218.59
 30
0.0
 11
72.186599999999984
 21
217.405
 31
0.0
  0
LINE
  5
56
  8
0
 62
     7
 10
59.208799999999997
 20
217.99000000000001
 30
0.0
 11
74.396999999999991
 21
217.99000000000001
 31
0.0
  0
LINE
  5
57
  8
0
 62
     7
 10
104.645
 20
187.547
 30
0.0
 11
104.05200000000001
 21
189.7579999999999
 31
0.0
  0
LINE
  5
58
  8
0
 62
     7
 10
104.05200000000001
 20
189.7579999999999
 30
0.0
 11
103.45999999999999
 21
187.547
 31
0.0
  0
LINE
  5
59
  8
0
 62
     7
 10
103.45999999999999
 20
187.547
 30
0.0
 11
104.645
 21
187.547
 31
0.0
  0
LINE
  5
5A
  8
0
 62
     7
 10
103.474
 20
176.80199999999999
 30
0.0
 11
104.06699999999999
 21
174.59
 31
0.0
  0
LINE
  5
5B
  8
0
 62
     7
 10
104.06699999999999
 20
174.59
 30
0.0
 11
104.65900000000001
 21
176.80199999999999
 31
0.0
  0
LINE
  5
5C
  8
0
 62
     7
 10
104.65900000000001
 20
176.80199999999999
 30
0.0
 11
103.474
 21
176.80199999999999
 31
0.0
  0
LINE
  5
5D
  8
0
 62
     7
 10
104.059
 20
189.7579999999999
 30
0.0
 11
104.059
 21
174.59100000000001
 31
0.0
  0
LINE
  5
5E
  8
0
 62
     7
 10
74.078999999999994
 20
174.59100000000001
 30
0.0
 11
104.759
 21
174.59100000000001
 31
0.0
  0
LINE
  5
5F
  8
0
 62
     7
 10
72.903499999999994
 20
200.17699999999999
 30
0.0
 11
71.758700000000005
 21
198.19399999999999
 31
0.0
  0
LINE
  5
60
  8
0
 62
     7
 10
71.758700000000005
 20
198.19399999999999
 30
0.0
 11
73.741699999999994
 21
199.339
 31
0.0
  0
LINE
  5
61
  8
0
 62
     7
 10
73.741699999999994
 20
199.339
 30
0.0
 11
72.903499999999994
 21
200.17699999999999
 31
0.0
  0
LINE
  5
62
  8
0
 62
     7
 10
76.981099999999984
 20
203.416
 30
0.0
 11
110.26900000000001
 21
203.416
 31
0.0
  0
LINE
  5
63
  8
0
 62
     7
 10
71.758700000000005
 20
198.19399999999999
 30
0.0
 11
76.981099999999984
 21
203.416
 31
0.0
  0
LINE
  5
64
  8
0
 62
     7
 10
62.802799999999998
 20
207.45599999999999
 30
0.0
 11
62.802799999999998
 21
212.935
 31
0.0
  0
LINE
  5
65
  8
0
 62
     7
 10
70.7941
 20
212.935
 30
0.0
 11
70.7941
 21
207.45599999999999
 31
0.0
  0
LINE
  5
66
  8
0
 62
     7
 10
65.013199999999983
 20
212.81999999999999
 30
0.0
 11
62.802100000000003
 21
212.227
 31
0.0
  0
LINE
  5
67
  8
0
 62
     7
 10
62.802100000000003
 20
212.227
 30
0.0
 11
65.013199999999983
 21
211.63499999999999
 31
0.0
  0
LINE
  5
68
  8
0
 62
     7
 10
65.013199999999983
 20
211.63499999999999
 30
0.0
 11
65.013199999999983
 21
212.81999999999999
 31
0.0
  0
LINE
  5
69
  8
0
 62
     7
 10
68.583699999999993
 20
211.649
 30
0.0
 11
70.794700000000006
 21
212.24199999999999
 31
0.0
  0
LINE
  5
6A
  8
0
 62
     7
 10
70.794700000000006
 20
212.24199999999999
 30
0.0
 11
68.583699999999993
 21
212.834
 31
0.0
  0
LINE
  5
6B
  8
0
 62
     7
 10
68.583699999999993
 20
212.834
 30
0.0
 11
68.583699999999993
 21
211.649
 31
0.0
  0
LINE
  5
6C
  8
0
 62
     7
 10
62.802799999999998
 20
212.23500000000001
 30
0.0
 11
70.7941
 21
212.23500000000001
 31
0.0
  0
LINE
  5
6D
  8
0
 62
     7
 10
170.30199999999999
 20
129.791
 30
0.0
 11
169.709
 21
132.00299999999999
 31
0.0
  0
LINE
  5
6E
  8
0
 62
     7
 10
169.709
 20
132.00299999999999
 30
0.0
 11
169.11699999999999
 21
129.791
 31
0.0
  0
LINE
  5
6F
  8
0
 62
     7
 10
169.11699999999999
 20
129.791
 30
0.0
 11
170.30199999999999
 21
129.791
 31
0.0
  0
LINE
  5
70
  8
0
 62
     7
 10
169.11699999999999
 20
137.54300000000001
 30
0.0
 11
169.709
 21
135.33099999999999
 31
0.0
  0
LINE
  5
71
  8
0
 62
     7
 10
169.709
 20
135.33099999999999
 30
0.0
 11
170.30199999999999
 21
137.54300000000001
 31
0.0
  0
LINE
  5
72
  8
0
 62
     7
 10
170.30199999999999
 20
137.54300000000001
 30
0.0
 11
169.11699999999999
 21
137.54300000000001
 31
0.0
  0
LINE
  5
73
  8
0
 62
     7
 10
169.709
 20
140.61000000000001
 30
0.0
 11
169.709
 21
128.81999999999999
 31
0.0
  0
LINE
  5
74
  8
0
 62
     7
 10
170.40899999999999
 20
132.00299999999999
 30
0.0
 11
165.624
 21
132.00299999999999
 31
0.0
  0
LINE
  5
75
  8
0
 62
     7
 10
176.44499999999999
 20
133.126
 30
0.0
 11
175.852
 21
135.33699999999999
 31
0.0
  0
LINE
  5
76
  8
0
 62
     7
 10
175.852
 20
135.33699999999999
 30
0.0
 11
175.25999999999999
 21
133.126
 31
0.0
  0
LINE
  5
77
  8
0
 62
     7
 10
175.25999999999999
 20
133.126
 30
0.0
 11
176.44499999999999
 21
133.126
 31
0.0
  0
LINE
  5
78
  8
0
 62
     7
 10
175.274
 20
129.35900000000001
 30
0.0
 11
175.86699999999999
 21
127.148
 31
0.0
  0
LINE
  5
79
  8
0
 62
     7
 10
175.86699999999999
 20
127.148
 30
0.0
 11
176.459
 21
129.35900000000001
 31
0.0
  0
LINE
  5
7A
  8
0
 62
     7
 10
176.459
 20
129.35900000000001
 30
0.0
 11
175.274
 21
129.35900000000001
 31
0.0
  0
LINE
  5
7B
  8
0
 62
     7
 10
175.85900000000001
 20
135.33600000000001
 30
0.0
 11
175.85900000000001
 21
127.149
 31
0.0
  0
LINE
  5
7C
  8
0
 62
     7
 10
176.56
 20
135.33099999999999
 30
0.0
 11
148.45599999999999
 21
135.33099999999999
 31
0.0
  0
LINE
  5
7D
  8
0
 62
     7
 10
176.56
 20
127.149
 30
0.0
 11
148.45599999999999
 21
127.149
 31
0.0
  0
LINE
  5
7E
  8
0
 62
     7
 10
147.756
 20
131.37
 30
0.0
 11
161.66900000000001
 21
131.37
 31
0.0
  0
LINE
  5
7F
  8
0
 62
     7
 10
147.756
 20
132.636
 30
0.0
 11
161.66900000000001
 21
132.636
 31
0.0
  0
LINE
  5
80
  8
0
 62
     7
 10
161.904
 20
132.96799999999999
 30
0.0
 11
162.50800000000001
 21
131.03800000000001
 31
0.0
  0
LINE
  5
81
  8
0
 62
     7
 10
160.852
 20
132.96799999999999
 30
0.0
 11
161.45500000000001
 21
131.03800000000001
 31
0.0
  0
LINE
  5
82
  8
0
 62
     7
 10
159.79900000000001
 20
132.96799999999999
 30
0.0
 11
160.40199999999999
 21
131.03800000000001
 31
0.0
  0
LINE
  5
83
  8
0
 62
     7
 10
158.74700000000001
 20
132.96799999999999
 30
0.0
 11
159.34999999999999
 21
131.03800000000001
 31
0.0
  0
LINE
  5
84
  8
0
 62
     7
 10
157.69399999999999
 20
132.96799999999999
 30
0.0
 11
158.297
 21
131.03800000000001
 31
0.0
  0
LINE
  5
85
  8
0
 62
     7
 10
156.64099999999999
 20
132.96799999999999
 30
0.0
 11
157.245
 21
131.03800000000001
 31
0.0
  0
LINE
  5
86
  8
0
 62
     7
 10
155.589
 20
132.96799999999999
 30
0.0
 11
156.19200000000001
 21
131.03800000000001
 31
0.0
  0
LINE
  5
87
  8
0
 62
     7
 10
154.536
 20
132.96799999999999
 30
0.0
 11
155.13900000000001
 21
131.03800000000001
 31
0.0
  0
LINE
  5
88
  8
0
  6
AIGENLINE001
 62
     7
 10
146.66399999999999
 20
132.00299999999999
 30
0.0
 11
164.75399999999999
 21
132.00299999999999
 31
0.0
  0
LINE
  5
89
  8
0
 62
     7
 10
161.66900000000001
 20
131.37
 30
0.0
 11
163.423
 21
132.00299999999999
 31
0.0
  0
LINE
  5
8A
  8
0
 62
     7
 10
161.66900000000001
 20
132.636
 30
0.0
 11
163.423
 21
132.00299999999999
 31
0.0
  0
LINE
  5
8B
  8
0
 62
     7
 10
152.43100000000001
 20
132.96799999999999
 30
0.0
 11
153.03399999999999
 21
131.03800000000001
 31
0.0
  0
LINE
  5
8C
  8
0
 62
     7
 10
153.483
 20
132.96799999999999
 30
0.0
 11
154.08699999999999
 21
131.03800000000001
 31
0.0
  0
LINE
  5
8D
  8
0
 62
     7
 10
151.756
 20
132.636
 30
0.0
 11
151.756
 21
131.37
 31
0.0
  0
LINE
  5
8E
  8
0
 62
     7
 10
126.09099999999999
 20
108.054
 30
0.0
 11
128.381
 21
108.054
 31
0.0
  0
LINE
  5
8F
  8
0
 62
     7
 10
128.381
 20
108.054
 30
0.0
 11
126.398
 21
109.199
 31
0.0
  0
LINE
  5
90
  8
0
 62
     7
 10
126.398
 20
109.199
 30
0.0
 11
126.09099999999999
 21
108.054
 31
0.0
  0
LINE
  5
91
  8
0
 62
     7
 10
133.249
 20
107.363
 30
0.0
 11
130.96000000000001
 21
107.363
 31
0.0
  0
LINE
  5
92
  8
0
 62
     7
 10
130.96000000000001
 20
107.363
 30
0.0
 11
132.94200000000001
 21
106.218
 31
0.0
  0
LINE
  5
93
  8
0
 62
     7
 10
132.94200000000001
 20
106.218
 30
0.0
 11
133.249
 21
107.363
 31
0.0
  0
LINE
  5
94
  8
0
 62
     7
 10
134.4189999999999
 20
106.43600000000001
 30
0.0
 11
121.636
 21
109.861
 31
0.0
  0
LINE
  5
95
  8
0
  6
AIGENLINE001
 62
     7
 10
68.793499999999995
 20
132.00299999999999
 30
0.0
 11
72.793899999999994
 21
132.00299999999999
 31
0.0
  0
LINE
  5
96
  8
0
  6
AIGENLINE001
 62
     7
 10
70.7941
 20
130.00299999999999
 30
0.0
 11
70.7941
 21
134.00299999999999
 31
0.0
  0
ARC
  5
97
  8
0
  6
AIGENLINE002
 62
     7
 10
70.769988999999995
 20
131.97799599999999
 30
0.0
 40
0.6580810000000001
 50
2.1273419999999992
 51
87.903812999999985
  0
ARC
  5
98
  8
0
  6
AIGENLINE002
 62
     7
 10
70.818454000000003
 20
131.97767099999999
 30
0.0
 40
0.6584180000000001
 50
92.123345
 51
177.845461
  0
ARC
  5
99
  8
0
  6
AIGENLINE002
 62
     7
 10
70.818150000000003
 20
132.02687299999999
 30
0.0
 40
0.6581020000000001
 50
182.129076
 51
267.90211799999997
  0
ARC
  5
9A
  8
0
  6
AIGENLINE002
 62
     7
 10
70.769654000000003
 20
132.027187
 30
0.0
 40
0.658428
 50
272.12422099999998
 51
357.84462400000001
  0
LINE
  5
9B
  8
0
  6
AIGENLINE001
 62
     7
 10
60.793599999999998
 20
132.00299999999999
 30
0.0
 11
64.793999999999997
 21
132.00299999999999
 31
0.0
  0
LINE
  5
9C
  8
0
  6
AIGENLINE001
 62
     7
 10
66.7941
 20
172.399
 30
0.0
 11
66.7941
 21
192.36000000000001
 31
0.0
  0
LINE
  5
9D
  8
0
  6
AIGENLINE001
 62
     7
 10
66.7941
 20
123.99299999999999
 30
0.0
 11
66.7941
 21
137.72999999999999
 31
0.0
  0
LINE
  5
9E
  8
0
  6
AIGENLINE001
 62
     7
 10
62.794199999999996
 20
130.00299999999999
 30
0.0
 11
62.794199999999996
 21
134.00299999999999
 31
0.0
  0
ARC
  5
9F
  8
0
  6
AIGENLINE002
 62
     7
 10
62.769748
 20
131.97801999999999
 30
0.0
 40
0.6580690000000001
 50
2.125259999999999
 51
87.87473
  0
ARC
  5
A0
  8
0
  6
AIGENLINE002
 62
     7
 10
62.818547000000002
 20
131.97767099999999
 30
0.0
 40
0.6584180000000001
 50
92.123345
 51
177.845461
  0
ARC
  5
A1
  8
0
  6
AIGENLINE002
 62
     7
 10
62.818243999999993
 20
132.02687299999999
 30
0.0
 40
0.6581020000000001
 50
182.129076
 51
267.90211799999997
  0
ARC
  5
A2
  8
0
  6
AIGENLINE002
 62
     7
 10
62.769732999999988
 20
132.02684300000001
 30
0.0
 40
0.658085
 50
272.126555
 51
357.87345499999998
  0
LINE
  5
A3
  8
0
 62
     7
 10
96.597300000000004
 20
132.99299999999999
 30
0.0
 11
111.761
 21
132.99299999999999
 31
0.0
  0
LINE
  5
A4
  8
0
 62
     7
 10
96.597300000000004
 20
87.658900000000003
 30
0.0
 11
111.761
 21
87.658900000000003
 31
0.0
  0
LINE
  5
A5
  8
0
 62
     7
 10
110.476
 20
89.869299999999996
 30
0.0
 11
111.068
 21
87.657600000000002
 31
0.0
  0
LINE
  5
A6
  8
0
 62
     7
 10
111.068
 20
87.657600000000002
 30
0.0
 11
111.661
 21
89.869299999999996
 31
0.0
  0
LINE
  5
A7
  8
0
 62
     7
 10
111.661
 20
89.869299999999996
 30
0.0
 11
110.476
 21
89.869299999999996
 31
0.0
  0
LINE
  5
A8
  8
0
 62
     7
 10
111.646
 20
130.78200000000001
 30
0.0
 11
111.054
 21
132.99299999999999
 31
0.0
  0
LINE
  5
A9
  8
0
 62
     7
 10
111.054
 20
132.99299999999999
 30
0.0
 11
110.461
 21
130.78200000000001
 31
0.0
  0
LINE
  5
AA
  8
0
 62
     7
 10
110.461
 20
130.78200000000001
 30
0.0
 11
111.646
 21
130.78200000000001
 31
0.0
  0
LINE
  5
AB
  8
0
 62
     7
 10
111.06100000000001
 20
87.658900000000003
 30
0.0
 11
111.06100000000001
 21
132.99299999999999
 31
0.0
  0
LINE
  5
AC
  8
0
 62
     7
 10
35.127099999999999
 20
89.975099999999998
 30
0.0
 11
35.127099999999999
 21
74.794200000000004
 31
0.0
  0
LINE
  5
AD
  8
0
 62
     7
 10
98.460800000000006
 20
89.975099999999998
 30
0.0
 11
98.460800000000006
 21
74.794200000000004
 31
0.0
  0
LINE
  5
AE
  8
0
 62
     7
 10
37.337499999999999
 20
76.0792
 30
0.0
 11
35.126399999999997
 21
75.486699999999999
 31
0.0
  0
LINE
  5
AF
  8
0
 62
     7
 10
35.126399999999997
 20
75.486699999999999
 30
0.0
 11
37.337499999999999
 21
74.894099999999995
 31
0.0
  0
LINE
  5
B0
  8
0
 62
     7
 10
37.337499999999999
 20
74.894099999999995
 30
0.0
 11
37.337499999999999
 21
76.0792
 31
0.0
  0
LINE
  5
B1
  8
0
 62
     7
 10
96.250399999999999
 20
74.908600000000007
 30
0.0
 11
98.461500000000015
 21
75.501099999999994
 31
0.0
  0
LINE
  5
B2
  8
0
 62
     7
 10
98.461500000000015
 20
75.501099999999994
 30
0.0
 11
96.250399999999999
 21
76.093699999999998
 31
0.0
  0
LINE
  5
B3
  8
0
 62
     7
 10
96.250399999999999
 20
76.093699999999998
 30
0.0
 11
96.250399999999999
 21
74.908600000000007
 31
0.0
  0
LINE
  5
B4
  8
0
 62
     7
 10
35.127099999999999
 20
75.494200000000006
 30
0.0
 11
98.460800000000006
 21
75.494200000000006
 31
0.0
  0
ARC
  5
B5
  8
0
 62
     7
 10
74.345320000000001
 20
132.756665
 30
0.0
 40
15.017989
 50
179.99381
 51
180.388161
  0
ARC
  5
B6
  8
0
 62
     7
 10
62.557133999999998
 20
132.710779
 30
0.0
 40
3.229941999999999
 50
180.9907759999999
 51
183.063909
  0
ARC
  5
B7
  8
0
 62
     7
 10
18.93685
 20
130.27628300000001
 30
0.0
 40
40.458233999999997
 50
3.0252819999999989
 51
3.204845999999999
  0
ARC
  5
B8
  8
0
 62
     7
 10
366.467512
 20
150.65522300000001
 30
0.0
 40
307.6701799999999
 50
183.39943899999989
 51
183.425308
  0
ARC
  5
B9
  8
0
 62
     7
 10
101.416161
 20
134.41483099999999
 30
0.0
 40
42.123688000000001
 50
182.91473400000001
 51
183.11088000000001
  0
ARC
  5
BA
  8
0
 62
     7
 10
-265.15007000000003
 20
119.07103600000001
 30
0.0
 40
324.76722899999999
 50
2.2769240000000002
 51
2.304295999999999
  0
ARC
  5
BB
  8
0
 62
     7
 10
53.684559
 20
131.744563
 30
0.0
 40
5.6808180000000004
 50
0.7557080000000001
 51
2.3129740000000001
  0
ARC
  5
BC
  8
0
 62
     7
 10
51.998090999999988
 20
131.67595900000001
 30
0.0
 40
7.3681899999999994
 50
359.86636800000002
 51
1.1161719999999991
  0
ARC
  5
BD
  8
0
 62
     7
 10
50.139927999999998
 20
131.657521
 30
0.0
 40
9.2263330000000003
 50
359.00968399999999
 51
0.007776
  0
ARC
  5
BE
  8
0
 62
     7
 10
53.726643000000003
 20
131.57236700000001
 30
0.0
 40
5.6387289999999988
 50
357.67953199999999
 51
359.24492299999997
  0
ARC
  5
BF
  8
0
 62
     7
 10
47.896414999999998
 20
131.724996
 30
0.0
 40
11.470661
 50
357.32189099999999
 51
358.09688999999997
  0
ARC
  5
C0
  8
0
 62
     7
 10
42.019121999999989
 20
132.070674
 30
0.0
 40
17.35783
 50
356.612506
 51
357.08857
  0
ARC
  5
C1
  8
0
 62
     7
 10
44.031052999999993
 20
131.84947
 30
0.0
 40
15.336683000000001
 50
356.47379799999999
 51
356.99332500000003
  0
ARC
  5
C2
  8
0
 62
     7
 10
47.881934999999999
 20
131.467129
 30
0.0
 40
11.470489000000001
 50
356.56445300000001
 51
357.19694700000002
  0
ARC
  5
C3
  8
0
 62
     7
 10
66.551512999999986
 20
130.46571900000001
 30
0.0
 40
7.2265300000000003
 50
177.509378
 51
178.435937
  0
ARC
  5
C4
  8
0
 62
     7
 10
62.642952000000001
 20
130.60037
 30
0.0
 40
3.315866999999999
 50
178.91835499999999
 51
180.698397
  0
ARC
  5
C5
  8
0
 62
     7
 10
64.547978000000001
 20
132.631122
 30
0.0
 40
5.2221950000000001
 50
178.19819699999999
 51
178.60468899999989
  0
ARC
  5
C6
  8
0
 62
     7
 10
60.299469999999992
 20
132.79385300000001
 30
0.0
 40
0.9711069999999999
 50
177.839778
 51
179.913577
  0
ARC
  5
C7
  8
0
 62
     7
 10
60.035765000000012
 20
132.83211499999999
 30
0.0
 40
0.7067140000000001
 50
177.46613600000001
 51
180.13439199999999
  0
LINE
  5
C8
  8
0
 62
     7
 10
59.329700000000003
 20
132.863
 30
0.0
 11
59.330100000000002
 21
132.89400000000001
 31
0.0
  0
ARC
  5
C9
  8
0
 62
     7
 10
61.970982999999997
 20
132.80983699999999
 30
0.0
 40
2.6422270000000001
 50
177.57611499999999
 51
178.18165300000001
  0
LINE
  5
CA
  8
0
 62
     7
 10
59.331099999999999
 20
132.922
 30
0.0
 11
59.331099999999999
 21
132.947
 31
0.0
  0
ARC
  5
CB
  8
0
 62
     7
 10
58.911462999999991
 20
132.96480500000001
 30
0.0
 40
0.420032
 50
357.58077300000002
 51
0.683125
  0
ARC
  5
CC
  8
0
 62
     7
 10
59.114665000000002
 20
132.98260200000001
 30
0.0
 40
0.217177
 50
356.624166
 51
0.988856
  0
LINE
  5
CD
  8
0
 62
     7
 10
59.331800000000001
 20
132.98599999999999
 30
0.0
 11
59.331800000000001
 21
133.001
 31
0.0
  0
LINE
  5
CE
  8
0
 62
     7
 10
59.331800000000001
 20
133.001
 30
0.0
 11
59.331800000000001
 21
133.01400000000001
 31
0.0
  0
LINE
  5
CF
  8
0
 62
     7
 10
59.331800000000001
 20
133.01400000000001
 30
0.0
 11
59.331800000000001
 21
133.024
 31
0.0
  0
LINE
  5
D0
  8
0
 62
     7
 10
59.331800000000001
 20
133.024
 30
0.0
 11
59.331800000000001
 21
133.03200000000001
 31
0.0
  0
ARC
  5
D1
  8
0
 62
     7
 10
59.366157999999999
 20
133.036587
 30
0.0
 40
0.034701
 50
178.761425
 51
188.17503300000001
  0
ARC
  5
D2
  8
0
 62
     7
 10
59.320665000000012
 20
133.03826599999999
 30
0.0
 40
0.010839
 50
355.0849990000001
 51
15.303858
  0
LINE
  5
D3
  8
0
 62
     7
 10
59.331099999999999
 20
133.041
 30
0.0
 11
59.330399999999997
 21
133.04300000000001
 31
0.0
  0
ARC
  5
D4
  8
0
 62
     7
 10
59.871974999999999
 20
134.37168
 30
0.0
 40
0.9168190000000001
 50
91.828519999999997
 51
94.675349999999995
  0
ARC
  5
D5
  8
0
 62
     7
 10
59.843168000000013
 20
134.844258
 30
0.0
 40
0.443575
 50
95.94246200000002
 51
101.845518
  0
ARC
  5
D6
  8
0
 62
     7
 10
59.820193999999987
 20
134.903156
 30
0.0
 40
0.381356
 50
100.283599
 51
107.160972
  0
ARC
  5
D7
  8
0
 62
     7
 10
59.836900999999997
 20
134.826819
 30
0.0
 40
0.4592710000000001
 50
106.34251399999999
 51
112.033255
  0
ARC
  5
D8
  8
0
 62
     7
 10
59.835200999999991
 20
134.818591
 30
0.0
 40
0.466284
 50
111.460308
 51
116.654365
  0
ARC
  5
D9
  8
0
 62
     7
 10
59.844465
 20
134.798472
 30
0.0
 40
0.488421
 50
116.566849
 51
122.323982
  0
ARC
  5
DA
  8
0
 62
     7
 10
59.802081000000008
 20
134.85728700000001
 30
0.0
 40
0.41608
 50
121.722554
 51
127.488769
  0
ARC
  5
DB
  8
0
 62
     7
 10
59.839575000000004
 20
134.797754
 30
0.0
 40
0.48618
 50
126.72495600000001
 51
132.58085199999999
  0
ARC
  5
DC
  8
0
 62
     7
 10
59.932532999999992
 20
134.70763299999999
 30
0.0
 40
0.615482
 50
133.27609699999999
 51
137.858406
  0
ARC
  5
DD
  8
0
 62
     7
 10
59.979714000000001
 20
134.68105700000001
 30
0.0
 40
0.668405
 50
138.88289499999999
 51
142.47190699999999
  0
ARC
  5
DE
  8
0
 62
     7
 10
59.882404000000001
 20
134.77294900000001
 30
0.0
 40
0.5354290000000002
 50
143.927257
 51
148.43243699999999
  0
ARC
  5
DF
  8
0
 62
     7
 10
59.715910999999998
 20
134.86081300000001
 30
0.0
 40
0.347793
 50
146.406238
 51
154.59683000000001
  0
ARC
  5
E0
  8
0
 62
     7
 10
59.750952000000012
 20
134.83164600000001
 30
0.0
 40
0.392122
 50
152.94326899999999
 51
159.573643
  0
ARC
  5
E1
  8
0
 62
     7
 10
59.853478000000003
 20
134.78717
 30
0.0
 40
0.5037580000000002
 50
158.902885
 51
164.09027499999999
  0
ARC
  5
E2
  8
0
 62
     7
 10
59.699674999999999
 20
134.82450399999999
 30
0.0
 40
0.345669
 50
163.052988
 51
170.565754
  0
ARC
  5
E3
  8
0
 62
     7
 10
59.998936999999998
 20
134.76526200000001
 30
0.0
 40
0.650661
 50
169.73918
 51
173.75572399999999
  0
ARC
  5
E4
  8
0
 62
     7
 10
60.999609999999997
 20
133.25685300000001
 30
0.0
 40
5.569977999999999
 50
256.93416000000002
 51
257.31585999999999
  0
ARC
  5
E5
  8
0
 62
     7
 10
59.820729999999998
 20
128.15018599999999
 30
0.0
 40
0.329065
 50
248.42895799999999
 51
255.870429
  0
ARC
  5
E6
  8
0
 62
     7
 10
59.857434999999988
 20
128.273582
 30
0.0
 40
0.457451
 50
244.49670699999999
 51
249.8360100000001
  0
ARC
  5
E7
  8
0
 62
     7
 10
59.779954000000011
 20
128.147378
 30
0.0
 40
0.310576
 50
240.43471500000001
 51
247.37446199999999
  0
ARC
  5
E8
  8
0
 62
     7
 10
59.891114000000002
 20
128.34014400000001
 30
0.0
 40
0.5330930000000002
 50
235.723479
 51
240.265782
  0
ARC
  5
E9
  8
0
 62
     7
 10
59.950386999999999
 20
128.41364799999999
 30
0.0
 40
0.627259
 50
231.656925
 51
235.03088600000001
  0
ARC
  5
EA
  8
0
 62
     7
 10
59.822999000000003
 20
128.259244
 30
0.0
 40
0.42715
 50
226.799781
 51
232.21006199999999
  0
ARC
  5
EB
  8
0
 62
     7
 10
59.781681999999989
 20
128.227204
 30
0.0
 40
0.3756
 50
221.95138800000001
 51
228.048642
  0
ARC
  5
EC
  8
0
 62
     7
 10
59.952994999999987
 20
128.38358099999999
 30
0.0
 40
0.607548
 50
218.08293699999999
 51
222.118909
  0
ARC
  5
ED
  8
0
 62
     7
 10
60.429675000000003
 20
128.70429300000001
 30
0.0
 40
1.181300999999999
 50
214.26704100000001
 51
216.06586299999989
  0
ARC
  5
EE
  8
0
 62
     7
 10
59.762030000000003
 20
128.247288
 30
0.0
 40
0.372231
 50
207.453461
 51
213.995959
  0
ARC
  5
EF
  8
0
 62
     7
 10
59.716318999999991
 20
128.236007
 30
0.0
 40
0.326654
 50
202.796548
 51
209.39433399999999
  0
ARC
  5
F0
  8
0
 62
     7
 10
59.715037000000002
 20
128.24936500000001
 30
0.0
 40
0.330896
 50
198.58730399999999
 51
205.01554999999999
  0
ARC
  5
F1
  8
0
 62
     7
 10
59.714210999999999
 20
128.26706200000001
 30
0.0
 40
0.336186
 50
194.20851999999999
 51
201.492152
  0
ARC
  5
F2
  8
0
 62
     7
 10
59.681716000000002
 20
128.27064100000001
 30
0.0
 40
0.305778
 50
189.396412
 51
196.35362799999999
  0
ARC
  5
F3
  8
0
 62
     7
 10
59.802917000000001
 20
128.30458300000001
 30
0.0
 40
0.431111
 50
185.568591
 51
191.217297
  0
ARC
  5
F4
  8
0
 62
     7
 10
59.452413
 20
130.32686699999999
 30
0.0
 40
0.126809
 50
180.45611600000001
 51
185.99296799999999
  0
ARC
  5
F5
  8
0
 62
     7
 10
59.429617999999998
 20
130.31662399999999
 30
0.0
 40
0.103364
 50
181.66131300000001
 51
188.27820700000001
  0
ARC
  5
F6
  8
0
 62
     7
 10
59.512295000000002
 20
130.31388200000001
 30
0.0
 40
0.185362
 50
183.755313
 51
187.12539000000001
  0
ARC
  5
F7
  8
0
 62
     7
 10
59.367401000000001
 20
130.29208800000001
 30
0.0
 40
0.039055
 50
181.75858600000001
 51
190.92183600000001
  0
ARC
  5
F8
  8
0
 62
     7
 10
59.340102000000002
 20
130.283806
 30
0.0
 40
0.011084
 50
175.433671
 51
200.82653199999999
  0
LINE
  5
F9
  8
0
 62
     7
 10
59.329700000000003
 20
130.28
 30
0.0
 11
59.330100000000002
 21
130.27699999999999
 31
0.0
  0
LINE
  5
FA
  8
0
 62
     7
 10
59.330100000000002
 20
130.27699999999999
 30
0.0
 11
59.330399999999997
 21
130.27600000000001
 31
0.0
  0
LINE
  5
FB
  8
0
 62
     7
 10
59.330399999999997
 20
130.27600000000001
 30
0.0
 11
59.331099999999999
 21
130.27699999999999
 31
0.0
  0
ARC
  5
FC
  8
0
 62
     7
 10
59.312032999999992
 20
130.280755
 30
0.0
 40
0.019433
 50
349.18678399999999
 51
0.4243590000000001
  0
ARC
  5
FD
  8
0
 62
     7
 10
59.361896999999992
 20
130.28190699999999
 30
0.0
 40
0.030448
 50
171.165761
 51
181.89778200000001
  0
LINE
  5
FE
  8
0
 62
     7
 10
59.331800000000001
 20
130.28700000000001
 30
0.0
 11
59.331800000000001
 21
130.2939999999999
 31
0.0
  0
LINE
  5
FF
  8
0
 62
     7
 10
59.331800000000001
 20
130.2939999999999
 30
0.0
 11
59.331800000000001
 21
130.30500000000001
 31
0.0
  0
LINE
  5
100
  8
0
 62
     7
 10
59.331800000000001
 20
130.30500000000001
 30
0.0
 11
59.331800000000001
 21
130.31700000000001
 31
0.0
  0
LINE
  5
101
  8
0
 62
     7
 10
59.331800000000001
 20
130.31700000000001
 30
0.0
 11
59.331800000000001
 21
130.33199999999999
 31
0.0
  0
LINE
  5
102
  8
0
 62
     7
 10
59.331800000000001
 20
130.33199999999999
 30
0.0
 11
59.331499999999998
 21
130.34899999999999
 31
0.0
  0
ARC
  5
103
  8
0
 62
     7
 10
58.681913000000002
 20
130.35028500000001
 30
0.0
 40
0.649554
 50
359.85093599999999
 51
1.872115
  0
LINE
  5
104
  8
0
 62
     7
 10
59.331099999999999
 20
130.37200000000001
 30
0.0
 11
59.331099999999999
 21
130.39699999999999
 31
0.0
  0
ARC
  5
105
  8
0
 62
     7
 10
59.770598
 20
130.42706200000001
 30
0.0
 40
0.440516
 50
180.28060500000001
 51
183.9356249999999
  0
LINE
  5
106
  8
0
 62
     7
 10
59.330100000000002
 20
130.42500000000001
 30
0.0
 11
59.329700000000003
 21
130.45500000000001
 31
0.0
  0
ARC
  5
107
  8
0
 62
     7
 10
59.739068000000003
 20
130.480211
 30
0.0
 40
0.410087
 50
178.91855899999999
 51
183.493538
  0
ARC
  5
108
  8
0
 62
     7
 10
60.961071999999987
 20
130.537599
 30
0.0
 40
1.6327739999999991
 50
180.51519200000001
 51
181.74251699999999
  0
ARC
  5
109
  8
0
 62
     7
 10
60.057517000000011
 20
130.56179900000001
 30
0.0
 40
0.7301890000000001
 50
180.14482000000001
 51
183.05229299999999
  0
LINE
  5
10A
  8
0
 62
     7
 10
59.330399999999997
 20
133.04300000000001
 30
0.0
 11
59.330399999999997
 21
133.042
 31
0.0
  0
LINE
  5
10B
  8
0
 62
     7
 10
59.330399999999997
 20
133.042
 30
0.0
 11
59.330100000000002
 21
133.042
 31
0.0
  0
LINE
  5
10C
  8
0
 62
     7
 10
59.330100000000002
 20
133.042
 30
0.0
 11
59.330100000000002
 21
133.03999999999999
 31
0.0
  0
LINE
  5
10D
  8
0
 62
     7
 10
59.330100000000002
 20
133.03999999999999
 30
0.0
 11
59.329700000000003
 21
133.03899999999999
 31
0.0
  0
LINE
  5
10E
  8
0
 62
     7
 10
59.329700000000003
 20
133.03899999999999
 30
0.0
 11
59.32909999999999
 21
133.03700000000001
 31
0.0
  0
LINE
  5
10F
  8
0
 62
     7
 10
59.32909999999999
 20
133.03700000000001
 30
0.0
 11
59.32909999999999
 21
133.03399999999999
 31
0.0
  0
LINE
  5
110
  8
0
 62
     7
 10
59.32909999999999
 20
133.03399999999999
 30
0.0
 11
59.328699999999998
 21
133.03100000000001
 31
0.0
  0
LINE
  5
111
  8
0
 62
     7
 10
59.328699999999998
 20
133.03100000000001
 30
0.0
 11
59.328400000000002
 21
133.02699999999999
 31
0.0
  0
LINE
  5
112
  8
0
 62
     7
 10
59.328400000000002
 20
133.02699999999999
 30
0.0
 11
59.328400000000002
 21
133.02500000000001
 31
0.0
  0
LINE
  5
113
  8
0
 62
     7
 10
59.328400000000002
 20
133.02500000000001
 30
0.0
 11
59.3277
 21
133.02199999999999
 31
0.0
  0
LINE
  5
114
  8
0
 62
     7
 10
59.3277
 20
133.02199999999999
 30
0.0
 11
59.3277
 21
133.01900000000001
 31
0.0
  0
LINE
  5
115
  8
0
 62
     7
 10
59.3277
 20
133.01900000000001
 30
0.0
 11
59.326999999999998
 21
133.01499999999999
 31
0.0
  0
LINE
  5
116
  8
0
 62
     7
 10
59.326999999999998
 20
133.01499999999999
 30
0.0
 11
59.326999999999998
 21
133.00999999999999
 31
0.0
  0
ARC
  5
117
  8
0
 62
     7
 10
59.34129999999999
 20
133.00592700000001
 30
0.0
 40
0.015016
 50
162.40821199999999
 51
182.402503
  0
LINE
  5
118
  8
0
 62
     7
 10
59.326300000000003
 20
133.005
 30
0.0
 11
59.326000000000001
 21
132.999
 31
0.0
  0
ARC
  5
119
  8
0
 62
     7
 10
59.371618000000012
 20
132.993559
 30
0.0
 40
0.04602
 50
172.873097
 51
181.25555700000001
  0
ARC
  5
11A
  8
0
 62
     7
 10
72.456830999999994
 20
132.76002600000001
 30
0.0
 40
1.8033609999999991
 50
359.94460099999998
 51
1.1213360000000001
  0
ARC
  5
11B
  8
0
 62
     7
 10
69.845203999999995
 20
132.68306100000001
 30
0.0
 40
4.4160699999999986
 50
1.456623999999999
 51
1.9127439999999989
  0
LINE
  5
11C
  8
0
 62
     7
 10
74.258799999999994
 20
132.83000000000001
 30
0.0
 11
74.258499999999998
 21
132.863
 31
0.0
  0
ARC
  5
11D
  8
0
 62
     7
 10
75.965268999999992
 20
132.917316
 30
0.0
 40
1.707652999999999
 50
180.79322999999999
 51
181.81071399999999
  0
LINE
  5
11E
  8
0
 62
     7
 10
74.257800000000003
 20
132.89400000000001
 30
0.0
 11
74.257099999999994
 21
132.922
 31
0.0
  0
LINE
  5
11F
  8
0
 62
     7
 10
74.257099999999994
 20
132.922
 30
0.0
 11
74.256699999999995
 21
132.947
 31
0.0
  0
LINE
  5
120
  8
0
 62
     7
 10
74.256699999999995
 20
132.947
 30
0.0
 11
74.256399999999999
 21
132.97
 31
0.0
  0
ARC
  5
121
  8
0
 62
     7
 10
74.473200000000006
 20
132.98260200000001
 30
0.0
 40
0.217175
 50
179.01110499999999
 51
183.37587400000001
  0
LINE
  5
122
  8
0
 62
     7
 10
74.256100000000004
 20
132.98599999999999
 30
0.0
 11
74.256100000000004
 21
133.001
 31
0.0
  0
LINE
  5
123
  8
0
 62
     7
 10
74.256100000000004
 20
133.001
 30
0.0
 11
74.256100000000004
 21
133.01400000000001
 31
0.0
  0
LINE
  5
124
  8
0
 62
     7
 10
74.256100000000004
 20
133.01400000000001
 30
0.0
 11
74.256100000000004
 21
133.024
 31
0.0
  0
LINE
  5
125
  8
0
 62
     7
 10
74.256100000000004
 20
133.024
 30
0.0
 11
74.256100000000004
 21
133.03200000000001
 31
0.0
  0
LINE
  5
126
  8
0
 62
     7
 10
74.256100000000004
 20
133.03200000000001
 30
0.0
 11
74.256399999999999
 21
133.03700000000001
 31
0.0
  0
ARC
  5
127
  8
0
 62
     7
 10
74.267201999999997
 20
133.03826599999999
 30
0.0
 40
0.010839
 50
164.69610299999999
 51
184.915041
  0
LINE
  5
128
  8
0
 62
     7
 10
74.256699999999995
 20
133.041
 30
0.0
 11
74.257400000000004
 21
133.04300000000001
 31
0.0
  0
LINE
  5
129
  8
0
 62
     7
 10
74.257400000000004
 20
133.04300000000001
 30
0.0
 11
74.257800000000003
 21
133.041
 31
0.0
  0
LINE
  5
12A
  8
0
 62
     7
 10
74.257800000000003
 20
133.041
 30
0.0
 11
74.258499999999998
 21
133.03800000000001
 31
0.0
  0
LINE
  5
12B
  8
0
 62
     7
 10
74.258499999999998
 20
133.03800000000001
 30
0.0
 11
74.258799999999994
 21
133.03399999999999
 31
0.0
  0
ARC
  5
12C
  8
0
 62
     7
 10
74.216936000000004
 20
133.023381
 30
0.0
 40
0.043094
 50
5.279274
 51
13.645367999999999
  0
ARC
  5
12D
  8
0
 62
     7
 10
74.270646999999997
 20
133.02641800000001
 30
0.0
 40
0.010839
 50
175.084959
 51
195.30389700000001
  0
LINE
  5
12E
  8
0
 62
     7
 10
74.260199999999998
 20
133.024
 30
0.0
 11
74.260199999999998
 21
133.018
 31
0.0
  0
ARC
  5
12F
  8
0
 62
     7
 10
74.212350999999998
 20
133.007418
 30
0.0
 40
0.049044
 50
4.7726889999999988
 51
12.719633
  0
LINE
  5
130
  8
0
 62
     7
 10
74.261200000000002
 20
133.011
 30
0.0
 11
74.261600000000001
 21
133.00299999999999
 31
0.0
  0
ARC
  5
131
  8
0
 62
     7
 10
74.183858000000001
 20
132.98989599999999
 30
0.0
 40
0.07879
 50
1.9311759999999989
 51
9.4900089999999988
  0
ARC
  5
132
  8
0
 62
     7
 10
73.993493999999998
 20
130.34244100000001
 30
0.0
 40
0.26962
 50
353.86534499999999
 51
356.473816
  0
ARC
  5
133
  8
0
 62
     7
 10
74.703047999999995
 20
130.282072
 30
0.0
 40
0.4426040000000001
 50
175.91157699999999
 51
177.452822
  0
ARC
  5
134
  8
0
 62
     7
 10
74.342843000000002
 20
130.28846100000001
 30
0.0
 40
0.083031
 50
170.79574700000001
 51
178.32355100000001
  0
ARC
  5
135
  8
0
 62
     7
 10
74.103616000000002
 20
130.30630099999999
 30
0.0
 40
0.156989
 50
352.21397999999999
 51
354.36634800000002
  0
ARC
  5
136
  8
0
 62
     7
 10
74.279314999999997
 20
130.2796929999999
 30
0.0
 40
0.020853
 50
165.16113100000001
 51
178.57862600000001
  0
LINE
  5
137
  8
0
 62
     7
 10
74.258499999999998
 20
130.28
 30
0.0
 11
74.257800000000003
 21
130.27699999999999
 31
0.0
  0
LINE
  5
138
  8
0
 62
     7
 10
74.257800000000003
 20
130.27699999999999
 30
0.0
 11
74.257400000000004
 21
130.27600000000001
 31
0.0
  0
ARC
  5
139
  8
0
 62
     7
 10
71.757020999999995
 20
132.70660599999999
 30
0.0
 40
2.503703999999999
 50
358.8173240000001
 51
1.1826760000000001
  0
ARC
  5
13A
  8
0
 62
     7
 10
71.491834999999995
 20
132.70260999999999
 30
0.0
 40
2.7687680000000001
 50
356.59451799999999
 51
359.01326799999998
  0
ARC
  5
13B
  8
0
 62
     7
 10
68.169841000000005
 20
132.78931
 30
0.0
 40
6.0910529999999987
 50
356.44412599999998
 51
357.636683
  0
ARC
  5
13C
  8
0
 62
     7
 10
-232.87964500000001
 20
150.65522300000001
 30
0.0
 40
307.6701799999999
 50
356.57471200000009
 51
356.60058099999998
  0
ARC
  5
13D
  8
0
 62
     7
 10
64.511790000000005
 20
132.68946399999999
 30
0.0
 40
9.7380240000000011
 50
356.69973900000002
 51
357.54810500000002
  0
ARC
  5
13E
  8
0
 62
     7
 10
81.113326000000001
 20
131.76073199999999
 30
0.0
 40
6.8895039999999987
 50
176.937028
 51
178.227495
  0
ARC
  5
13F
  8
0
 62
     7
 10
85.579599999999985
 20
131.5925189999999
 30
0.0
 40
11.358884
 50
178.07623699999999
 51
178.855041
  0
ARC
  5
140
  8
0
 62
     7
 10
83.427429000000004
 20
131.640467
 30
0.0
 40
9.2061850000000014
 50
178.88575299999999
 51
179.88605000000001
  0
ARC
  5
141
  8
0
 62
     7
 10
81.602399999999989
 20
131.65751900000001
 30
0.0
 40
7.381138
 50
179.99024
 51
181.23791800000001
  0
ARC
  5
142
  8
0
 62
     7
 10
85.449427
 20
131.722386
 30
0.0
 40
11.228683999999999
 50
181.14475400000001
 51
181.93083100000001
  0
ARC
  5
143
  8
0
 62
     7
 10
108.62787299999999
 20
132.718885
 30
0.0
 40
34.428215999999999
 50
182.288622
 51
182.54685499999999
  0
ARC
  5
144
  8
0
 62
     7
 10
91.569089000000005
 20
132.070674
 30
0.0
 40
17.35783
 50
182.91145
 51
183.3875139999999
  0
ARC
  5
145
  8
0
 62
     7
 10
80.918425999999997
 20
131.33989199999999
 30
0.0
 40
6.6833460000000002
 50
182.528706
 51
183.72074799999999
  0
ARC
  5
146
  8
0
 62
     7
 10
41.093155000000003
 20
129.03591499999999
 30
0.0
 40
33.20872
 50
3.0100669999999989
 51
3.2285330000000001
  0
ARC
  5
147
  8
0
 62
     7
 10
67.036354000000003
 20
130.46571900000001
 30
0.0
 40
7.2265300000000003
 50
1.5640430000000001
 51
2.4906019999999991
  0
ARC
  5
148
  8
0
 62
     7
 10
71.77368100000001
 20
130.611458
 30
0.0
 40
2.487044
 50
358.81337000000002
 51
1.186629999999999
  0
ARC
  5
149
  8
0
 62
     7
 10
73.614987999999997
 20
128.75749999999999
 30
0.0
 40
0.9551549999999998
 50
281.88118100000003
 51
284.25747200000001
  0
ARC
  5
14A
  8
0
 62
     7
 10
73.751301999999995
 20
128.19812099999999
 30
0.0
 40
0.379476
 50
285.11024900000001
 51
291.133487
  0
ARC
  5
14B
  8
0
 62
     7
 10
73.750473
 20
128.22967399999999
 30
0.0
 40
0.409343
 50
289.64929999999998
 51
295.66118
  0
ARC
  5
14C
  8
0
 62
     7
 10
73.799571999999984
 20
128.158376
 30
0.0
 40
0.3240909999999999
 50
293.29472900000002
 51
299.83538700000003
  0
ARC
  5
14D
  8
0
 62
     7
 10
73.722943000000001
 20
128.30272199999999
 30
0.0
 40
0.4874590000000001
 50
299.20759700000002
 51
308.58474799999999
  0
ARC
  5
14E
  8
0
 62
     7
 10
73.684080000000009
 20
128.34932499999999
 30
0.0
 40
0.5481270000000001
 50
308.7221120000001
 51
317.08739300000002
  0
ARC
  5
14F
  8
0
 62
     7
 10
73.749206999999998
 20
128.287586
 30
0.0
 40
0.458392
 50
317.19658399999997
 51
327.18362500000001
  0
ARC
  5
150
  8
0
 62
     7
 10
73.731042000000002
 20
128.30636999999999
 30
0.0
 40
0.483874
 50
326.48008099999998
 51
335.98462599999999
  0
ARC
  5
151
  8
0
 62
     7
 10
73.772113000000004
 20
128.29328699999999
 30
0.0
 40
0.4410600000000001
 50
335.365655
 51
345.72678600000012
  0
ARC
  5
152
  8
0
 62
     7
 10
73.617559
 20
128.33266800000001
 30
0.0
 40
0.6005520000000001
 50
345.72092900000001
 51
353.31419699999998
  0
LINE
  5
153
  8
0
 62
     7
 10
74.257400000000004
 20
130.27600000000001
 30
0.0
 11
74.256699999999995
 21
130.27699999999999
 31
0.0
  0
ARC
  5
154
  8
0
 62
     7
 10
74.275834000000003
 20
130.280755
 30
0.0
 40
0.019433
 50
179.57560100000001
 51
190.813255
  0
LINE
  5
155
  8
0
 62
     7
 10
74.256399999999999
 20
130.28100000000001
 30
0.0
 11
74.256100000000004
 21
130.28700000000001
 31
0.0
  0
LINE
  5
156
  8
0
 62
     7
 10
74.256100000000004
 20
130.28700000000001
 30
0.0
 11
74.256100000000004
 21
130.2939999999999
 31
0.0
  0
LINE
  5
157
  8
0
 62
     7
 10
74.256100000000004
 20
130.2939999999999
 30
0.0
 11
74.256100000000004
 21
130.30500000000001
 31
0.0
  0
LINE
  5
158
  8
0
 62
     7
 10
74.256100000000004
 20
130.30500000000001
 30
0.0
 11
74.256100000000004
 21
130.31700000000001
 31
0.0
  0
LINE
  5
159
  8
0
 62
     7
 10
74.256100000000004
 20
130.31700000000001
 30
0.0
 11
74.256100000000004
 21
130.33199999999999
 31
0.0
  0
ARC
  5
15A
  8
0
 62
     7
 10
74.594471999999996
 20
130.333281
 30
0.0
 40
0.338417
 50
177.406182
 51
180.206839
  0
LINE
  5
15B
  8
0
 62
     7
 10
74.256399999999999
 20
130.34899999999999
 30
0.0
 11
74.256699999999995
 21
130.37200000000001
 31
0.0
  0
LINE
  5
15C
  8
0
 62
     7
 10
74.256699999999995
 20
130.37200000000001
 30
0.0
 11
74.257099999999994
 21
130.39699999999999
 31
0.0
  0
ARC
  5
15D
  8
0
 62
     7
 10
72.693487000000005
 20
130.44924499999999
 30
0.0
 40
1.5644830000000001
 50
358.079947
 51
359.10855500000002
  0
ARC
  5
15E
  8
0
 62
     7
 10
72.55098000000001
 20
130.47886199999999
 30
0.0
 40
1.707652999999999
 50
358.18930599999999
 51
359.20678900000001
  0
LINE
  5
15F
  8
0
 62
     7
 10
74.258499999999998
 20
130.45500000000001
 30
0.0
 11
74.258799999999994
 21
130.488
 31
0.0
  0
ARC
  5
160
  8
0
 62
     7
 10
73.608356999999984
 20
130.524675
 30
0.0
 40
0.651492
 50
356.76853
 51
359.84551399999998
  0
ARC
  5
161
  8
0
 62
     7
 10
73.169815999999997
 20
130.55157700000001
 30
0.0
 40
1.090408
 50
358.49393500000002
 51
0.4401270000000001
  0
LINE
  5
162
  8
0
 62
     7
 10
73.744799999999998
 20
135.28800000000001
 30
0.0
 11
73.786799999999999
 21
135.286
 31
0.0
  0
ARC
  5
163
  8
0
 62
     7
 10
73.750639000000007
 20
134.861953
 30
0.0
 40
0.425211
 50
78.453176999999997
 51
85.11716899999999
  0
ARC
  5
164
  8
0
 62
     7
 10
73.718609999999984
 20
134.70447899999999
 30
0.0
 40
0.5859090000000001
 50
74.376370999999992
 51
78.466922999999994
  0
ARC
  5
165
  8
0
 62
     7
 10
73.716943000000001
 20
134.72905600000001
 30
0.0
 40
0.5627490000000001
 50
68.567992000000004
 51
73.538983000000002
  0
ARC
  5
166
  8
0
 62
     7
 10
73.739690999999993
 20
134.791414
 30
0.0
 40
0.496395
 50
63.50324599999999
 51
68.382040000000003
  0
ARC
  5
167
  8
0
 62
     7
 10
73.689102000000005
 20
134.69484499999999
 30
0.0
 40
0.605394
 50
58.594881999999998
 51
63.295895999999999
  0
ARC
  5
168
  8
0
 62
     7
 10
73.678830000000005
 20
134.70611099999999
 30
0.0
 40
0.601308
 50
53.201468000000013
 51
57.199918000000011
  0
ARC
  5
169
  8
0
 62
     7
 10
73.735474999999994
 20
134.784155
 30
0.0
 40
0.504887
 50
47.447626999999997
 51
53.043763000000013
  0
ARC
  5
16A
  8
0
 62
     7
 10
73.768089000000003
 20
134.81886
 30
0.0
 40
0.457265
 50
41.348151999999999
 51
47.517305999999998
  0
ARC
  5
16B
  8
0
 62
     7
 10
73.568714
 20
134.64567600000001
 30
0.0
 40
0.7213510000000002
 50
37.859421000000012
 51
41.212884000000003
  0
ARC
  5
16C
  8
0
 62
     7
 10
73.608737000000005
 20
134.69937999999999
 30
0.0
 40
0.6570350000000002
 50
32.640697000000003
 51
36.303722999999998
  0
ARC
  5
16D
  8
0
 62
     7
 10
73.77805699999999
 20
134.81373199999999
 30
0.0
 40
0.4528050000000001
 50
25.785074999999999
 51
32.012314000000011
  0
ARC
  5
16E
  8
0
 62
     7
 10
73.815702999999985
 20
134.819862
 30
0.0
 40
0.416382
 50
20.483450999999999
 51
27.279095999999999
  0
ARC
  5
16F
  8
0
 62
     7
 10
73.690379000000007
 20
134.77461199999999
 30
0.0
 40
0.549619
 50
15.945607000000001
 51
20.330552999999998
  0
ARC
  5
170
  8
0
 62
     7
 10
73.827662000000004
 20
134.80744100000001
 30
0.0
 40
0.408646
 50
9.9028390000000002
 51
16.807839999999999
  0
ARC
  5
171
  8
0
 62
     7
 10
73.512384999999995
 20
134.75561200000001
 30
0.0
 40
0.728145
 50
6.3410579999999994
 51
9.6538869999999992
  0
ARC
  5
172
  8
0
 62
     7
 10
84.772196999999991
 20
267.75924199999997
 30
0.0
 40
142.15128100000001
 50
259.87257199999999
 51
260.27784400000002
  0
ARC
  5
173
  8
0
 62
     7
 10
66.984564000000006
 20
164.45860300000001
 30
0.0
 40
37.330517
 50
260.41247600000003
 51
261.574298
  0
ARC
  5
174
  8
0
 62
     7
 10
66.239857999999984
 20
159.72201999999999
 30
0.0
 40
32.535966000000002
 50
261.64937000000009
 51
264.76267000000013
  0
ARC
  5
175
  8
0
 62
     7
 10
66.797834999999992
 20
164.409175
 30
0.0
 40
37.254705000000001
 50
264.566125
 51
267.27861100000001
  0
ARC
  5
176
  8
0
 62
     7
 10
66.429952
 20
159.07298700000001
 30
0.0
 40
31.907271999999999
 50
267.48351600000001
 51
268.35049099999998
  0
ARC
  5
177
  8
0
 62
     7
 10
67.448506000000009
 20
196.01437799999999
 30
0.0
 40
68.862689000000003
 50
268.38813699999997
 51
269.45537800000011
  0
ARC
  5
178
  8
0
 62
     7
 10
48.887046999999988
 20
267.36146200000002
 30
0.0
 40
141.747209
 50
279.72100499999999
 51
280.127455
  0
ARC
  5
179
  8
0
 62
     7
 10
66.619967000000003
 20
164.368405
 30
0.0
 40
37.238850999999997
 50
278.42069600000002
 51
279.58581200000009
  0
ARC
  5
17A
  8
0
 62
     7
 10
67.344892000000002
 20
159.74328600000001
 30
0.0
 40
32.557459000000001
 50
275.24000000000001
 51
278.35064199999999
  0
ARC
  5
17B
  8
0
 62
     7
 10
66.817475999999999
 20
164.03239099999999
 30
0.0
 40
36.877049
 50
272.57908200000003
 51
275.44741699999997
  0
ARC
  5
17C
  8
0
 62
     7
 10
67.161042000000009
 20
158.525001
 30
0.0
 40
31.359922999999998
 50
271.515782
 51
272.40478999999999
  0
ARC
  5
17D
  8
0
 62
     7
 10
66.116461999999999
 20
199.00187700000001
 30
0.0
 40
71.850270999999992
 50
270.540256
 51
271.49466200000001
  0
ARC
  5
17E
  8
0
 62
     7
 10
65.967811999999995
 20
127.431252
 30
0.0
 40
0.05593
 50
223.35185200000001
 51
230.59804500000001
  0
ARC
  5
17F
  8
0
 62
     7
 10
65.958745999999991
 20
127.448396
 30
0.0
 40
0.065897
 50
246.34804299999999
 51
256.782083
  0
LINE
  5
180
  8
0
 62
     7
 10
65.943700000000007
 20
127.384
 30
0.0
 11
65.954700000000003
 21
127.381
 31
0.0
  0
LINE
  5
181
  8
0
 62
     7
 10
65.954700000000003
 20
127.381
 30
0.0
 11
65.9709
 21
127.379
 31
0.0
  0
LINE
  5
182
  8
0
 62
     7
 10
65.9709
 20
127.379
 30
0.0
 11
65.993300000000005
 21
127.376
 31
0.0
  0
ARC
  5
183
  8
0
 62
     7
 10
66.112484999999992
 20
128.137462
 30
0.0
 40
0.771099
 50
261.107552
 51
263.844829
  0
ARC
  5
184
  8
0
 62
     7
 10
65.804197000000002
 20
124.487071
 30
0.0
 40
2.8925489999999998
 50
84.649844999999985
 51
85.526558999999992
  0
ARC
  5
185
  8
0
 62
     7
 10
66.633572999999998
 20
133.868278
 30
0.0
 40
6.5253040000000002
 50
265.07976000000002
 51
265.52289999999999
  0
ARC
  5
186
  8
0
 62
     7
 10
66.310396999999995
 20
129.7158
 30
0.0
 40
2.360271
 50
265.47542099999998
 51
266.850076
  0
LINE
  5
187
  8
0
 62
     7
 10
66.180700000000002
 20
127.35899999999999
 30
0.0
 11
66.243700000000004
 21
127.35599999999999
 31
0.0
  0
LINE
  5
188
  8
0
 62
     7
 10
66.243700000000004
 20
127.35599999999999
 30
0.0
 11
66.312299999999993
 21
127.352
 31
0.0
  0
LINE
  5
189
  8
0
 62
     7
 10
66.312299999999993
 20
127.352
 30
0.0
 11
66.366699999999994
 21
127.34999999999999
 31
0.0
  0
LINE
  5
18A
  8
0
 62
     7
 10
66.366699999999994
 20
127.34999999999999
 30
0.0
 11
66.417000000000002
 21
127.348
 31
0.0
  0
LINE
  5
18B
  8
0
 62
     7
 10
66.417000000000002
 20
127.348
 30
0.0
 11
66.461799999999997
 21
127.34699999999999
 31
0.0
  0
LINE
  5
18C
  8
0
 62
     7
 10
66.461799999999997
 20
127.34699999999999
 30
0.0
 11
66.5107
 21
127.346
 31
0.0
  0
LINE
  5
18D
  8
0
 62
     7
 10
66.5107
 20
127.346
 30
0.0
 11
66.568600000000004
 21
127.345
 31
0.0
  0
LINE
  5
18E
  8
0
 62
     7
 10
66.568600000000004
 20
127.345
 30
0.0
 11
66.635800000000003
 21
127.34399999999999
 31
0.0
  0
LINE
  5
18F
  8
0
 62
     7
 10
66.635800000000003
 20
127.34399999999999
 30
0.0
 11
66.710899999999995
 21
127.343
 31
0.0
  0
LINE
  5
190
  8
0
 62
     7
 10
66.710899999999995
 20
127.343
 30
0.0
 11
66.793899999999994
 21
127.343
 31
0.0
  0
ARC
  5
191
  8
0
 62
     7
 10
67.646109999999993
 20
127.402993
 30
0.0
 40
0.017786
 50
304.74345099999999
 51
325.25655899999998
  0
ARC
  5
192
  8
0
 62
     7
 10
67.642069999999975
 20
127.41023800000001
 30
0.0
 40
0.026054
 50
273.90464500000002
 51
302.96526899999998
  0
ARC
  5
193
  8
0
 62
     7
 10
67.399706000000009
 20
128.49497400000001
 30
0.0
 40
1.137243
 50
281.208416
 51
282.39646900000002
  0
ARC
  5
194
  8
0
 62
     7
 10
67.573599000000002
 20
127.612927
 30
0.0
 40
0.238221
 50
275.05249600000002
 51
281.41876100000002
  0
ARC
  5
195
  8
0
 62
     7
 10
67.536642000000001
 20
127.717096
 30
0.0
 40
0.3463449999999999
 50
276.348905
 51
279.62976600000002
  0
LINE
  5
196
  8
0
 62
     7
 10
67.5749
 20
127.373
 30
0.0
 11
67.548799999999986
 21
127.37
 31
0.0
  0
ARC
  5
197
  8
0
 62
     7
 10
68.954864999999998
 20
111.71381599999999
 30
0.0
 40
15.719319
 50
95.132004000000023
 51
95.256833
  0
ARC
  5
198
  8
0
 62
     7
 10
70.978090000000009
 20
84.920474999999996
 30
0.0
 40
42.587609999999991
 50
94.664721
 51
94.732619
  0
ARC
  5
199
  8
0
 62
     7
 10
67.095444000000001
 20
132.49664999999999
 30
0.0
 40
5.1470029999999989
 50
273.47216500000002
 51
274.110185
  0
ARC
  5
19A
  8
0
 62
     7
 10
67.183751999999998
 20
130.80152899999999
 30
0.0
 40
3.4496760000000002
 50
272.92230599999999
 51
273.71327500000001
  0
LINE
  5
19B
  8
0
 62
     7
 10
67.3596
 20
127.35599999999999
 30
0.0
 11
67.315200000000004
 21
127.354
 31
0.0
  0
LINE
  5
19C
  8
0
 62
     7
 10
67.315200000000004
 20
127.354
 30
0.0
 11
67.275599999999997
 21
127.352
 31
0.0
  0
ARC
  5
19D
  8
0
 62
     7
 10
66.824980000000011
 20
138.229006
 30
0.0
 40
10.88613
 50
271.99112300000002
 51
272.37217900000002
  0
LINE
  5
19E
  8
0
 62
     7
 10
67.203199999999995
 20
127.349
 30
0.0
 11
67.125699999999995
 21
127.34699999999999
 31
0.0
  0
ARC
  5
19F
  8
0
 62
     7
 10
66.600110999999998
 20
146.04949199999999
 30
0.0
 40
18.709493999999999
 50
271.36597999999998
 51
271.60977400000002
  0
ARC
  5
1A0
  8
0
 62
     7
 10
66.906249000000003
 20
133.270421
 30
0.0
 40
5.9267580000000004
 50
270.54950600000001
 51
271.35227400000008
  0
ARC
  5
1A1
  8
0
 62
     7
 10
66.866487000000006
 20
133.229815
 30
0.0
 40
5.8866709999999989
 50
270.34003000000001
 51
270.94028900000001
  0
LINE
  5
1A2
  8
0
 62
     7
 10
66.901399999999995
 20
127.343
 30
0.0
 11
66.844899999999996
 21
127.343
 31
0.0
  0
LINE
  5
1A3
  8
0
 62
     7
 10
66.844899999999996
 20
127.343
 30
0.0
 11
66.793899999999994
 21
127.343
 31
0.0
  0
LINE
  5
1A4
  8
0
 62
     7
 10
66.793899999999994
 20
127.429
 30
0.0
 11
66.962100000000007
 21
127.428
 31
0.0
  0
LINE
  5
1A5
  8
0
 62
     7
 10
66.962100000000007
 20
127.428
 30
0.0
 11
67.125699999999995
 21
127.426
 31
0.0
  0
LINE
  5
1A6
  8
0
 62
     7
 10
67.125699999999995
 20
127.426
 30
0.0
 11
67.197699999999998
 21
127.425
 31
0.0
  0
LINE
  5
1A7
  8
0
 62
     7
 10
67.197699999999998
 20
127.425
 30
0.0
 11
67.275599999999997
 21
127.423
 31
0.0
  0
LINE
  5
1A8
  8
0
 62
     7
 10
67.275599999999997
 20
127.423
 30
0.0
 11
67.343400000000003
 21
127.42100000000001
 31
0.0
  0
LINE
  5
1A9
  8
0
 62
     7
 10
67.343400000000003
 20
127.42100000000001
 30
0.0
 11
67.406800000000004
 21
127.419
 31
0.0
  0
LINE
  5
1AA
  8
0
 62
     7
 10
67.406800000000004
 20
127.419
 30
0.0
 11
67.4726
 21
127.416
 31
0.0
  0
ARC
  5
1AB
  8
0
 62
     7
 10
67.152823999999995
 20
121.395286
 30
0.0
 40
6.0294850000000002
 50
86.343135000000004
 51
86.959657000000007
  0
ARC
  5
1AC
  8
0
 62
     7
 10
67.492375999999993
 20
126.470327
 30
0.0
 40
0.943242
 50
83.779596999999995
 51
87.264624999999995
  0
ARC
  5
1AD
  8
0
 62
     7
 10
67.757183999999995
 20
128.52542099999999
 30
0.0
 40
1.129175
 50
261.72040800000002
 51
263.64157499999999
  0
ARC
  5
1AE
  8
0
 62
     7
 10
67.633843999999996
 20
127.364453
 30
0.0
 40
0.038777
 50
58.967360999999997
 51
92.532556999999997
  0
ARC
  5
1AF
  8
0
 62
     7
 10
67.629094999999992
 20
127.35500399999999
 30
0.0
 40
0.049329
 50
50.117553999999998
 51
59.89839400000001
  0
LINE
  5
1B0
  8
0
 62
     7
 10
66.793899999999994
 20
127.429
 30
0.0
 11
66.717100000000002
 21
127.429
 31
0.0
  0
ARC
  5
1B1
  8
0
 62
     7
 10
66.581993000000011
 20
139.326075
 30
0.0
 40
11.898156
 50
270.20769999999999
 51
270.650667
  0
ARC
  5
1B2
  8
0
 62
     7
 10
66.51728
 20
135.39520899999999
 30
0.0
 40
7.967941999999999
 50
270.18341099999998
 51
270.77551199999999
  0
LINE
  5
1B3
  8
0
 62
     7
 10
66.542799999999986
 20
127.42700000000001
 30
0.0
 11
66.462500000000006
 21
127.426
 31
0.0
  0
ARC
  5
1B4
  8
0
 62
     7
 10
66.533193999999995
 20
121.800785
 30
0.0
 40
5.625932999999999
 50
90.719832999999994
 51
91.590147000000002
  0
ARC
  5
1B5
  8
0
 62
     7
 10
70.80284300000001
 20
-82.870694
 30
0.0
 40
210.341813
 50
91.205630000000014
 51
91.232100000000017
  0
ARC
  5
1B6
  8
0
 62
     7
 10
66.37818399999999
 20
122.732846
 30
0.0
 40
4.6906679999999987
 50
91.200333999999998
 51
92.404483999999997
  0
ARC
  5
1B7
  8
0
 62
     7
 10
66.895652999999996
 20
111.56138900000001
 30
0.0
 40
15.874072999999999
 50
92.578911000000005
 51
92.816678999999993
  0
ARC
  5
1B8
  8
0
 62
     7
 10
66.288432
 20
123.88527499999999
 30
0.0
 40
3.5352359999999998
 50
92.802363999999969
 51
93.859449999999995
  0
ARC
  5
1B9
  8
0
 62
     7
 10
66.111170000000001
 20
126.27013100000001
 30
0.0
 40
1.1439749999999991
 50
93.041183999999987
 51
95.914553999999995
  0
ARC
  5
1BA
  8
0
 62
     7
 10
65.761437000000001
 20
129.06455099999999
 30
0.0
 40
1.672682
 50
276.67058500000002
 51
277.96747199999999
  0
ARC
  5
1BB
  8
0
 62
     7
 10
65.964577000000006
 20
127.322897
 30
0.0
 40
0.08078
 50
96.282831000000002
 51
112.217212
  0
ARC
  5
1BC
  8
0
 62
     7
 10
66.102440000000001
 20
127.149764
 30
0.0
 40
0.299706
 50
124.18803800000001
 51
125.795975
  0
ARC
  5
1BD
  8
0
 62
     7
 10
92.445972999999995
 20
131.657701
 30
0.0
 40
33.245927000000002
 50
182.29592299999999
 51
185.86107000000001
  0
ARC
  5
1BE
  8
0
 62
     7
 10
66.793761000000003
 20
-365.21070400000002
 30
0.0
 40
500.54700300000002
 50
89.204303999999993
 51
90.795676000000014
  0
ARC
  5
1BF
  8
0
 62
     7
 10
92.337362999999996
 20
131.66621799999999
 30
0.0
 40
33.137184000000012
 50
174.51082500000001
 51
177.706074
  0
ARC
  5
1C0
  8
0
 62
     7
 10
41.390172
 20
131.64550399999999
 30
0.0
 40
32.997703999999999
 50
354.115995
 51
357.70801299999999
  0
ARC
  5
1C1
  8
0
 62
     7
 10
40.769409000000003
 20
131.63346799999999
 30
0.0
 40
33.619551000000001
 50
2.3168349999999989
 51
5.4662269999999991
  0
ARC
  5
1C2
  8
0
 62
     7
 10
48.156784000000002
 20
92.139128000000014
 30
0.0
 40
13.032057
 50
181.09435300000001
 51
182.03683100000001
  0
ARC
  5
1C3
  8
0
 62
     7
 10
38.572094
 20
91.837902999999997
 30
0.0
 40
3.4429439999999998
 50
182.69618700000001
 51
185.962401
  0
ARC
  5
1C4
  8
0
 62
     7
 10
39.086071000000011
 20
91.861429999999984
 30
0.0
 40
3.9566979999999998
 50
185.52812299999999
 51
188.37296499999999
  0
ARC
  5
1C5
  8
0
 62
     7
 10
39.563451000000001
 20
91.944494999999989
 30
0.0
 40
4.441103
 50
188.536359
 51
191.298002
  0
ARC
  5
1C6
  8
0
 62
     7
 10
39.585306000000003
 20
91.959543999999994
 30
0.0
 40
4.4654949999999989
 50
191.43242100000001
 51
194.18430799999999
  0
ARC
  5
1C7
  8
0
 62
     7
 10
39.972572
 20
92.089705000000009
 30
0.0
 40
4.8729500000000003
 50
194.55229299999999
 51
196.87104099999991
  0
ARC
  5
1C8
  8
0
 62
     7
 10
39.099429999999998
 20
91.83601800000001
 30
0.0
 40
3.963776999999999
 50
197.02473699999999
 51
200.135301
  0
ARC
  5
1C9
  8
0
 62
     7
 10
39.248043000000003
 20
91.883162999999996
 30
0.0
 40
4.119542
 50
200.03941399999999
 51
202.782906
  0
ARC
  5
1CA
  8
0
 62
     7
 10
39.068109
 20
91.79893100000001
 30
0.0
 40
3.9210370000000001
 50
202.66625300000001
 51
205.56217899999999
  0
ARC
  5
1CB
  8
0
 62
     7
 10
38.680259999999997
 20
91.585943999999998
 30
0.0
 40
3.4793379999999989
 50
205.154008
 51
208.711727
  0
ARC
  5
1CC
  8
0
 62
     7
 10
38.919409999999999
 20
91.666430999999989
 30
0.0
 40
3.7280129999999989
 50
208.03092100000001
 51
211.22309000000001
  0
ARC
  5
1CD
  8
0
 62
     7
 10
40.989193
 20
92.991258999999985
 30
0.0
 40
6.1850440000000004
 50
211.77907200000001
 51
213.70283599999999
  0
ARC
  5
1CE
  8
0
 62
     7
 10
39.172362
 20
91.796284999999983
 30
0.0
 40
4.0105250000000003
 50
213.9028689999999
 51
219.874752
  0
ARC
  5
1CF
  8
0
 62
     7
 10
39.406554
 20
91.975988999999998
 30
0.0
 40
4.3054819999999987
 50
219.712017
 51
225.28573800000001
  0
ARC
  5
1D0
  8
0
 62
     7
 10
38.991671000000011
 20
91.547452000000007
 30
0.0
 40
3.709058999999999
 50
225.18253000000001
 51
228.28890799999999
  0
ARC
  5
1D1
  8
0
 62
     7
 10
39.605499999999999
 20
92.22671600000001
 30
0.0
 40
4.624568
 50
228.21130199999999
 51
230.93656999999999
  0
ARC
  5
1D2
  8
0
 62
     7
 10
38.931899999999999
 20
91.359240999999997
 30
0.0
 40
3.5266069999999989
 50
230.55233000000001
 51
233.992142
  0
ARC
  5
1D3
  8
0
 62
     7
 10
40.092382000000001
 20
92.951658999999978
 30
0.0
 40
5.4970150000000002
 50
233.965261
 51
236.17289199999999
  0
ARC
  5
1D4
  8
0
 62
     7
 10
39.360813
 20
91.914959999999994
 30
0.0
 40
4.228661999999999
 50
236.58766
 51
239.59044599999999
  0
ARC
  5
1D5
  8
0
 62
     7
 10
39.305548999999999
 20
91.795146000000003
 30
0.0
 40
4.0973779999999991
 50
239.408851
 51
242.25594799999999
  0
ARC
  5
1D6
  8
0
 62
     7
 10
39.768065
 20
92.675725999999983
 30
0.0
 40
5.0920350000000001
 50
242.26255499999999
 51
244.76608200000001
  0
ARC
  5
1D7
  8
0
 62
     7
 10
39.766433999999997
 20
92.804690000000008
 30
0.0
 40
5.208302999999999
 50
245.387146
 51
247.631182
  0
ARC
  5
1D8
  8
0
 62
     7
 10
39.178750000000001
 20
91.337507999999985
 30
0.0
 40
3.627899999999999
 50
247.395881
 51
250.78044700000001
  0
ARC
  5
1D9
  8
0
 62
     7
 10
39.179268
 20
91.243069999999989
 30
0.0
 40
3.539035999999999
 50
250.26920899999999
 51
253.73564400000001
  0
ARC
  5
1DA
  8
0
 62
     7
 10
39.625965000000001
 20
92.670978000000005
 30
0.0
 40
5.0349879999999994
 50
253.406711
 51
255.95959300000001
  0
ARC
  5
1DB
  8
0
 62
     7
 10
39.688668
 20
93.139257999999984
 30
0.0
 40
5.5047439999999996
 50
256.508937
 51
258.64238799999998
  0
ARC
  5
1DC
  8
0
 62
     7
 10
39.545588000000002
 20
92.575766000000002
 30
0.0
 40
4.9241960000000002
 50
258.98340300000001
 51
261.48918400000002
  0
ARC
  5
1DD
  8
0
 62
     7
 10
39.489469
 20
92.308807999999985
 30
0.0
 40
4.6519000000000004
 50
261.68615699999998
 51
264.336885
  0
ARC
  5
1DE
  8
0
 62
     7
 10
39.424895999999997
 20
91.624724999999984
 30
0.0
 40
3.964785
 50
264.28995400000002
 51
267.26560699999999
  0
ARC
  5
1DF
  8
0
 62
     7
 10
39.547232999999999
 20
95.777901999999997
 30
0.0
 40
8.1194240000000004
 50
267.8014609999999
 51
269.38706100000002
  0
ARC
  5
1E0
  8
0
 62
     7
 10
39.592236
 20
122.981858
 30
0.0
 40
10.011562
 50
90.754660000000015
 51
91.932066000000006
  0
ARC
  5
1E1
  8
0
 62
     7
 10
39.416497
 20
129.185327
 30
0.0
 40
3.8058419999999988
 50
92.436534999999978
 51
95.822237999999984
  0
ARC
  5
1E2
  8
0
 62
     7
 10
39.463259000000001
 20
128.52221800000001
 30
0.0
 40
4.4703220000000004
 50
95.556326999999996
 51
98.193963000000011
  0
ARC
  5
1E3
  8
0
 62
     7
 10
39.490204999999989
 20
128.37807699999999
 30
0.0
 40
4.6168360000000002
 50
98.270003000000017
 51
101.05897299999999
  0
ARC
  5
1E4
  8
0
 62
     7
 10
39.523383000000003
 20
128.262595
 30
0.0
 40
4.7365490000000001
 50
101.184899
 51
103.891831
  0
ARC
  5
1E5
  8
0
 62
     7
 10
39.762253999999999
 20
127.498677
 30
0.0
 40
5.5356860000000001
 50
104.39357099999999
 51
106.52096400000001
  0
ARC
  5
1E6
  8
0
 62
     7
 10
39.459162999999997
 20
128.56089900000001
 30
0.0
 40
4.4311419999999986
 50
106.66942899999999
 51
109.315939
  0
ARC
  5
1E7
  8
0
 62
     7
 10
39.361718000000003
 20
128.824331
 30
0.0
 40
4.150309
 50
109.249364
 51
112.33779800000001
  0
ARC
  5
1E8
  8
0
 62
     7
 10
39.348579000000001
 20
128.831332
 30
0.0
 40
4.1388509999999989
 50
112.206395
 51
115.28607100000001
  0
ARC
  5
1E9
  8
0
 62
     7
 10
39.196525999999999
 20
129.10739899999999
 30
0.0
 40
3.8243379999999991
 50
114.99295100000001
 51
118.05060899999999
  0
ARC
  5
1EA
  8
0
 62
     7
 10
39.206583000000002
 20
129.031553
 30
0.0
 40
3.896096
 50
117.656616
 51
120.785968
  0
ARC
  5
1EB
  8
0
 62
     7
 10
39.646943999999998
 20
128.28448800000001
 30
0.0
 40
4.7632799999999991
 50
120.737072
 51
123.29336000000001
  0
ARC
  5
1EC
  8
0
 62
     7
 10
39.784770000000002
 20
128.13423700000001
 30
0.0
 40
4.9646359999999996
 50
123.67107
 51
126.11433100000001
  0
ARC
  5
1ED
  8
0
 62
     7
 10
39.303839000000011
 20
128.798495
 30
0.0
 40
4.1445610000000004
 50
126.155751
 51
129.07819799999999
  0
ARC
  5
1EE
  8
0
 62
     7
 10
39.207087000000001
 20
128.8964189999999
 30
0.0
 40
4.0075750000000001
 50
128.88693699999999
 51
132.03347400000001
  0
ARC
  5
1EF
  8
0
 62
     7
 10
39.840769999999999
 20
128.21524400000001
 30
0.0
 40
4.9378339999999987
 50
132.20265000000001
 51
134.53999899999999
  0
ARC
  5
1F0
  8
0
 62
     7
 10
39.272646999999999
 20
128.796389
 30
0.0
 40
4.1251319999999989
 50
134.57727
 51
140.393114
  0
ARC
  5
1F1
  8
0
 62
     7
 10
39.350805000000001
 20
128.71988899999999
 30
0.0
 40
4.2341269999999991
 50
140.26981599999999
 51
145.924195
  0
ARC
  5
1F2
  8
0
 62
     7
 10
39.694102000000001
 20
128.504625
 30
0.0
 40
4.6391099999999987
 50
146.09764000000001
 51
148.556962
  0
ARC
  5
1F3
  8
0
 62
     7
 10
39.043774999999997
 20
128.90478100000001
 30
0.0
 40
3.875537
 50
148.58880500000001
 51
151.785507
  0
ARC
  5
1F4
  8
0
 62
     7
 10
39.036033000000003
 20
128.88331299999999
 30
0.0
 40
3.87893
 50
151.451999
 51
154.64084700000001
  0
ARC
  5
1F5
  8
0
 62
     7
 10
38.95227100000001
 20
128.90458599999999
 30
0.0
 40
3.794165
 50
154.38939300000001
 51
157.38217599999999
  0
ARC
  5
1F6
  8
0
 62
     7
 10
39.770473000000003
 20
128.56170700000001
 30
0.0
 40
4.6813060000000002
 50
157.35962900000001
 51
159.99199899999999
  0
ARC
  5
1F7
  8
0
 62
     7
 10
39.802250999999998
 20
128.58648400000001
 30
0.0
 40
4.7028119999999998
 50
160.408117
 51
162.81667999999999
  0
ARC
  5
1F8
  8
0
 62
     7
 10
39.786836000000001
 20
128.61727999999999
 30
0.0
 40
4.6790529999999988
 50
163.12119300000001
 51
165.746768
  0
ARC
  5
1F9
  8
0
 62
     7
 10
39.362270000000002
 20
128.74011300000001
 30
0.0
 40
4.2373389999999986
 50
165.94309999999999
 51
168.60815199999999
  0
ARC
  5
1FA
  8
0
 62
     7
 10
39.821815000000001
 20
128.66182599999999
 30
0.0
 40
4.703314999999999
 50
168.77899400000001
 51
171.38664600000001
  0
ARC
  5
1FB
  8
0
 62
     7
 10
39.658236000000002
 20
128.72031100000001
 30
0.0
 40
4.5329439999999996
 50
171.80788999999999
 51
174.291023
  0
ARC
  5
1FC
  8
0
 62
     7
 10
38.567312999999999
 20
128.80989400000001
 30
0.0
 40
3.4385750000000002
 50
173.968084
 51
177.531813
  0
ARC
  5
1FD
  8
0
 62
     7
 10
40.640801000000003
 20
128.72448800000001
 30
0.0
 40
5.5138189999999989
 50
177.57303099999999
 51
179.61789200000001
  0
ARC
  5
1FE
  8
0
 62
     7
 10
40.746963000000001
 20
128.685115
 30
0.0
 40
2.9539749999999989
 50
175.46460400000001
 51
178.522943
  0
ARC
  5
1FF
  8
0
 62
     7
 10
39.028559000000001
 20
128.795514
 30
0.0
 40
1.2324930000000001
 50
168.02026699999999
 51
174.263778
  0
ARC
  5
200
  8
0
 62
     7
 10
39.104154000000001
 20
128.80157600000001
 30
0.0
 40
1.3053609999999991
 50
163.02894699999999
 51
168.96930800000001
  0
ARC
  5
201
  8
0
 62
     7
 10
39.311073999999998
 20
128.74790300000001
 30
0.0
 40
1.518964999999999
 50
157.33815000000001
 51
163.370778
  0
ARC
  5
202
  8
0
 62
     7
 10
39.470820000000003
 20
128.669647
 30
0.0
 40
1.696561999999999
 50
151.88155499999999
 51
156.97795199999999
  0
ARC
  5
203
  8
0
 62
     7
 10
39.476968999999997
 20
128.64926299999999
 30
0.0
 40
1.711659
 50
146.29424299999999
 51
151.37676300000001
  0
ARC
  5
204
  8
0
 62
     7
 10
39.344087000000002
 20
128.72439399999999
 30
0.0
 40
1.5594629999999989
 50
140.175421
 51
145.881305
  0
ARC
  5
205
  8
0
 62
     7
 10
39.479160999999998
 20
128.60977099999999
 30
0.0
 40
1.7366099999999991
 50
134.97040899999999
 51
140.12512100000001
  0
ARC
  5
206
  8
0
 62
     7
 10
39.427537000000001
 20
128.64133799999999
 30
0.0
 40
1.6778529999999989
 50
128.99621500000001
 51
134.48508100000001
  0
ARC
  5
207
  8
0
 62
     7
 10
39.456012999999999
 20
128.602259
 30
0.0
 40
1.7261459999999991
 50
123.553663
 51
128.914548
  0
ARC
  5
208
  8
0
 62
     7
 10
39.513216999999997
 20
128.50079199999999
 30
0.0
 40
1.8423419999999999
 50
117.69461200000001
 51
123.292079
  0
ARC
  5
209
  8
0
 62
     7
 10
39.517760000000003
 20
128.447024
 30
0.0
 40
1.892177
 50
112.463252
 51
117.05974999999999
  0
ARC
  5
20A
  8
0
 62
     7
 10
39.484245000000001
 20
128.48929799999999
 30
0.0
 40
1.840365
 50
106.255104
 51
112.001845
  0
ARC
  5
20B
  8
0
 62
     7
 10
39.473410000000001
 20
128.50893600000001
 30
0.0
 40
1.818486
 50
101.228607
 51
106.10057
  0
ARC
  5
20C
  8
0
 62
     7
 10
39.460760000000001
 20
128.55963600000001
 30
0.0
 40
1.7662949999999999
 50
98.492209000000003
 51
101.14637
  0
ARC
  5
20D
  8
0
 62
     7
 10
39.497110999999997
 20
128.27430899999999
 30
0.0
 40
2.053871
 50
95.820959000000002
 51
98.319709000000003
  0
ARC
  5
20E
  8
0
 62
     7
 10
39.470783000000011
 20
128.39270400000001
 30
0.0
 40
1.9334679999999991
 50
92.739281000000005
 51
95.400609999999986
  0
LINE
  5
20F
  8
0
 62
     7
 10
39.378399999999999
 20
130.32400000000001
 30
0.0
 11
39.4604
 21
130.32599999999999
 31
0.0
  0
ARC
  5
210
  8
0
 62
     7
 10
39.637866000000002
 20
98.582748999999993
 30
0.0
 40
8.2591940000000008
 50
268.146996
 51
268.76861200000002
  0
ARC
  5
211
  8
0
 62
     7
 10
39.462083
 20
92.182714000000004
 30
0.0
 40
1.857084
 50
264.646209
 51
267.18257799999998
  0
ARC
  5
212
  8
0
 62
     7
 10
39.417195
 20
91.732689000000008
 30
0.0
 40
1.4048369999999999
 50
261.10291699999999
 51
264.756415
  0
ARC
  5
213
  8
0
 62
     7
 10
39.557189000000001
 20
92.677459999999996
 30
0.0
 40
2.359904999999999
 50
259.30674499999998
 51
261.29249300000009
  0
ARC
  5
214
  8
0
 62
     7
 10
39.448701
 20
92.032884999999993
 30
0.0
 40
1.7064419999999989
 50
253.17002500000001
 51
258.87035300000002
  0
ARC
  5
215
  8
0
 62
     7
 10
39.467009000000012
 20
92.103573999999995
 30
0.0
 40
1.7794069999999991
 50
247.80349799999999
 51
253.264793
  0
ARC
  5
216
  8
0
 62
     7
 10
39.511361999999998
 20
92.18374
 30
0.0
 40
1.8704189999999989
 50
241.93839399999999
 51
247.47324599999999
  0
ARC
  5
217
  8
0
 62
     7
 10
39.488517000000002
 20
92.119107999999997
 30
0.0
 40
1.802667999999999
 50
236.818961
 51
241.61277200000001
  0
ARC
  5
218
  8
0
 62
     7
 10
39.585810000000002
 20
92.226012999999995
 30
0.0
 40
1.945522999999999
 50
231.38788400000001
 51
236.14390599999999
  0
ARC
  5
219
  8
0
 62
     7
 10
39.568648000000003
 20
92.165784000000016
 30
0.0
 40
1.887907
 50
225.77292399999999
 51
230.654177
  0
ARC
  5
21A
  8
0
 62
     7
 10
39.493265999999998
 20
92.052662999999995
 30
0.0
 40
1.754443
 50
219.430286
 51
224.96023299999999
  0
ARC
  5
21B
  8
0
 62
     7
 10
39.471299999999999
 20
92.021952999999996
 30
0.0
 40
1.7179990000000001
 50
214.357902
 51
219.10446400000001
  0
ARC
  5
21C
  8
0
 62
     7
 10
39.492981
 20
92.017150000000001
 30
0.0
 40
1.7332629999999991
 50
209.225268
 51
213.82234600000001
  0
ARC
  5
21D
  8
0
 62
     7
 10
39.314332
 20
91.903755000000004
 30
0.0
 40
1.5220349999999989
 50
202.620364
 51
208.78347600000001
  0
ARC
  5
21E
  8
0
 62
     7
 10
39.25473800000001
 20
91.886392000000001
 30
0.0
 40
1.460364
 50
197.57333
 51
202.890815
  0
ARC
  5
21F
  8
0
 62
     7
 10
39.409711000000001
 20
91.924157999999991
 30
0.0
 40
1.619542
 50
191.54037600000001
 51
197.19174599999999
  0
ARC
  5
220
  8
0
 62
     7
 10
39.019715999999988
 20
91.854918000000012
 30
0.0
 40
1.2236219999999991
 50
185.74425099999999
 51
192.01710499999999
  0
ARC
  5
221
  8
0
 62
     7
 10
39.568742999999998
 20
91.904126000000005
 30
0.0
 40
1.774827999999999
 50
180.44847300000001
 51
185.55087700000001
  0
ARC
  5
222
  8
0
 62
     7
 10
91.908906999999999
 20
91.951556999999994
 30
0.0
 40
6.552141999999999
 50
357.589204
 51
359.463753
  0
ARC
  5
223
  8
0
 62
     7
 10
94.786880000000011
 20
91.855256999999995
 30
0.0
 40
3.6727500000000002
 50
354.13982800000002
 51
357.20162399999998
  0
ARC
  5
224
  8
0
 62
     7
 10
94.713338000000007
 20
91.842584000000002
 30
0.0
 40
3.744667999999999
 50
351.30235600000009
 51
354.44761299999999
  0
ARC
  5
225
  8
0
 62
     7
 10
94.490911999999994
 20
91.861972999999992
 30
0.0
 40
3.9674939999999999
 50
348.55082599999997
 51
351.51131400000003
  0
ARC
  5
226
  8
0
 62
     7
 10
94.281287000000006
 20
91.898061999999996
 30
0.0
 40
4.1801159999999991
 50
342.98893399999997
 51
348.63635299999999
  0
ARC
  5
227
  8
0
 62
     7
 10
94.345449999999985
 20
91.883675999999994
 30
0.0
 40
4.1145550000000002
 50
337.18019299999997
 51
342.91909800000002
  0
ARC
  5
228
  8
0
 62
     7
 10
94.405578999999989
 20
91.843596999999988
 30
0.0
 40
4.0436110000000003
 50
331.49939799999999
 51
337.37320299999999
  0
ARC
  5
229
  8
0
 62
     7
 10
94.377567999999997
 20
91.841387999999995
 30
0.0
 40
4.0672030000000001
 50
325.867887
 51
331.71504199999998
  0
ARC
  5
22A
  8
0
 62
     7
 10
94.471845000000002
 20
91.766220000000004
 30
0.0
 40
3.946998999999999
 50
323.10539299999999
 51
326.00319400000001
  0
ARC
  5
22B
  8
0
 62
     7
 10
93.876755999999986
 20
92.208296000000004
 30
0.0
 40
4.6883150000000002
 50
320.49399299999999
 51
323.15075999999999
  0
ARC
  5
22C
  8
0
 62
     7
 10
94.498048999999995
 20
91.700455000000005
 30
0.0
 40
3.8858860000000002
 50
317.48015199999998
 51
320.44367899999997
  0
ARC
  5
22D
  8
0
 62
     7
 10
93.796285999999995
 20
92.348175999999995
 30
0.0
 40
4.8408759999999997
 50
314.85335300000003
 51
317.44328400000001
  0
ARC
  5
22E
  8
0
 62
     7
 10
93.824961000000002
 20
92.375792000000004
 30
0.0
 40
4.8403929999999988
 50
311.79104699999999
 51
314.382161
  0
ARC
  5
22F
  8
0
 62
     7
 10
94.863298
 20
91.183906000000007
 30
0.0
 40
3.2598439999999989
 50
308.5917
 51
312.14482500000003
  0
ARC
  5
230
  8
0
 62
     7
 10
94.536422000000002
 20
91.502601999999996
 30
0.0
 40
3.7132669999999992
 50
306.06355600000001
 51
309.46659799999998
  0
ARC
  5
231
  8
0
 62
     7
 10
94.102863999999997
 20
92.096271000000002
 30
0.0
 40
4.4483959999999989
 50
303.46161599999999
 51
306.07630899999998
  0
ARC
  5
232
  8
0
 62
     7
 10
94.184522999999999
 20
91.977345000000014
 30
0.0
 40
4.304157
 50
297.767155
 51
303.42765800000001
  0
ARC
  5
233
  8
0
 62
     7
 10
94.076463000000004
 20
92.186420999999996
 30
0.0
 40
4.5395009999999996
 50
292.36193700000001
 51
297.74459300000001
  0
ARC
  5
234
  8
0
 62
     7
 10
94.455691000000002
 20
91.235530000000011
 30
0.0
 40
3.515855999999999
 50
289.20098400000001
 51
292.54222499999997
  0
ARC
  5
235
  8
0
 62
     7
 10
94.045316999999983
 20
92.334471999999977
 30
0.0
 40
4.6887019999999993
 50
286.79074600000001
 51
289.52018900000002
  0
ARC
  5
236
  8
0
 62
     7
 10
94.043511999999978
 20
92.345662000000004
 30
0.0
 40
4.6999370000000003
 50
284.15759800000001
 51
286.77240399999999
  0
ARC
  5
237
  8
0
 62
     7
 10
93.665992000000017
 20
94.22885500000001
 30
0.0
 40
6.6189439999999991
 50
281.479376
 51
283.339067
  0
ARC
  5
238
  8
0
 62
     7
 10
94.059808000000004
 20
92.473900000000015
 30
0.0
 40
4.8208580000000003
 50
278.48397499999999
 51
281.04347799999999
  0
ARC
  5
239
  8
0
 62
     7
 10
94.095159999999993
 20
92.335223999999997
 30
0.0
 40
4.6785069999999989
 50
275.67067300000002
 51
278.30632400000002
  0
ARC
  5
23A
  8
0
 62
     7
 10
94.178260999999992
 20
91.417610999999994
 30
0.0
 40
3.7571819999999989
 50
272.65218299999998
 51
275.79229600000002
  0
ARC
  5
23B
  8
0
 62
     7
 10
94.112480999999988
 20
92.850155000000001
 30
0.0
 40
5.1912349999999989
 50
270.16571199999998
 51
272.64580599999999
  0
ARC
  5
23C
  8
0
 62
     7
 10
93.82367099999999
 20
122.367947
 30
0.0
 40
10.628947
 50
86.041407000000007
 51
88.361998999999997
  0
ARC
  5
23D
  8
0
 62
     7
 10
94.211658
 20
129.12518299999999
 30
0.0
 40
3.8618649999999999
 50
78.474692000000005
 51
84.862919999999974
  0
ARC
  5
23E
  8
0
 62
     7
 10
94.073063000000005
 20
128.31052700000001
 30
0.0
 40
4.6878630000000001
 50
76.294468000000009
 51
78.804302000000007
  0
ARC
  5
23F
  8
0
 62
     7
 10
94.223822999999996
 20
128.93097299999999
 30
0.0
 40
4.0493639999999989
 50
73.117827000000005
 51
76.286881999999991
  0
ARC
  5
240
  8
0
 62
     7
 10
94.301075999999995
 20
129.07885099999999
 30
0.0
 40
3.8855469999999999
 50
70.28246
 51
73.574650000000005
  0
ARC
  5
241
  8
0
 62
     7
 10
94.049996999999991
 20
128.372558
 30
0.0
 40
4.6351389999999988
 50
67.770593000000005
 51
70.306365999999997
  0
ARC
  5
242
  8
0
 62
     7
 10
94.167911000000004
 20
128.660706
 30
0.0
 40
4.323798
 50
62.121037999999999
 51
67.772432999999992
  0
ARC
  5
243
  8
0
 62
     7
 10
94.195178999999996
 20
128.69784899999999
 30
0.0
 40
4.2782210000000003
 50
56.514037999999999
 51
62.211236999999997
  0
ARC
  5
244
  8
0
 62
     7
 10
94.218530000000001
 20
128.72286199999999
 30
0.0
 40
4.2444790000000001
 50
50.884092000000003
 51
56.590641999999988
  0
ARC
  5
245
  8
0
 62
     7
 10
94.339077000000003
 20
128.84355199999999
 30
0.0
 40
4.0748249999999988
 50
45.196201000000002
 51
51.128565999999999
  0
ARC
  5
246
  8
0
 62
     7
 10
94.315219999999997
 20
128.796389
 30
0.0
 40
4.1251319999999989
 50
39.606865999999997
 51
45.422710000000002
  0
ARC
  5
247
  8
0
 62
     7
 10
94.322594999999978
 20
128.78411600000001
 30
0.0
 40
4.1272989999999989
 50
34.002546000000002
 51
39.803403000000003
  0
ARC
  5
248
  8
0
 62
     7
 10
94.264251999999999
 20
128.742423
 30
0.0
 40
4.1989819999999991
 50
28.36345900000001
 51
34.028968999999996
  0
ARC
  5
249
  8
0
 62
     7
 10
94.337572999999992
 20
128.77372700000001
 30
0.0
 40
4.1195979999999999
 50
22.703749999999999
 51
28.464791999999999
  0
ARC
  5
24A
  8
0
 62
     7
 10
94.262845999999996
 20
128.747388
 30
0.0
 40
4.1987030000000001
 50
19.824601000000001
 51
22.641746000000001
  0
ARC
  5
24B
  8
0
 62
     7
 10
95.325633999999994
 20
129.09082900000001
 30
0.0
 40
3.0826519999999991
 50
16.683938999999999
 51
20.518805
  0
ARC
  5
24C
  8
0
 62
     7
 10
94.342772999999994
 20
128.768191
 30
0.0
 40
4.1168519999999988
 50
14.073899000000001
 51
17.0581
  0
ARC
  5
24D
  8
0
 62
     7
 10
94.225596999999979
 20
128.74011300000001
 30
0.0
 40
4.2373389999999986
 50
11.391828
 51
14.05688
  0
ARC
  5
24E
  8
0
 62
     7
 10
93.766052000000002
 20
128.66182599999999
 30
0.0
 40
4.703314999999999
 50
8.613334
 51
11.220986999999999
  0
ARC
  5
24F
  8
0
 62
     7
 10
94.558941000000004
 20
128.79017099999999
 30
0.0
 40
3.9001540000000001
 50
5.6068939999999996
 51
8.4936050000000005
  0
ARC
  5
250
  8
0
 62
     7
 10
94.161196000000004
 20
128.74926600000001
 30
0.0
 40
4.2999929999999988
 50
3.011863
 51
5.631526
  0
ARC
  5
251
  8
0
 62
     7
 10
93.797229000000002
 20
128.748144
 30
0.0
 40
4.6635519999999993
 50
0.161111
 51
2.7906749999999989
  0
LINE
  5
252
  8
0
 62
     7
 10
94.127499999999998
 20
90.325500000000005
 30
0.0
 11
94.217399999999984
 21
90.3279
 31
0.0
  0
ARC
  5
253
  8
0
 62
     7
 10
94.152323999999979
 20
91.807344999999984
 30
0.0
 40
1.4809019999999991
 50
272.51904999999999
 51
275.68656299999998
  0
ARC
  5
254
  8
0
 62
     7
 10
94.139293999999978
 20
91.915526999999997
 30
0.0
 40
1.589844
 50
275.76750700000002
 51
278.72152499999999
  0
ARC
  5
255
  8
0
 62
     7
 10
94.118098999999987
 20
92.218660999999983
 30
0.0
 40
1.8928519999999991
 50
277.964313
 51
280.66987699999999
  0
ARC
  5
256
  8
0
 62
     7
 10
94.132075
 20
92.065580000000011
 30
0.0
 40
1.7398919999999991
 50
281.15095000000002
 51
286.75262300000003
  0
ARC
  5
257
  8
0
 62
     7
 10
94.123653000000004
 20
92.092557999999997
 30
0.0
 40
1.768152999999999
 50
286.76197400000001
 51
292.24752000000001
  0
ARC
  5
258
  8
0
 62
     7
 10
94.090950000000007
 20
92.163907999999992
 30
0.0
 40
1.846574999999999
 50
292.34851900000001
 51
297.05635599999999
  0
ARC
  5
259
  8
0
 62
     7
 10
94.130173999999997
 20
92.061892
 30
0.0
 40
1.7379199999999999
 50
297.43457599999999
 51
303.36289299999999
  0
ARC
  5
25A
  8
0
 62
     7
 10
94.152840999999995
 20
92.016755000000003
 30
0.0
 40
1.687765999999999
 50
303.56288999999998
 51
308.57059800000002
  0
ARC
  5
25B
  8
0
 62
     7
 10
94.220550999999986
 20
91.942606000000012
 30
0.0
 40
1.5875919999999999
 50
308.32849900000008
 51
314.63841600000001
  0
ARC
  5
25C
  8
0
 62
     7
 10
93.942267000000001
 20
92.191918999999999
 30
0.0
 40
1.960656
 50
315.30587100000002
 51
319.87493499999999
  0
ARC
  5
25D
  8
0
 62
     7
 10
94.174168999999992
 20
91.979500999999985
 30
0.0
 40
1.646490999999999
 50
320.32635299999998
 51
325.730413
  0
ARC
  5
25E
  8
0
 62
     7
 10
94.238878000000014
 20
91.924415999999994
 30
0.0
 40
1.5620240000000001
 50
326.06366600000001
 51
332.09126800000001
  0
ARC
  5
25F
  8
0
 62
     7
 10
94.378694999999993
 20
91.857656999999989
 30
0.0
 40
1.4072359999999999
 50
331.82870200000002
 51
337.46538199999998
  0
ARC
  5
260
  8
0
 62
     7
 10
94.148150000000001
 20
91.953980000000001
 30
0.0
 40
1.657093999999999
 50
337.44412599999998
 51
342.56689299999999
  0
ARC
  5
261
  8
0
 62
     7
 10
94.153171999999998
 20
91.933127999999996
 30
0.0
 40
1.646158
 50
343.20696700000002
 51
348.33011900000002
  0
ARC
  5
262
  8
0
 62
     7
 10
94.420103999999995
 20
91.874548000000004
 30
0.0
 40
1.372898999999999
 50
348.47104100000001
 51
354.05906199999998
  0
ARC
  5
263
  8
0
 62
     7
 10
94.248380999999995
 20
91.895488
 30
0.0
 40
1.5458689999999999
 50
353.94589200000001
 51
359.80531200000001
  0
ARC
  5
264
  8
0
 62
     7
 10
89.639235999999997
 20
128.38674800000001
 30
0.0
 40
6.1663889999999988
 50
3.481946999999999
 51
5.2702309999999999
  0
ARC
  5
265
  8
0
 62
     7
 10
94.419415999999984
 20
128.80457100000001
 30
0.0
 40
1.368231999999999
 50
6.2342040000000001
 51
10.449049
  0
ARC
  5
266
  8
0
 62
     7
 10
94.502673000000001
 20
128.81703300000001
 30
0.0
 40
1.284098999999999
 50
10.575958999999999
 51
23.698727999999999
  0
ARC
  5
267
  8
0
 62
     7
 10
94.217497999999978
 20
128.720766
 30
0.0
 40
1.5841389999999991
 50
22.741261999999999
 51
28.662538999999999
  0
ARC
  5
268
  8
0
 62
     7
 10
93.905947999999995
 20
128.51845399999999
 30
0.0
 40
1.954752
 50
29.485808000000009
 51
33.561767000000003
  0
ARC
  5
269
  8
0
 62
     7
 10
94.168379999999999
 20
128.6650379999999
 30
0.0
 40
1.6551919999999991
 50
34.355682999999999
 51
39.272903999999997
  0
ARC
  5
26A
  8
0
 62
     7
 10
94.237425000000016
 20
128.72949
 30
0.0
 40
1.560954999999999
 50
39.045735999999998
 51
45.266477000000002
  0
ARC
  5
26B
  8
0
 62
     7
 10
94.195790999999986
 20
128.686002
 30
0.0
 40
1.621151
 50
45.302943999999997
 51
56.798304000000009
  0
ARC
  5
26C
  8
0
 62
     7
 10
94.137474999999995
 20
128.60028500000001
 30
0.0
 40
1.724809
 50
56.736559999999997
 51
67.659542000000002
  0
ARC
  5
26D
  8
0
 62
     7
 10
94.152623000000006
 20
128.64525900000001
 30
0.0
 40
1.677454999999999
 50
67.554217000000008
 51
79.191802999999993
  0
ARC
  5
26E
  8
0
 62
     7
 10
94.181124999999994
 20
128.68399600000001
 30
0.0
 40
1.6341920000000001
 50
79.918707999999995
 51
83.648849999999996
  0
ARC
  5
26F
  8
0
 62
     7
 10
93.969312000000002
 20
126.669816
 30
0.0
 40
3.659462
 50
83.841398999999996
 51
87.522576999999984
  0
LINE
  5
270
  8
0
 62
     7
 10
94.127499999999998
 20
90.325500000000005
 30
0.0
 11
39.4604
 21
90.325500000000005
 31
0.0
  0
LINE
  5
271
  8
0
 62
     7
 10
94.127499999999998
 20
87.658900000000003
 30
0.0
 11
39.4604
 21
87.658900000000003
 31
0.0
  0
LINE
  5
272
  8
0
 62
     7
 10
74.256100000000004
 20
132.99299999999999
 30
0.0
 11
94.127499999999998
 21
132.99299999999999
 31
0.0
  0
LINE
  5
273
  8
0
 62
     7
 10
59.331800000000001
 20
130.32599999999999
 30
0.0
 11
39.4604
 21
130.32599999999999
 31
0.0
  0
LINE
  5
274
  8
0
 62
     7
 10
59.331800000000001
 20
132.99299999999999
 30
0.0
 11
39.4604
 21
132.99299999999999
 31
0.0
  0
LINE
  5
275
  8
0
 62
     7
 10
37.794000000000011
 20
128.761
 30
0.0
 11
37.794000000000011
 21
91.890199999999993
 31
0.0
  0
LINE
  5
276
  8
0
 62
     7
 10
35.127099999999999
 20
128.761
 30
0.0
 11
35.127099999999999
 21
91.890199999999993
 31
0.0
  0
LINE
  5
277
  8
0
 62
     7
 10
98.460800000000006
 20
128.761
 30
0.0
 11
98.460800000000006
 21
91.890199999999993
 31
0.0
  0
LINE
  5
278
  8
0
 62
     7
 10
95.794200000000004
 20
128.761
 30
0.0
 11
95.794200000000004
 21
91.890199999999993
 31
0.0
  0
LINE
  5
279
  8
0
 62
     7
 10
74.256100000000004
 20
130.32599999999999
 30
0.0
 11
94.127499999999998
 21
130.32599999999999
 31
0.0
  0
LINE
  5
27A
  8
0
 62
     7
 10
97.773499999999999
 20
165.42400000000001
 30
0.0
 11
111.761
 21
165.42400000000001
 31
0.0
  0
LINE
  5
27B
  8
0
 62
     7
 10
75.088099999999997
 20
189.7579999999999
 30
0.0
 11
111.761
 21
189.7579999999999
 31
0.0
  0
LINE
  5
27C
  8
0
 62
     7
 10
111.646
 20
187.547
 30
0.0
 11
111.054
 21
189.7579999999999
 31
0.0
  0
LINE
  5
27D
  8
0
 62
     7
 10
111.054
 20
189.7579999999999
 30
0.0
 11
110.461
 21
187.547
 31
0.0
  0
LINE
  5
27E
  8
0
 62
     7
 10
110.461
 20
187.547
 30
0.0
 11
111.646
 21
187.547
 31
0.0
  0
LINE
  5
27F
  8
0
 62
     7
 10
110.476
 20
167.63499999999999
 30
0.0
 11
111.068
 21
165.423
 31
0.0
  0
LINE
  5
280
  8
0
 62
     7
 10
111.068
 20
165.423
 30
0.0
 11
111.661
 21
167.63499999999999
 31
0.0
  0
LINE
  5
281
  8
0
 62
     7
 10
111.661
 20
167.63499999999999
 30
0.0
 11
110.476
 21
167.63499999999999
 31
0.0
  0
LINE
  5
282
  8
0
 62
     7
 10
111.06100000000001
 20
189.7579999999999
 30
0.0
 11
111.06100000000001
 21
165.42400000000001
 31
0.0
  0
LINE
  5
283
  8
0
 62
     7
 10
59.366300000000003
 20
176.70699999999999
 30
0.0
 11
59.366300000000003
 21
176.708
 31
0.0
  0
LINE
  5
284
  8
0
 62
     7
 10
59.366300000000003
 20
176.708
 30
0.0
 11
59.366300000000003
 21
176.709
 31
0.0
  0
LINE
  5
285
  8
0
 62
     7
 10
59.366300000000003
 20
176.709
 30
0.0
 11
59.365900000000003
 21
176.71000000000001
 31
0.0
  0
LINE
  5
286
  8
0
 62
     7
 10
59.365900000000003
 20
176.71000000000001
 30
0.0
 11
59.365600000000001
 21
176.71299999999999
 31
0.0
  0
LINE
  5
287
  8
0
 62
     7
 10
59.365600000000001
 20
176.71299999999999
 30
0.0
 11
59.364899999999999
 21
176.71700000000001
 31
0.0
  0
ARC
  5
288
  8
0
 62
     7
 10
59.208534999999991
 20
176.70110700000001
 30
0.0
 40
0.15713
 50
5.7220659999999999
 51
10.929232000000001
  0
LINE
  5
289
  8
0
 62
     7
 10
59.3628
 20
176.73099999999999
 30
0.0
 11
59.360700000000001
 21
176.744
 31
0.0
  0
ARC
  5
28A
  8
0
 62
     7
 10
58.896470999999998
 20
176.70069699999999
 30
0.0
 40
0.4662600000000001
 50
5.2851280000000003
 51
6.1360570000000001
  0
ARC
  5
28B
  8
0
 62
     7
 10
59.385143000000006
 20
176.75782100000001
 30
0.0
 40
0.02612
 50
180.86644100000001
 51
196.19512800000001
  0
ARC
  5
28C
  8
0
 62
     7
 10
61.239943999999987
 20
177.03892099999999
 30
0.0
 40
1.9018649999999999
 50
187.0555249999999
 51
188.51163199999999
  0
ARC
  5
28D
  8
0
 62
     7
 10
61.887146999999999
 20
177.15257700000001
 30
0.0
 40
2.5583450000000001
 50
186.76677599999999
 51
187.801309
  0
ARC
  5
28E
  8
0
 62
     7
 10
62.442682999999988
 20
177.19848300000001
 30
0.0
 40
3.115483999999999
 50
182.46691200000001
 51
186.40131600000001
  0
ARC
  5
28F
  8
0
 62
     7
 10
63.137289000000003
 20
177.21389500000001
 30
0.0
 40
3.8101370000000001
 50
179.44551100000001
 51
182.24888000000001
  0
ARC
  5
290
  8
0
 62
     7
 10
57.346431000000003
 20
177.159987
 30
0.0
 40
16.914005
 50
0.307515
 51
0.9470870000000001
  0
ARC
  5
291
  8
0
 62
     7
 10
87.187475000000006
 20
177.651847
 30
0.0
 40
12.931093000000001
 50
180.1010729999999
 51
180.94067999999999
  0
ARC
  5
292
  8
0
 62
     7
 10
105.95605500000001
 20
177.78608299999999
 30
0.0
 40
31.700042
 50
179.903989
 51
180.28386599999999
  0
ARC
  5
293
  8
0
 62
     7
 10
95.357080000000011
 20
177.84083799999999
 30
0.0
 40
21.101022
 50
179.432875
 51
180.0044869999999
  0
ARC
  5
294
  8
0
 62
     7
 10
105.035208
 20
177.85533000000001
 30
0.0
 40
30.778731000000001
 50
179.03079600000001
 51
179.638171
  0
ARC
  5
295
  8
0
 62
     7
 10
112.68263899999999
 20
177.647684
 30
0.0
 40
38.42865900000001
 50
178.427031
 51
178.914109
  0
ARC
  5
296
  8
0
 62
     7
 10
92.925585999999996
 20
178.25215499999999
 30
0.0
 40
18.662562000000001
 50
177.831942
 51
178.61712600000001
  0
ARC
  5
297
  8
0
 62
     7
 10
98.223847000000006
 20
178.18248500000001
 30
0.0
 40
23.960023
 50
177.53304
 51
178.14476199999999
  0
ARC
  5
298
  8
0
 62
     7
 10
88.737681999999978
 20
178.59371999999999
 30
0.0
 40
14.464949000000001
 50
177.15924100000001
 51
177.54310799999999
  0
LINE
  5
299
  8
0
 62
     7
 10
74.290499999999994
 20
179.31099999999989
 30
0.0
 11
74.294600000000003
 21
179.40700000000001
 31
0.0
  0
LINE
  5
29A
  8
0
 62
     7
 10
74.294600000000003
 20
179.40700000000001
 30
0.0
 11
74.296700000000001
 21
179.441
 31
0.0
  0
ARC
  5
29B
  8
0
 62
     7
 10
75.844690999999983
 20
179.393238
 30
0.0
 40
1.548722999999999
 50
177.00171599999999
 51
178.22635700000001
  0
ARC
  5
29C
  8
0
 62
     7
 10
67.782184999999998
 20
177.24910700000001
 30
0.0
 40
6.478006999999999
 50
358.13124900000003
 51
0.014681
  0
ARC
  5
29D
  8
0
 62
     7
 10
71.601573000000002
 20
177.16917000000001
 30
0.0
 40
2.658418999999999
 50
353.12902600000001
 51
357.16874300000001
  0
ARC
  5
29E
  8
0
 62
     7
 10
72.662464999999997
 20
177.00079700000001
 30
0.0
 40
1.585513999999999
 50
352.57890900000012
 51
354.58351900000002
  0
ARC
  5
29F
  8
0
 62
     7
 10
66.064006000000006
 20
177.95187999999999
 30
0.0
 40
8.2520439999999997
 50
351.580693
 51
351.94806999999997
  0
ARC
  5
2A0
  8
0
 62
     7
 10
73.933890000000005
 20
176.77958799999999
 30
0.0
 40
0.295423
 50
349.49590000000001
 51
353.01177799999999
  0
ARC
  5
2A1
  8
0
 62
     7
 10
73.984592000000006
 20
176.75705300000001
 30
0.0
 40
0.241807
 50
348.1677279999999
 51
352.55719800000003
  0
ARC
  5
2A2
  8
0
 62
     7
 10
60.098301999999997
 20
179.499774
 30
0.0
 40
0.8089259999999999
 50
181.808536
 51
184.154425
  0
ARC
  5
2A3
  8
0
 62
     7
 10
61.417611000000001
 20
179.511043
 30
0.0
 40
2.1272570000000002
 50
181.88226499999999
 51
182.79238599999999
  0
ARC
  5
2A4
  8
0
 62
     7
 10
53.025948
 20
179.068973
 30
0.0
 40
6.276063999999999
 50
2.2064369999999989
 51
3.0911739999999992
  0
ARC
  5
2A5
  8
0
 62
     7
 10
56.070221999999987
 20
179.10089300000001
 30
0.0
 40
3.233943
 50
2.0067859999999991
 51
3.7180239999999989
  0
LINE
  5
2A6
  8
0
 62
     7
 10
59.302199999999999
 20
179.214
 30
0.0
 11
59.311799999999998
 21
178.958
 31
0.0
  0
ARC
  5
2A7
  8
0
 62
     7
 10
36.033757999999999
 20
178.139296
 30
0.0
 40
23.292469000000001
 50
1.386471999999999
 51
2.0147080000000002
  0
ARC
  5
2A8
  8
0
 62
     7
 10
40.144094000000003
 20
178.094797
 30
0.0
 40
19.184953
 50
0.8396679999999999
 51
1.816352
  0
ARC
  5
2A9
  8
0
 62
     7
 10
-15.662006
 20
177.26255900000001
 30
0.0
 40
74.997256999999991
 50
0.6013560000000001
 51
0.8506240000000001
  0
ARC
  5
2AA
  8
0
 62
     7
 10
-4.2883399999999989
 20
177.73619299999999
 30
0.0
 40
63.620232999999999
 50
0.092761
 51
0.282333
  0
ARC
  5
2AB
  8
0
 62
     7
 10
-4.3904189999999996
 20
177.83755099999999
 30
0.0
 40
63.722228999999999
 50
359.81158799999997
 51
0.001476
  0
ARC
  5
2AC
  8
0
 62
     7
 10
7.7306149999999993
 20
177.911115
 30
0.0
 40
51.601627000000001
 50
359.47640100000001
 51
359.68565000000001
  0
ARC
  5
2AD
  8
0
 62
     7
 10
108.643604
 20
176.625237
 30
0.0
 40
49.320240000000013
 50
179.053932
 51
179.273278
  0
ARC
  5
2AE
  8
0
 62
     7
 10
62.043599
 20
177.34130099999999
 30
0.0
 40
2.751341
 50
193.318929
 51
268.59083500000003
  0
ARC
  5
2AF
  8
0
 62
     7
 10
71.544531000000006
 20
177.34053
 30
0.0
 40
2.7505730000000002
 50
271.41128500000002
 51
346.69379500000002
  0
LINE
  5
2B0
  8
0
 62
     7
 10
74.298100000000005
 20
179.47399999999999
 30
0.0
 11
74.388000000000005
 21
189.7579999999999
 31
0.0
  0
LINE
  5
2B1
  8
0
 62
     7
 10
74.388000000000005
 20
189.7579999999999
 30
0.0
 11
59.200200000000002
 21
189.7579999999999
 31
0.0
  0
LINE
  5
2B2
  8
0
 62
     7
 10
61.975900000000003
 20
174.59100000000001
 30
0.0
 11
71.612300000000005
 21
174.59100000000001
 31
0.0
  0
LINE
  5
2B3
  8
0
 62
     7
 10
59.2898
 20
179.47399999999999
 30
0.0
 11
59.200200000000002
 21
189.7579999999999
 31
0.0
  0
ARC
  5
2B4
  8
0
 62
     7
 10
38.554150999999997
 20
254.34186099999999
 30
0.0
 40
74.922706000000005
 50
270.5186240000001
 51
270.69304399999999
  0
ARC
  5
2B5
  8
0
 62
     7
 10
39.530563999999998
 20
164.57943999999989
 30
0.0
 40
14.845781000000001
 50
91.151162999999997
 51
91.939913000000018
  0
ARC
  5
2B6
  8
0
 62
     7
 10
39.796742000000002
 20
158.09150700000001
 30
0.0
 40
21.339055999999999
 50
92.064494999999994
 51
92.629232999999999
  0
ARC
  5
2B7
  8
0
 62
     7
 10
39.32264
 20
169.12774099999999
 30
0.0
 40
10.292743
 50
92.811042000000015
 51
93.977191000000005
  0
ARC
  5
2B8
  8
0
 62
     7
 10
39.323276999999997
 20
168.63173900000001
 30
0.0
 40
10.787647
 50
93.797848999999999
 51
95.012777999999997
  0
ARC
  5
2B9
  8
0
 62
     7
 10
39.256309999999999
 20
169.35171399999999
 30
0.0
 40
10.064576000000001
 50
94.991140000000001
 51
96.430025000000015
  0
ARC
  5
2BA
  8
0
 62
     7
 10
38.948954999999998
 20
171.76169999999999
 30
0.0
 40
7.6354119999999988
 50
96.163426000000015
 51
97.89567000000001
  0
ARC
  5
2BB
  8
0
 62
     7
 10
38.832334000000003
 20
172.21036100000001
 30
0.0
 40
7.1751860000000001
 50
97.465399000000005
 51
99.072243999999998
  0
ARC
  5
2BC
  8
0
 62
     7
 10
39.050482000000002
 20
170.70550600000001
 30
0.0
 40
8.6956419999999994
 50
98.928163999999995
 51
101.213082
  0
ARC
  5
2BD
  8
0
 62
     7
 10
38.734701999999999
 20
172.39279199999999
 30
0.0
 40
6.979182999999999
 50
101.363766
 51
104.29377700000001
  0
ARC
  5
2BE
  8
0
 62
     7
 10
38.020623000000001
 20
175.13428099999999
 30
0.0
 40
4.1462890000000003
 50
104.08489899999999
 51
106.901078
  0
ARC
  5
2BF
  8
0
 62
     7
 10
38.142774000000003
 20
174.62952000000001
 30
0.0
 40
4.6648550000000002
 50
106.53421400000001
 51
108.727709
  0
ARC
  5
2C0
  8
0
 62
     7
 10
38.061236000000001
 20
174.905169
 30
0.0
 40
4.377635999999999
 50
108.875361
 51
111.029341
  0
ARC
  5
2C1
  8
0
 62
     7
 10
37.634826000000011
 20
175.99794
 30
0.0
 40
3.2046369999999991
 50
110.92434900000001
 51
113.60688500000001
  0
ARC
  5
2C2
  8
0
 62
     7
 10
37.584142
 20
176.09682599999999
 30
0.0
 40
3.0937369999999991
 50
113.480161
 51
118.28984199999999
  0
ARC
  5
2C3
  8
0
 62
     7
 10
37.403841999999997
 20
176.46404899999999
 30
0.0
 40
2.684968
 50
118.61578
 51
123.862623
  0
ARC
  5
2C4
  8
0
 62
     7
 10
37.118969999999997
 20
176.90638999999999
 30
0.0
 40
2.158949999999999
 50
124.125964
 51
129.61380299999999
  0
ARC
  5
2C5
  8
0
 62
     7
 10
37.046492000000001
 20
177.01081199999999
 30
0.0
 40
2.032322999999999
 50
129.916776
 51
136.19384700000001
  0
ARC
  5
2C6
  8
0
 62
     7
 10
37.463640000000012
 20
176.66873899999999
 30
0.0
 40
2.5705040000000001
 50
137.12756999999999
 51
139.34120999999999
  0
ARC
  5
2C7
  8
0
 62
     7
 10
36.901803999999998
 20
177.16977800000001
 30
0.0
 40
1.817893999999999
 50
139.783221
 51
143.12945099999999
  0
ARC
  5
2C8
  8
0
 62
     7
 10
36.630597000000002
 20
177.36995200000001
 30
0.0
 40
1.4808259999999991
 50
143.02929800000001
 51
147.079341
  0
ARC
  5
2C9
  8
0
 62
     7
 10
36.528942999999998
 20
177.40957399999999
 30
0.0
 40
1.374137999999999
 50
146.16253999999989
 51
150.25328400000001
  0
ARC
  5
2CA
  8
0
 62
     7
 10
36.843871
 20
177.23987
 30
0.0
 40
1.7317910000000001
 50
150.54824099999999
 51
157.35240300000001
  0
ARC
  5
2CB
  8
0
 62
     7
 10
36.702005
 20
177.30233200000001
 30
0.0
 40
1.5768159999999991
 50
157.46207899999999
 51
164.73129299999999
  0
ARC
  5
2CC
  8
0
 62
     7
 10
36.749018999999997
 20
177.295061
 30
0.0
 40
1.6240939999999999
 50
164.920638
 51
168.70370600000001
  0
ARC
  5
2CD
  8
0
 62
     7
 10
36.802098000000001
 20
177.296064
 30
0.0
 40
1.675986999999999
 50
169.09276600000001
 51
172.386753
  0
ARC
  5
2CE
  8
0
 62
     7
 10
36.196083000000002
 20
177.35962499999999
 30
0.0
 40
1.067032999999999
 50
171.458427
 51
176.630818
  0
ARC
  5
2CF
  8
0
 62
     7
 10
37.765321999999998
 20
177.275642
 30
0.0
 40
2.6385089999999991
 50
176.81290899999999
 51
179.14863800000001
  0
ARC
  5
2D0
  8
0
 62
     7
 10
39.458784999999999
 20
177.99681000000001
 30
0.0
 40
9.9059210000000011
 50
268.82946299999998
 51
270.00919499999998
  0
ARC
  5
2D1
  8
0
 62
     7
 10
39.491915000000013
 20
179.59023999999999
 30
0.0
 40
11.499696
 50
267.827181
 51
268.826615
  0
ARC
  5
2D2
  8
0
 62
     7
 10
39.513457000000002
 20
179.1169919999999
 30
0.0
 40
11.027675
 50
266.59335499999997
 51
267.62211500000012
  0
ARC
  5
2D3
  8
0
 62
     7
 10
39.372859000000012
 20
176.67187100000001
 30
0.0
 40
8.5785219999999995
 50
265.268462
 51
266.56032499999998
  0
ARC
  5
2D4
  8
0
 62
     7
 10
39.686506999999999
 20
180.26211699999999
 30
0.0
 40
12.182416
 50
264.30602699999997
 51
265.19119000000001
  0
ARC
  5
2D5
  8
0
 62
     7
 10
37.138781999999999
 20
156.36887300000001
 30
0.0
 40
11.846856000000001
 50
83.510009999999994
 51
83.952530000000024
  0
ARC
  5
2D6
  8
0
 62
     7
 10
39.010059000000012
 20
173.7273919999999
 30
0.0
 40
5.612298
 50
262.76406500000002
 51
263.62479500000001
  0
ARC
  5
2D7
  8
0
 62
     7
 10
40.317273
 20
183.065009
 30
0.0
 40
15.040684000000001
 50
262.00627700000001
 51
262.30435199999999
  0
ARC
  5
2D8
  8
0
 62
     7
 10
38.784428000000013
 20
172.35342499999999
 30
0.0
 40
4.2201129999999987
 50
261.42733800000002
 51
262.39112799999998
  0
ARC
  5
2D9
  8
0
 62
     7
 10
37.649824000000002
 20
165.05567199999999
 30
0.0
 40
3.1654200000000001
 50
80.810123000000004
 51
81.976911999999984
  0
LINE
  5
2DA
  8
0
 62
     7
 10
38.0916
 20
168.19
 30
0.0
 11
37.987200000000001
 21
168.208
 31
0.0
  0
ARC
  5
2DB
  8
0
 62
     7
 10
5.4701309999999994
 20
-1.340573999999999
 30
0.0
 40
172.638608
 50
79.143270999999999
 51
79.176100000000005
  0
ARC
  5
2DC
  8
0
 62
     7
 10
38.358319999999999
 20
170.65803299999999
 30
0.0
 40
2.4760810000000002
 50
256.94811099999998
 51
259.09964600000001
  0
LINE
  5
2DD
  8
0
 62
     7
 10
37.799100000000003
 20
168.24600000000001
 30
0.0
 11
37.796399999999998
 21
168.24600000000001
 31
0.0
  0
LINE
  5
2DE
  8
0
 62
     7
 10
37.796399999999998
 20
168.24600000000001
 30
0.0
 11
37.794000000000011
 21
168.24700000000001
 31
0.0
  0
LINE
  5
2DF
  8
0
 62
     7
 10
37.388800000000003
 20
176.477
 30
0.0
 11
37.389200000000002
 21
176.477
 31
0.0
  0
LINE
  5
2E0
  8
0
 62
     7
 10
37.389200000000002
 20
176.477
 30
0.0
 11
37.389899999999997
 21
176.477
 31
0.0
  0
LINE
  5
2E1
  8
0
 62
     7
 10
37.389899999999997
 20
176.477
 30
0.0
 11
37.39050000000001
 21
176.47800000000001
 31
0.0
  0
LINE
  5
2E2
  8
0
 62
     7
 10
37.39050000000001
 20
176.47800000000001
 30
0.0
 11
37.391599999999997
 21
176.47800000000001
 31
0.0
  0
LINE
  5
2E3
  8
0
 62
     7
 10
37.391599999999997
 20
176.47800000000001
 30
0.0
 11
37.392600000000002
 21
176.47900000000001
 31
0.0
  0
LINE
  5
2E4
  8
0
 62
     7
 10
37.392600000000002
 20
176.47900000000001
 30
0.0
 11
37.393000000000001
 21
176.47900000000001
 31
0.0
  0
LINE
  5
2E5
  8
0
 62
     7
 10
37.393000000000001
 20
176.47900000000001
 30
0.0
 11
37.3947
 21
176.47999999999999
 31
0.0
  0
LINE
  5
2E6
  8
0
 62
     7
 10
37.3947
 20
176.47999999999999
 30
0.0
 11
37.396700000000003
 21
176.47999999999999
 31
0.0
  0
LINE
  5
2E7
  8
0
 62
     7
 10
37.396700000000003
 20
176.47999999999999
 30
0.0
 11
37.398800000000001
 21
176.482
 31
0.0
  0
LINE
  5
2E8
  8
0
 62
     7
 10
37.398800000000001
 20
176.482
 30
0.0
 11
37.401200000000003
 21
176.483
 31
0.0
  0
LINE
  5
2E9
  8
0
 62
     7
 10
37.401200000000003
 20
176.483
 30
0.0
 11
37.404000000000011
 21
176.48400000000001
 31
0.0
  0
LINE
  5
2EA
  8
0
 62
     7
 10
37.404000000000011
 20
176.48400000000001
 30
0.0
 11
37.4071
 21
176.48599999999999
 31
0.0
  0
LINE
  5
2EB
  8
0
 62
     7
 10
37.4071
 20
176.48599999999999
 30
0.0
 11
37.411200000000001
 21
176.48699999999999
 31
0.0
  0
LINE
  5
2EC
  8
0
 62
     7
 10
37.411200000000001
 20
176.48699999999999
 30
0.0
 11
37.415399999999998
 21
176.489
 31
0.0
  0
LINE
  5
2ED
  8
0
 62
     7
 10
37.415399999999998
 20
176.489
 30
0.0
 11
37.4191
 21
176.49100000000001
 31
0.0
  0
LINE
  5
2EE
  8
0
 62
     7
 10
37.4191
 20
176.49100000000001
 30
0.0
 11
37.422899999999998
 21
176.49199999999999
 31
0.0
  0
LINE
  5
2EF
  8
0
 62
     7
 10
37.422899999999998
 20
176.49199999999999
 30
0.0
 11
37.426400000000001
 21
176.494
 31
0.0
  0
LINE
  5
2F0
  8
0
 62
     7
 10
37.426400000000001
 20
176.494
 30
0.0
 11
37.4298
 21
176.495
 31
0.0
  0
LINE
  5
2F1
  8
0
 62
     7
 10
37.4298
 20
176.495
 30
0.0
 11
37.432899999999997
 21
176.49700000000001
 31
0.0
  0
LINE
  5
2F2
  8
0
 62
     7
 10
37.432899999999997
 20
176.49700000000001
 30
0.0
 11
37.438400000000001
 21
176.499
 31
0.0
  0
LINE
  5
2F3
  8
0
 62
     7
 10
37.438400000000001
 20
176.499
 30
0.0
 11
37.444299999999998
 21
176.501
 31
0.0
  0
LINE
  5
2F4
  8
0
 62
     7
 10
37.444299999999998
 20
176.501
 30
0.0
 11
37.450499999999998
 21
176.50399999999999
 31
0.0
  0
LINE
  5
2F5
  8
0
 62
     7
 10
37.450499999999998
 20
176.50399999999999
 30
0.0
 11
37.4574
 21
176.506
 31
0.0
  0
LINE
  5
2F6
  8
0
 62
     7
 10
37.4574
 20
176.506
 30
0.0
 11
37.464300000000001
 21
176.50899999999999
 31
0.0
  0
LINE
  5
2F7
  8
0
 62
     7
 10
37.464300000000001
 20
176.50899999999999
 30
0.0
 11
37.471499999999999
 21
176.511
 31
0.0
  0
LINE
  5
2F8
  8
0
 62
     7
 10
37.471499999999999
 20
176.511
 30
0.0
 11
37.479399999999998
 21
176.51499999999999
 31
0.0
  0
LINE
  5
2F9
  8
0
 62
     7
 10
37.479399999999998
 20
176.51499999999999
 30
0.0
 11
37.487400000000001
 21
176.517
 31
0.0
  0
LINE
  5
2FA
  8
0
 62
     7
 10
37.487400000000001
 20
176.517
 30
0.0
 11
37.496000000000002
 21
176.52000000000001
 31
0.0
  0
LINE
  5
2FB
  8
0
 62
     7
 10
37.496000000000002
 20
176.52000000000001
 30
0.0
 11
37.504199999999997
 21
176.523
 31
0.0
  0
LINE
  5
2FC
  8
0
 62
     7
 10
37.504199999999997
 20
176.523
 30
0.0
 11
37.513199999999998
 21
176.52600000000001
 31
0.0
  0
LINE
  5
2FD
  8
0
 62
     7
 10
37.513199999999998
 20
176.52600000000001
 30
0.0
 11
37.522500000000001
 21
176.529
 31
0.0
  0
LINE
  5
2FE
  8
0
 62
     7
 10
37.522500000000001
 20
176.529
 30
0.0
 11
37.5321
 21
176.53200000000001
 31
0.0
  0
LINE
  5
2FF
  8
0
 62
     7
 10
37.5321
 20
176.53200000000001
 30
0.0
 11
37.542099999999998
 21
176.535
 31
0.0
  0
LINE
  5
300
  8
0
 62
     7
 10
37.542099999999998
 20
176.535
 30
0.0
 11
37.552500000000002
 21
176.53800000000001
 31
0.0
  0
LINE
  5
301
  8
0
 62
     7
 10
37.552500000000002
 20
176.53800000000001
 30
0.0
 11
37.563099999999999
 21
176.542
 31
0.0
  0
LINE
  5
302
  8
0
 62
     7
 10
37.563099999999999
 20
176.542
 30
0.0
 11
37.573799999999999
 21
176.54499999999999
 31
0.0
  0
ARC
  5
303
  8
0
 62
     7
 10
37.609071999999998
 20
176.45591999999999
 30
0.0
 40
0.095671
 50
104.238867
 51
111.61694900000001
  0
LINE
  5
304
  8
0
 62
     7
 10
37.585500000000003
 20
176.54900000000001
 30
0.0
 11
37.596899999999998
 21
176.55199999999999
 31
0.0
  0
ARC
  5
305
  8
0
 62
     7
 10
37.498303999999997
 20
176.896119
 30
0.0
 40
0.358206
 50
285.97839500000009
 51
288.227079
  0
ARC
  5
306
  8
0
 62
     7
 10
36.871626999999997
 20
179.26908499999999
 30
0.0
 40
2.8119659999999991
 50
285.23065400000002
 51
285.5218650000001
  0
LINE
  5
307
  8
0
 62
     7
 10
37.624099999999999
 20
176.56
 30
0.0
 11
37.638300000000001
 21
176.5629999999999
 31
0.0
  0
LINE
  5
308
  8
0
 62
     7
 10
37.638300000000001
 20
176.5629999999999
 30
0.0
 11
37.653100000000002
 21
176.56700000000001
 31
0.0
  0
ARC
  5
309
  8
0
 62
     7
 10
37.706136999999998
 20
176.39413400000001
 30
0.0
 40
0.181074
 50
102.309259
 51
107.043504
  0
ARC
  5
30A
  8
0
 62
     7
 10
37.491419
 20
177.246657
 30
0.0
 40
0.6981890000000001
 50
284.61041699999998
 51
285.89983699999999
  0
ARC
  5
30B
  8
0
 62
     7
 10
37.731994
 20
176.40404099999989
 30
0.0
 40
0.178097
 50
100.826657
 51
106.07055
  0
ARC
  5
30C
  8
0
 62
     7
 10
37.93085700000001
 20
175.72086100000001
 30
0.0
 40
0.8889989999999999
 50
104.093079
 51
105.148646
  0
ARC
  5
30D
  8
0
 62
     7
 10
38.070020999999997
 20
175.22398200000001
 30
0.0
 40
1.404879
 50
103.981931
 51
104.66348600000001
  0
LINE
  5
30E
  8
0
 62
     7
 10
37.730600000000003
 20
176.58699999999999
 30
0.0
 11
37.74710000000001
 21
176.59100000000001
 31
0.0
  0
ARC
  5
30F
  8
0
 62
     7
 10
37.391482000000011
 20
178.07938799999999
 30
0.0
 40
1.5305949999999999
 50
283.435495
 51
284.08609200000001
  0
ARC
  5
310
  8
0
 62
     7
 10
37.829582000000002
 20
176.33336800000001
 30
0.0
 40
0.269549
 50
100.260786
 51
104.08210800000001
  0
ARC
  5
311
  8
0
 62
     7
 10
37.986322000000001
 20
175.76780199999999
 30
0.0
 40
0.855663
 50
102.63618
 51
103.844837
  0
LINE
  5
312
  8
0
 62
     7
 10
37.799100000000003
 20
176.60299999999989
 30
0.0
 11
37.811500000000002
 21
176.60499999999999
 31
0.0
  0
LINE
  5
313
  8
0
 62
     7
 10
37.811500000000002
 20
176.60499999999999
 30
0.0
 11
37.823900000000002
 21
176.608
 31
0.0
  0
LINE
  5
314
  8
0
 62
     7
 10
37.823900000000002
 20
176.608
 30
0.0
 11
37.836300000000001
 21
176.61099999999999
 31
0.0
  0
LINE
  5
315
  8
0
 62
     7
 10
37.836300000000001
 20
176.61099999999999
 30
0.0
 11
37.84940000000001
 21
176.614
 31
0.0
  0
LINE
  5
316
  8
0
 62
     7
 10
37.84940000000001
 20
176.614
 30
0.0
 11
37.863199999999999
 21
176.61699999999999
 31
0.0
  0
LINE
  5
317
  8
0
 62
     7
 10
37.863199999999999
 20
176.61699999999999
 30
0.0
 11
37.877000000000002
 21
176.619
 31
0.0
  0
LINE
  5
318
  8
0
 62
     7
 10
37.877000000000002
 20
176.619
 30
0.0
 11
37.891500000000001
 21
176.62200000000001
 31
0.0
  0
LINE
  5
319
  8
0
 62
     7
 10
37.891500000000001
 20
176.62200000000001
 30
0.0
 11
37.905900000000003
 21
176.625
 31
0.0
  0
LINE
  5
31A
  8
0
 62
     7
 10
37.905900000000003
 20
176.625
 30
0.0
 11
37.921100000000003
 21
176.62799999999999
 31
0.0
  0
LINE
  5
31B
  8
0
 62
     7
 10
37.921100000000003
 20
176.62799999999999
 30
0.0
 11
37.936300000000003
 21
176.631
 31
0.0
  0
LINE
  5
31C
  8
0
 62
     7
 10
37.936300000000003
 20
176.631
 30
0.0
 11
37.952100000000002
 21
176.63399999999999
 31
0.0
  0
LINE
  5
31D
  8
0
 62
     7
 10
37.952100000000002
 20
176.63399999999999
 30
0.0
 11
37.9679
 21
176.637
 31
0.0
  0
LINE
  5
31E
  8
0
 62
     7
 10
37.9679
 20
176.637
 30
0.0
 11
37.984499999999997
 21
176.63999999999999
 31
0.0
  0
LINE
  5
31F
  8
0
 62
     7
 10
37.984499999999997
 20
176.63999999999999
 30
0.0
 11
38.0017
 21
176.643
 31
0.0
  0
LINE
  5
320
  8
0
 62
     7
 10
38.0017
 20
176.643
 30
0.0
 11
38.018599999999999
 21
176.64599999999999
 31
0.0
  0
LINE
  5
321
  8
0
 62
     7
 10
38.018599999999999
 20
176.64599999999999
 30
0.0
 11
38.036499999999997
 21
176.649
 31
0.0
  0
LINE
  5
322
  8
0
 62
     7
 10
38.036499999999997
 20
176.649
 30
0.0
 11
38.054400000000001
 21
176.65199999999999
 31
0.0
  0
LINE
  5
323
  8
0
 62
     7
 10
38.054400000000001
 20
176.65199999999999
 30
0.0
 11
38.072699999999998
 21
176.655
 31
0.0
  0
LINE
  5
324
  8
0
 62
     7
 10
38.072699999999998
 20
176.655
 30
0.0
 11
38.0916
 21
176.65799999999999
 31
0.0
  0
ARC
  5
325
  8
0
 62
     7
 10
38.009253999999999
 20
177.22513799999999
 30
0.0
 40
0.573225
 50
278.26220999999998
 51
281.30262099999999
  0
ARC
  5
326
  8
0
 62
     7
 10
38.046799999999998
 20
177.27422100000001
 30
0.0
 40
0.6157510000000001
 50
276.97742199999999
 51
279.82933800000001
  0
ARC
  5
327
  8
0
 62
     7
 10
37.633482000000001
 20
180.674117
 30
0.0
 40
4.0400109999999989
 50
277.37284099999999
 51
277.816464
  0
ARC
  5
328
  8
0
 62
     7
 10
38.34217000000001
 20
175.66888299999999
 30
0.0
 40
1.0153259999999991
 50
97.236504000000025
 51
99.023679000000016
  0
ARC
  5
329
  8
0
 62
     7
 10
38.315010000000001
 20
176.120698
 30
0.0
 40
0.5644840000000001
 50
97.025250000000014
 51
100.279811
  0
LINE
  5
32A
  8
0
 62
     7
 10
38.246000000000002
 20
176.6809999999999
 30
0.0
 11
38.277999999999999
 21
176.685
 31
0.0
  0
LINE
  5
32B
  8
0
 62
     7
 10
38.277999999999999
 20
176.685
 30
0.0
 11
38.310400000000001
 21
176.68899999999999
 31
0.0
  0
LINE
  5
32C
  8
0
 62
     7
 10
38.310400000000001
 20
176.68899999999999
 30
0.0
 11
38.343499999999999
 21
176.69300000000001
 31
0.0
  0
LINE
  5
32D
  8
0
 62
     7
 10
38.343499999999999
 20
176.69300000000001
 30
0.0
 11
38.376199999999997
 21
176.697
 31
0.0
  0
LINE
  5
32E
  8
0
 62
     7
 10
38.376199999999997
 20
176.697
 30
0.0
 11
38.409999999999997
 21
176.70099999999999
 31
0.0
  0
LINE
  5
32F
  8
0
 62
     7
 10
38.409999999999997
 20
176.70099999999999
 30
0.0
 11
38.443399999999997
 21
176.70500000000001
 31
0.0
  0
LINE
  5
330
  8
0
 62
     7
 10
38.443399999999997
 20
176.70500000000001
 30
0.0
 11
38.477800000000002
 21
176.709
 31
0.0
  0
ARC
  5
331
  8
0
 62
     7
 10
40.611437999999993
 20
155.75552500000001
 30
0.0
 40
21.061330999999999
 50
95.702201999999986
 51
95.814296999999996
  0
ARC
  5
332
  8
0
 62
     7
 10
40.652434999999997
 20
155.75966
 30
0.0
 40
21.061330999999999
 50
95.702201999999986
 51
95.814296999999996
  0
LINE
  5
333
  8
0
 62
     7
 10
38.559800000000003
 20
176.71700000000001
 30
0.0
 11
38.601500000000001
 21
176.72099999999989
 31
0.0
  0
LINE
  5
334
  8
0
 62
     7
 10
38.601500000000001
 20
176.72099999999989
 30
0.0
 11
38.6432
 21
176.72399999999999
 31
0.0
  0
LINE
  5
335
  8
0
 62
     7
 10
38.6432
 20
176.72399999999999
 30
0.0
 11
38.685600000000001
 21
176.727
 31
0.0
  0
ARC
  5
336
  8
0
 62
     7
 10
38.532246999999998
 20
178.680307
 30
0.0
 40
1.959206999999999
 50
274.48832700000003
 51
275.73252600000001
  0
LINE
  5
337
  8
0
 62
     7
 10
38.727899999999998
 20
176.73099999999999
 30
0.0
 11
38.771000000000001
 21
176.73400000000001
 31
0.0
  0
LINE
  5
338
  8
0
 62
     7
 10
38.771000000000001
 20
176.73400000000001
 30
0.0
 11
38.81410000000001
 21
176.73699999999999
 31
0.0
  0
LINE
  5
339
  8
0
 62
     7
 10
38.81410000000001
 20
176.73699999999999
 30
0.0
 11
38.857500000000002
 21
176.74000000000001
 31
0.0
  0
LINE
  5
33A
  8
0
 62
     7
 10
38.857500000000002
 20
176.74000000000001
 30
0.0
 11
38.9009
 21
176.74199999999999
 31
0.0
  0
LINE
  5
33B
  8
0
 62
     7
 10
38.9009
 20
176.74199999999999
 30
0.0
 11
38.945
 21
176.744
 31
0.0
  0
LINE
  5
33C
  8
0
 62
     7
 10
38.945
 20
176.744
 30
0.0
 11
39.0015
 21
176.74700000000001
 31
0.0
  0
LINE
  5
33D
  8
0
 62
     7
 10
39.0015
 20
176.74700000000001
 30
0.0
 11
39.058700000000002
 21
176.75
 31
0.0
  0
LINE
  5
33E
  8
0
 62
     7
 10
39.058700000000002
 20
176.75
 30
0.0
 11
39.115499999999997
 21
176.75200000000001
 31
0.0
  0
LINE
  5
33F
  8
0
 62
     7
 10
39.115499999999997
 20
176.75200000000001
 30
0.0
 11
39.17240000000001
 21
176.75299999999999
 31
0.0
  0
LINE
  5
340
  8
0
 62
     7
 10
39.17240000000001
 20
176.75299999999999
 30
0.0
 11
39.229900000000001
 21
176.755
 31
0.0
  0
LINE
  5
341
  8
0
 62
     7
 10
39.229900000000001
 20
176.755
 30
0.0
 11
39.287399999999998
 21
176.756
 31
0.0
  0
LINE
  5
342
  8
0
 62
     7
 10
39.287399999999998
 20
176.756
 30
0.0
 11
39.345300000000002
 21
176.75700000000001
 31
0.0
  0
LINE
  5
343
  8
0
 62
     7
 10
39.345300000000002
 20
176.75700000000001
 30
0.0
 11
39.402500000000011
 21
176.75700000000001
 31
0.0
  0
LINE
  5
344
  8
0
 62
     7
 10
39.402500000000011
 20
176.75700000000001
 30
0.0
 11
39.4604
 21
176.75700000000001
 31
0.0
  0
ARC
  5
345
  8
0
 62
     7
 10
93.897136000000003
 20
155.37123800000001
 30
0.0
 40
24.054500999999998
 50
88.430277999999987
 51
89.451289000000003
  0
ARC
  5
346
  8
0
 62
     7
 10
94.325531999999995
 20
170.50694100000001
 30
0.0
 40
8.9127520000000011
 50
85.794572000000002
 51
88.517831999999984
  0
ARC
  5
347
  8
0
 62
     7
 10
92.705152999999996
 20
149.00845699999999
 30
0.0
 40
30.472204999999999
 50
85.235592999999994
 51
85.720342000000002
  0
ARC
  5
348
  8
0
 62
     7
 10
94.403338000000005
 20
169.98154700000001
 30
0.0
 40
9.4306669999999997
 50
83.574781999999999
 51
84.933766000000006
  0
ARC
  5
349
  8
0
 62
     7
 10
94.631939000000003
 20
171.798868
 30
0.0
 40
7.5992160000000002
 50
82.183834999999988
 51
83.754199999999997
  0
ARC
  5
34A
  8
0
 62
     7
 10
94.589043999999987
 20
171.01476400000001
 30
0.0
 40
8.3821139999999996
 50
81.092579999999998
 51
82.622247999999999
  0
ARC
  5
34B
  8
0
 62
     7
 10
94.609861999999978
 20
171.067947
 30
0.0
 40
8.3263580000000008
 50
78.767403999999999
 51
81.177437999999995
  0
ARC
  5
34C
  8
0
 62
     7
 10
94.803169999999994
 20
172.19697600000001
 30
0.0
 40
7.1813649999999987
 50
75.702728000000008
 51
78.525493999999995
  0
ARC
  5
34D
  8
0
 62
     7
 10
95.555576999999985
 20
175.09865099999999
 30
0.0
 40
4.1837720000000003
 50
73.087875999999994
 51
75.874273000000002
  0
ARC
  5
34E
  8
0
 62
     7
 10
95.575318999999979
 20
175.039278
 30
0.0
 40
4.2349889999999988
 50
71.160931999999988
 51
73.577106000000001
  0
ARC
  5
34F
  8
0
 62
     7
 10
95.885940000000005
 20
175.89492200000001
 30
0.0
 40
3.324926
 50
68.629589999999993
 51
71.465668000000022
  0
ARC
  5
350
  8
0
 62
     7
 10
95.952150000000003
 20
175.99576400000001
 30
0.0
 40
3.2069879999999991
 50
66.394077999999993
 51
69.074647999999996
  0
ARC
  5
351
  8
0
 62
     7
 10
96.066023999999985
 20
176.21667400000001
 30
0.0
 40
2.959004999999999
 50
61.660785999999987
 51
66.701619999999991
  0
ARC
  5
352
  8
0
 62
     7
 10
96.100546999999992
 20
176.33382900000001
 30
0.0
 40
2.839615999999999
 50
56.202769999999987
 51
61.151790000000013
  0
ARC
  5
353
  8
0
 62
     7
 10
96.47054
 20
176.908581
 30
0.0
 40
2.156213999999999
 50
50.382694000000001
 51
55.877499000000007
  0
ARC
  5
354
  8
0
 62
     7
 10
96.636538000000002
 20
177.11266499999999
 30
0.0
 40
1.8931560000000001
 50
43.575161000000001
 51
50.31417600000001
  0
ARC
  5
355
  8
0
 62
     7
 10
96.210335000000015
 20
176.745634
 30
0.0
 40
2.4550819999999991
 50
40.606727999999997
 51
42.924452999999993
  0
ARC
  5
356
  8
0
 62
     7
 10
96.667372
 20
177.154887
 30
0.0
 40
1.841782
 50
36.892235999999997
 51
40.195053000000001
  0
ARC
  5
357
  8
0
 62
     7
 10
96.906470999999996
 20
177.32925700000001
 30
0.0
 40
1.545887
 50
33.156548000000001
 51
37.043403999999988
  0
ARC
  5
358
  8
0
 62
     7
 10
97.192266000000004
 20
177.49638999999999
 30
0.0
 40
1.215327
 50
29.312192
 51
33.929221000000013
  0
ARC
  5
359
  8
0
 62
     7
 10
96.78188200000001
 20
177.25838899999999
 30
0.0
 40
1.689697
 50
22.562719999999999
 51
29.536594999999998
  0
ARC
  5
35A
  8
0
 62
     7
 10
96.992086
 20
177.338707
 30
0.0
 40
1.46478
 50
14.990270000000001
 51
22.816317999999999
  0
ARC
  5
35B
  8
0
 62
     7
 10
96.975379000000004
 20
177.32818499999999
 30
0.0
 40
1.4836510000000001
 50
11.265143
 51
15.215894
  0
ARC
  5
35C
  8
0
 62
     7
 10
96.895962999999995
 20
177.31271000000001
 30
0.0
 40
1.5645599999999991
 50
7.5436449999999988
 51
11.252819000000001
  0
ARC
  5
35D
  8
0
 62
     7
 10
97.346276000000003
 20
177.35088200000001
 30
0.0
 40
1.113337
 50
3.6796589999999991
 51
8.6386649999999996
  0
ARC
  5
35E
  8
0
 62
     7
 10
96.335948000000002
 20
177.30054200000001
 30
0.0
 40
2.1248629999999991
 50
0.385702
 51
3.2858469999999991
  0
ARC
  5
35F
  8
0
 62
     7
 10
39.524774999999998
 20
167.62688499999999
 30
0.0
 40
4.3986549999999998
 50
181.212446
 51
182.46962600000001
  0
ARC
  5
360
  8
0
 62
     7
 10
36.213568000000002
 20
167.49123399999999
 30
0.0
 40
1.0847020000000001
 50
182.84743900000001
 51
188.53730399999989
  0
ARC
  5
361
  8
0
 62
     7
 10
36.67670600000001
 20
167.53180599999999
 30
0.0
 40
1.5489949999999999
 50
187.47817900000001
 51
191.04230200000001
  0
ARC
  5
362
  8
0
 62
     7
 10
37.240227000000012
 20
167.67013399999999
 30
0.0
 40
2.1287599999999989
 50
191.791481
 51
194.66844599999999
  0
ARC
  5
363
  8
0
 62
     7
 10
36.939191000000001
 20
167.621678
 30
0.0
 40
1.825502
 50
195.589755
 51
198.9419
  0
ARC
  5
364
  8
0
 62
     7
 10
36.808461000000001
 20
167.57460399999999
 30
0.0
 40
1.6865709999999989
 50
198.87097
 51
202.145263
  0
ARC
  5
365
  8
0
 62
     7
 10
37.140520000000009
 20
167.74645699999999
 30
0.0
 40
2.059196
 50
203.09143299999999
 51
206.04294400000001
  0
ARC
  5
366
  8
0
 62
     7
 10
37.045262999999998
 20
167.72159400000001
 30
0.0
 40
1.962791999999999
 50
206.61171300000001
 51
209.437321
  0
ARC
  5
367
  8
0
 62
     7
 10
36.958415000000002
 20
167.70494199999999
 30
0.0
 40
1.879184
 50
210.29657399999999
 51
213.28760199999999
  0
ARC
  5
368
  8
0
 62
     7
 10
36.599688999999998
 20
167.45328799999999
 30
0.0
 40
1.4412609999999999
 50
212.751676
 51
216.92419000000001
  0
ARC
  5
369
  8
0
 62
     7
 10
37.469144
 20
168.136954
 30
0.0
 40
2.5471619999999988
 50
217.46884399999999
 51
219.85080400000001
  0
ARC
  5
36A
  8
0
 62
     7
 10
36.880227000000012
 20
167.664311
 30
0.0
 40
1.7922349999999989
 50
220.31489999999999
 51
223.48180199999999
  0
ARC
  5
36B
  8
0
 62
     7
 10
36.952275999999998
 20
167.733709
 30
0.0
 40
1.892267999999999
 50
223.5052850000001
 51
230.254606
  0
ARC
  5
36C
  8
0
 62
     7
 10
37.091624000000003
 20
167.90061299999999
 30
0.0
 40
2.109694999999999
 50
230.242954
 51
235.86464300000009
  0
ARC
  5
36D
  8
0
 62
     7
 10
37.194471999999998
 20
168.044195
 30
0.0
 40
2.2862580000000001
 50
235.75041300000001
 51
241.908614
  0
ARC
  5
36E
  8
0
 62
     7
 10
37.52060800000001
 20
168.61235600000001
 30
0.0
 40
2.9411279999999991
 50
241.515468
 51
246.57780600000001
  0
ARC
  5
36F
  8
0
 62
     7
 10
38.154058999999997
 20
170.14420000000001
 30
0.0
 40
4.5986320000000003
 50
246.92241999999999
 51
248.7900810000001
  0
ARC
  5
370
  8
0
 62
     7
 10
38.373379
 20
170.77247399999999
 30
0.0
 40
5.263742999999999
 50
249.03866800000009
 51
250.83129500000001
  0
ARC
  5
371
  8
0
 62
     7
 10
38.698222000000001
 20
172.006035
 30
0.0
 40
6.5363110000000004
 50
251.692193
 51
253.25669400000001
  0
ARC
  5
372
  8
0
 62
     7
 10
38.121978000000013
 20
170.07968199999999
 30
0.0
 40
4.5256199999999991
 50
253.21696600000001
 51
255.797057
  0
ARC
  5
373
  8
0
 62
     7
 10
38.559314999999998
 20
171.696462
 30
0.0
 40
6.2003430000000002
 50
255.54496900000001
 51
258.81686500000001
  0
ARC
  5
374
  8
0
 62
     7
 10
38.765875999999999
 20
172.486763
 30
0.0
 40
7.0158740000000002
 50
258.41373199999998
 51
261.26946299999997
  0
ARC
  5
375
  8
0
 62
     7
 10
39.232519000000003
 20
175.419397
 30
0.0
 40
9.9853710000000007
 50
261.17709300000001
 51
263.75556599999999
  0
ARC
  5
376
  8
0
 62
     7
 10
39.288502999999999
 20
175.83284599999999
 30
0.0
 40
10.402462
 50
263.6967380000001
 51
266.25327099999998
  0
ARC
  5
377
  8
0
 62
     7
 10
39.349836000000003
 20
176.01607899999999
 30
0.0
 40
10.589426
 50
265.98691100000002
 51
267.17457400000001
  0
ARC
  5
378
  8
0
 62
     7
 10
39.740563000000002
 20
185.10788199999999
 30
0.0
 40
19.689522
 50
267.34309500000001
 51
267.92605600000002
  0
ARC
  5
379
  8
0
 62
     7
 10
39.494364000000012
 20
179.47130200000001
 30
0.0
 40
14.047787
 50
268.097576
 51
268.97889199999997
  0
LINE
  5
37A
  8
0
 62
     7
 10
39.244
 20
165.42599999999999
 30
0.0
 11
39.4604
 21
165.42400000000001
 31
0.0
  0
ARC
  5
37B
  8
0
 62
     7
 10
94.063091999999997
 20
167.62688499999999
 30
0.0
 40
4.3986549999999998
 50
357.53039400000011
 51
358.78757400000001
  0
ARC
  5
37C
  8
0
 62
     7
 10
97.374298999999993
 20
167.49123399999999
 30
0.0
 40
1.0847020000000001
 50
351.462716
 51
357.152581
  0
ARC
  5
37D
  8
0
 62
     7
 10
96.996448999999998
 20
167.5179
 30
0.0
 40
1.462626
 50
348.85244799999998
 51
352.62711100000001
  0
ARC
  5
37E
  8
0
 62
     7
 10
96.996518000000009
 20
167.517583
 30
0.0
 40
1.462496999999999
 50
344.67600599999997
 51
348.86410799999999
  0
ARC
  5
37F
  8
0
 62
     7
 10
97.139166000000003
 20
167.46389199999999
 30
0.0
 40
1.310805999999999
 50
341.0746529999999
 51
345.29164300000002
  0
ARC
  5
380
  8
0
 62
     7
 10
96.966920000000002
 20
167.512528
 30
0.0
 40
1.489547999999999
 50
337.34748300000001
 51
341.45384899999999
  0
ARC
  5
381
  8
0
 62
     7
 10
96.091564000000005
 20
167.90522000000001
 30
0.0
 40
2.4487489999999998
 50
334.49068499999998
 51
336.75638300000003
  0
ARC
  5
382
  8
0
 62
     7
 10
96.325123000000005
 20
167.83703
 30
0.0
 40
2.2089369999999988
 50
330.72750100000002
 51
333.47796299999999
  0
ARC
  5
383
  8
0
 62
     7
 10
96.941568000000004
 20
167.50627900000001
 30
0.0
 40
1.509539999999999
 50
326.52089100000001
 51
330.23769600000003
  0
ARC
  5
384
  8
0
 62
     7
 10
96.824984000000001
 20
167.572372
 30
0.0
 40
1.643265999999999
 50
323.17484200000001
 51
326.84112499999998
  0
ARC
  5
385
  8
0
 62
     7
 10
96.238931999999991
 20
168.04078699999999
 30
0.0
 40
2.393256
 50
320.07261399999999
 51
322.607778
  0
ARC
  5
386
  8
0
 62
     7
 10
96.726904000000005
 20
167.64702800000001
 30
0.0
 40
1.766365
 50
316.49502000000001
 51
319.70831699999991
  0
ARC
  5
387
  8
0
 62
     7
 10
96.660145999999997
 20
167.70748699999999
 30
0.0
 40
1.856406999999999
 50
309.68014699999998
 51
316.560002
  0
ARC
  5
388
  8
0
 62
     7
 10
96.504704000000004
 20
167.88936200000001
 30
0.0
 40
2.0956349999999988
 50
304.11650300000002
 51
309.77593999999999
  0
ARC
  5
389
  8
0
 62
     7
 10
96.360564000000011
 20
168.09245300000001
 30
0.0
 40
2.3446250000000002
 50
298.25873300000001
 51
304.24906800000002
  0
ARC
  5
38A
  8
0
 62
     7
 10
96.026593000000005
 20
168.704654
 30
0.0
 40
3.0419860000000001
 50
293.43399599999998
 51
298.34007100000002
  0
ARC
  5
38B
  8
0
 62
     7
 10
95.634838000000002
 20
169.650206
 30
0.0
 40
4.0653800000000002
 50
291.08743600000003
 51
293.2001029999999
  0
ARC
  5
38C
  8
0
 62
     7
 10
95.221714000000006
 20
170.75269299999999
 30
0.0
 40
5.2426870000000001
 50
289.16512499999999
 51
290.96495199999998
  0
ARC
  5
38D
  8
0
 62
     7
 10
94.886708999999996
 20
172.01532900000001
 30
0.0
 40
6.5460570000000002
 50
286.74448999999998
 51
288.30666200000002
  0
ARC
  5
38E
  8
0
 62
     7
 10
95.332230999999993
 20
170.553991
 30
0.0
 40
5.0183269999999993
 50
284.35745300000002
 51
286.68039800000003
  0
ARC
  5
38F
  8
0
 62
     7
 10
95.499434999999991
 20
169.76969
 30
0.0
 40
4.2171849999999989
 50
282.71236199999998
 51
284.79903400000001
  0
ARC
  5
390
  8
0
 62
     7
 10
95.191385999999994
 20
170.941202
 30
0.0
 40
5.427935999999999
 50
281.34698100000003
 51
283.16308500000002
  0
ARC
  5
391
  8
0
 62
     7
 10
94.720671999999993
 20
173.069106
 30
0.0
 40
7.6069820000000004
 50
280.33738199999999
 51
281.66971699999999
  0
ARC
  5
392
  8
0
 62
     7
 10
94.098534000000015
 20
176.79821999999999
 30
0.0
 40
11.387347
 50
279.035709
 51
280.04994099999999
  0
ARC
  5
393
  8
0
 62
     7
 10
94.368973999999994
 20
175.31636800000001
 30
0.0
 40
9.8814720000000005
 50
276.23089499999998
 51
278.83648499999998
  0
ARC
  5
394
  8
0
 62
     7
 10
94.305998000000017
 20
175.757395
 30
0.0
 40
10.326738000000001
 50
273.7373740000001
 51
276.312657
  0
ARC
  5
395
  8
0
 62
     7
 10
93.108811000000017
 20
195.35285200000001
 30
0.0
 40
29.958673000000001
 50
273.200446
 51
273.57930499999998
  0
ARC
  5
396
  8
0
 62
     7
 10
94.290727000000004
 20
174.159965
 30
0.0
 40
8.7328550000000007
 50
271.76602800000001
 51
273.22083099999998
  0
ARC
  5
397
  8
0
 62
     7
 10
94.108163000000005
 20
180.23457300000001
 30
0.0
 40
14.810204000000001
 50
270.95715200000001
 51
271.74772999999999
  0
ARC
  5
398
  8
0
 62
     7
 10
94.08194300000001
 20
180.51730000000001
 30
0.0
 40
15.093344999999999
 50
270.17292400000002
 51
271.03874400000001
  0
LINE
  5
399
  8
0
 62
     7
 10
94.127499999999998
 20
168.09100000000001
 30
0.0
 11
94.200500000000005
 21
168.09100000000001
 31
0.0
  0
LINE
  5
39A
  8
0
 62
     7
 10
94.200500000000005
 20
168.09100000000001
 30
0.0
 11
94.2791
 21
168.09200000000001
 31
0.0
  0
LINE
  5
39B
  8
0
 62
     7
 10
94.2791
 20
168.09200000000001
 30
0.0
 11
94.363100000000003
 21
168.09399999999999
 31
0.0
  0
LINE
  5
39C
  8
0
 62
     7
 10
94.363100000000003
 20
168.09399999999999
 30
0.0
 11
94.451700000000002
 21
168.09599999999989
 31
0.0
  0
LINE
  5
39D
  8
0
 62
     7
 10
94.451700000000002
 20
168.09599999999989
 30
0.0
 11
94.545399999999987
 21
168.09899999999999
 31
0.0
  0
ARC
  5
39E
  8
0
 62
     7
 10
94.388958000000002
 20
172.24908099999999
 30
0.0
 40
4.1528710000000002
 50
272.15871700000002
 51
273.50552499999998
  0
LINE
  5
39F
  8
0
 62
     7
 10
94.642899999999997
 20
168.10400000000001
 30
0.0
 11
94.710400000000007
 21
168.107
 31
0.0
  0
LINE
  5
3A0
  8
0
 62
     7
 10
94.710400000000007
 20
168.107
 30
0.0
 11
94.7821
 21
168.11199999999999
 31
0.0
  0
ARC
  5
3A1
  8
0
 62
     7
 10
94.696356999999992
 20
169.834811
 30
0.0
 40
1.724693
 50
272.84851500000002
 51
275.39609899999999
  0
ARC
  5
3A2
  8
0
 62
     7
 10
94.753451999999996
 20
170.011112
 30
0.0
 40
1.8962659999999989
 50
273.17712
 51
275.62031000000002
  0
ARC
  5
3A3
  8
0
 62
     7
 10
94.267151999999996
 20
176.04713100000001
 30
0.0
 40
7.9516169999999988
 50
274.84800899999999
 51
275.45617299999998
  0
ARC
  5
3A4
  8
0
 62
     7
 10
94.744396999999992
 20
171.53439700000001
 30
0.0
 40
3.4142600000000001
 50
274.68432100000001
 51
276.15361200000001
  0
ARC
  5
3A5
  8
0
 62
     7
 10
93.390783999999996
 20
184.15066899999999
 30
0.0
 40
16.102938999999999
 50
276.13020399999999
 51
276.454545
  0
ARC
  5
3A6
  8
0
 62
     7
 10
94.439363999999998
 20
174.91661300000001
 30
0.0
 40
6.8095399999999993
 50
276.42182100000002
 51
277.134095
  0
ARC
  5
3A7
  8
0
 62
     7
 10
94.180009999999996
 20
176.42876999999999
 30
0.0
 40
8.3424890000000005
 50
277.61175900000001
 51
278.146816
  0
ARC
  5
3A8
  8
0
 62
     7
 10
94.764464000000004
 20
172.65063499999999
 30
0.0
 40
4.5198660000000004
 50
277.59974099999999
 51
278.50393600000001
  0
ARC
  5
3A9
  8
0
 62
     7
 10
95.940484999999995
 20
165.04181500000001
 30
0.0
 40
3.1794340000000001
 50
98.025638999999998
 51
99.187286000000014
  0
ARC
  5
3AA
  8
0
 62
     7
 10
95.721043000000009
 20
167.04205400000001
 30
0.0
 40
1.169789999999999
 50
98.476843000000002
 51
101.0625349999999
  0
ARC
  5
3AB
  8
0
 62
     7
 10
94.932203000000001
 20
171.907667
 30
0.0
 40
3.7594780000000001
 50
279.436804
 51
280.294828
  0
ARC
  5
3AC
  8
0
 62
     7
 10
95.146195000000006
 20
170.83456000000001
 30
0.0
 40
2.66547
 50
279.89138000000003
 51
281.187005
  0
ARC
  5
3AD
  8
0
 62
     7
 10
95.042202000000003
 20
171.46762100000001
 30
0.0
 40
3.3067440000000001
 50
280.82652200000001
 51
281.91644500000001
  0
ARC
  5
3AE
  8
0
 62
     7
 10
95.263928000000007
 20
170.51884999999999
 30
0.0
 40
2.3327309999999999
 50
281.39964900000001
 51
283.001305
  0
LINE
  5
3AF
  8
0
 62
     7
 10
95.788700000000006
 20
168.24600000000001
 30
0.0
 11
95.791499999999999
 21
168.24600000000001
 31
0.0
  0
LINE
  5
3B0
  8
0
 62
     7
 10
95.791499999999999
 20
168.24600000000001
 30
0.0
 11
95.794200000000004
 21
168.24700000000001
 31
0.0
  0
LINE
  5
3B1
  8
0
 62
     7
 10
96.199399999999983
 20
176.477
 30
0.0
 11
96.199000000000012
 21
176.477
 31
0.0
  0
LINE
  5
3B2
  8
0
 62
     7
 10
96.199000000000012
 20
176.477
 30
0.0
 11
96.197999999999993
 21
176.477
 31
0.0
  0
LINE
  5
3B3
  8
0
 62
     7
 10
96.197999999999993
 20
176.477
 30
0.0
 11
96.197699999999998
 21
176.47800000000001
 31
0.0
  0
LINE
  5
3B4
  8
0
 62
     7
 10
96.197699999999998
 20
176.47800000000001
 30
0.0
 11
96.196299999999994
 21
176.47800000000001
 31
0.0
  0
LINE
  5
3B5
  8
0
 62
     7
 10
96.196299999999994
 20
176.47800000000001
 30
0.0
 11
96.194900000000004
 21
176.47900000000001
 31
0.0
  0
LINE
  5
3B6
  8
0
 62
     7
 10
96.194900000000004
 20
176.47900000000001
 30
0.0
 11
96.192800000000005
 21
176.47999999999999
 31
0.0
  0
LINE
  5
3B7
  8
0
 62
     7
 10
96.192800000000005
 20
176.47999999999999
 30
0.0
 11
96.190799999999996
 21
176.48099999999999
 31
0.0
  0
LINE
  5
3B8
  8
0
 62
     7
 10
96.190799999999996
 20
176.48099999999999
 30
0.0
 11
96.188700000000011
 21
176.482
 31
0.0
  0
LINE
  5
3B9
  8
0
 62
     7
 10
96.188700000000011
 20
176.482
 30
0.0
 11
96.186599999999999
 21
176.483
 31
0.0
  0
LINE
  5
3BA
  8
0
 62
     7
 10
96.186599999999999
 20
176.483
 30
0.0
 11
96.184900000000013
 21
176.48400000000001
 31
0.0
  0
LINE
  5
3BB
  8
0
 62
     7
 10
96.184900000000013
 20
176.48400000000001
 30
0.0
 11
96.183499999999995
 21
176.48500000000001
 31
0.0
  0
LINE
  5
3BC
  8
0
 62
     7
 10
96.183499999999995
 20
176.48500000000001
 30
0.0
 11
96.182199999999995
 21
176.48500000000001
 31
0.0
  0
LINE
  5
3BD
  8
0
 62
     7
 10
96.182199999999995
 20
176.48500000000001
 30
0.0
 11
96.180800000000005
 21
176.48599999999999
 31
0.0
  0
ARC
  5
3BE
  8
0
 62
     7
 10
96.186290999999997
 20
176.50092699999999
 30
0.0
 40
0.016281
 50
236.641435
 51
250.228489
  0
ARC
  5
3BF
  8
0
 62
     7
 10
96.167715999999984
 20
176.465352
 30
0.0
 40
0.023991
 50
66.354167000000004
 51
76.775919999999999
  0
ARC
  5
3C0
  8
0
 62
     7
 10
96.151178000000002
 20
176.44982200000001
 30
0.0
 40
0.04469
 50
60.470691000000002
 51
66.399193000000011
  0
ARC
  5
3C1
  8
0
 62
     7
 10
96.156994999999995
 20
176.46606
 30
0.0
 40
0.027506
 50
63.958356000000002
 51
73.966606999999996
  0
LINE
  5
3C2
  8
0
 62
     7
 10
96.164599999999993
 20
176.49199999999999
 30
0.0
 11
96.159400000000005
 21
176.495
 31
0.0
  0
ARC
  5
3C3
  8
0
 62
     7
 10
96.025254000000004
 20
176.126846
 30
0.0
 40
0.391754
 50
69.971641000000005
 51
70.720694999999992
  0
ARC
  5
3C4
  8
0
 62
     7
 10
96.126046000000002
 20
176.43886800000001
 30
0.0
 40
0.064435
 50
63.694637
 51
69.046593000000001
  0
ARC
  5
3C5
  8
0
 62
     7
 10
96.182828999999998
 20
176.58331100000001
 30
0.0
 40
0.090773
 50
243.89533
 51
248.17971700000001
  0
ARC
  5
3C6
  8
0
 62
     7
 10
96.120033999999976
 20
176.43491299999999
 30
0.0
 40
0.070682
 50
71.135363999999996
 51
76.085538999999997
  0
ARC
  5
3C7
  8
0
 62
     7
 10
96.125506000000001
 20
176.4853
 30
0.0
 40
0.021559
 50
57.685724
 51
76.646951999999999
  0
ARC
  5
3C8
  8
0
 62
     7
 10
96.140292000000002
 20
176.540786
 30
0.0
 40
0.035875
 50
242.26202799999999
 51
254.135178
  0
ARC
  5
3C9
  8
0
 62
     7
 10
96.133925000000005
 20
176.55207999999999
 30
0.0
 40
0.044269
 50
246.62386100000001
 51
256.50626499999998
  0
ARC
  5
3CA
  8
0
 62
     7
 10
96.101382999999998
 20
176.47403700000001
 30
0.0
 40
0.040295
 50
68.179540000000003
 51
78.421955000000011
  0
ARC
  5
3CB
  8
0
 62
     7
 10
96.090513000000001
 20
176.47610900000001
 30
0.0
 40
0.041932
 50
63.121967000000012
 51
73.275199000000001
  0
ARC
  5
3CC
  8
0
 62
     7
 10
96.117597000000004
 20
176.566562
 30
0.0
 40
0.052489
 50
244.916234
 51
253.37487400000001
  0
LINE
  5
3CD
  8
0
 62
     7
 10
96.095299999999995
 20
176.51900000000001
 30
0.0
 11
96.087800000000016
 21
176.52099999999999
 31
0.0
  0
ARC
  5
3CE
  8
0
 62
     7
 10
96.064766000000006
 20
176.466218
 30
0.0
 40
0.059816
 50
67.387147999999996
 51
75.742937999999995
  0
ARC
  5
3CF
  8
0
 62
     7
 10
96.022199000000015
 20
176.35996800000001
 30
0.0
 40
0.173932
 50
70.765698
 51
73.744941999999995
  0
ARC
  5
3D0
  8
0
 62
     7
 10
96.147819999999996
 20
176.74468200000001
 30
0.0
 40
0.230927
 50
248.34842
 51
250.539513
  0
LINE
  5
3D1
  8
0
 62
     7
 10
96.062600000000003
 20
176.53
 30
0.0
 11
96.052999999999983
 21
176.53299999999999
 31
0.0
  0
LINE
  5
3D2
  8
0
 62
     7
 10
96.052999999999983
 20
176.53299999999999
 30
0.0
 11
96.043300000000002
 21
176.536
 31
0.0
  0
ARC
  5
3D3
  8
0
 62
     7
 10
96.063935999999998
 20
176.61693099999999
 30
0.0
 40
0.083273
 50
248.693185
 51
255.669061
  0
ARC
  5
3D4
  8
0
 62
     7
 10
96.453696999999991
 20
178.13518199999999
 30
0.0
 40
1.6501809999999999
 50
254.8828980000001
 51
255.25429099999999
  0
ARC
  5
3D5
  8
0
 62
     7
 10
95.934135999999995
 20
176.26353
 30
0.0
 40
0.29251
 50
72.243893999999983
 51
74.357601000000003
  0
LINE
  5
3D6
  8
0
 62
     7
 10
96.013000000000005
 20
176.54499999999999
 30
0.0
 11
96.001999999999995
 21
176.54900000000001
 31
0.0
  0
ARC
  5
3D7
  8
0
 62
     7
 10
95.975577000000015
 20
176.47591700000001
 30
0.0
 40
0.077379
 50
70.047612000000001
 51
78.535095999999996
  0
ARC
  5
3D8
  8
0
 62
     7
 10
95.919247999999996
 20
176.326806
 30
0.0
 40
0.236099
 50
72.318380000000005
 51
74.672881000000004
  0
ARC
  5
3D9
  8
0
 62
     7
 10
96.249158999999992
 20
177.43982700000001
 30
0.0
 40
0.92485
 50
252.60698600000001
 51
253.18758
  0
ARC
  5
3DA
  8
0
 62
     7
 10
96.392719
 20
178.153097
 30
0.0
 40
1.6501809999999999
 50
254.8828980000001
 51
255.25429099999999
  0
ARC
  5
3DB
  8
0
 62
     7
 10
95.968127999999993
 20
176.60040499999999
 30
0.0
 40
0.040793
 50
247.27982299999991
 51
261.875878
  0
ARC
  5
3DC
  8
0
 62
     7
 10
95.875806999999995
 20
176.28815499999999
 30
0.0
 40
0.285095
 50
74.421299000000005
 51
76.63809599999999
  0
LINE
  5
3DD
  8
0
 62
     7
 10
95.941699999999997
 20
176.566
 30
0.0
 11
95.931399999999996
 21
176.56800000000001
 31
0.0
  0
ARC
  5
3DE
  8
0
 62
     7
 10
95.892160999999987
 20
176.44389099999989
 30
0.0
 40
0.130427
 50
72.511123999999995
 51
77.835898999999984
  0
ARC
  5
3DF
  8
0
 62
     7
 10
95.891199
 20
176.478882
 30
0.0
 40
0.096782
 50
72.908171999999993
 51
79.837822000000003
  0
LINE
  5
3E0
  8
0
 62
     7
 10
95.908299999999997
 20
176.57400000000001
 30
0.0
 11
95.896600000000007
 21
176.578
 31
0.0
  0
ARC
  5
3E1
  8
0
 62
     7
 10
95.916041000000007
 20
176.69056699999999
 30
0.0
 40
0.114643
 50
254.032681
 51
260.21733799999998
  0
ARC
  5
3E2
  8
0
 62
     7
 10
95.916681000000011
 20
176.745396
 30
0.0
 40
0.168157
 50
254.38285099999999
 51
258.96810900000003
  0
ARC
  5
3E3
  8
0
 62
     7
 10
95.811554999999984
 20
176.36511999999999
 30
0.0
 40
0.226384
 50
74.668346
 51
77.989023000000003
  0
ARC
  5
3E4
  8
0
 62
     7
 10
95.910054000000002
 20
176.80199200000001
 30
0.0
 40
0.221488
 50
253.16787199999999
 51
256.584136
  0
ARC
  5
3E5
  8
0
 62
     7
 10
95.868865
 20
176.740554
 30
0.0
 40
0.152299
 50
256.04566599999998
 51
261.33449200000001
  0
ARC
  5
3E6
  8
0
 62
     7
 10
95.781156999999993
 20
176.41073600000001
 30
0.0
 40
0.189018
 50
74.352587999999983
 51
78.862398999999996
  0
ARC
  5
3E7
  8
0
 62
     7
 10
95.889454000000001
 20
176.92119199999999
 30
0.0
 40
0.332831
 50
255.041528
 51
257.54457300000001
  0
ARC
  5
3E8
  8
0
 62
     7
 10
95.823131999999987
 20
176.730166
 30
0.0
 40
0.131988
 50
254.89169100000001
 51
261.46535499999999
  0
ARC
  5
3E9
  8
0
 62
     7
 10
96.150936000000016
 20
178.16838799999999
 30
0.0
 40
1.607
 50
256.54497500000002
 51
256.97400800000003
  0
ARC
  5
3EA
  8
0
 62
     7
 10
96.025616000000014
 20
177.818816
 30
0.0
 40
1.238526
 50
257.80189999999999
 51
258.42080600000003
  0
LINE
  5
3EB
  8
0
 62
     7
 10
95.763900000000007
 20
176.608
 30
0.0
 11
95.751499999999979
 21
176.61099999999999
 31
0.0
  0
ARC
  5
3EC
  8
0
 62
     7
 10
95.491139000000004
 20
175.40665999999999
 30
0.0
 40
1.232175
 50
77.800286
 51
78.422381000000001
  0
LINE
  5
3ED
  8
0
 62
     7
 10
95.738399999999999
 20
176.614
 30
0.0
 11
95.724999999999994
 21
176.61699999999999
 31
0.0
  0
LINE
  5
3EE
  8
0
 62
     7
 10
95.724999999999994
 20
176.61699999999999
 30
0.0
 11
95.710899999999995
 21
176.619
 31
0.0
  0
LINE
  5
3EF
  8
0
 62
     7
 10
95.710899999999995
 20
176.619
 30
0.0
 11
95.696399999999997
 21
176.62200000000001
 31
0.0
  0
ARC
  5
3F0
  8
0
 62
     7
 10
95.775889000000006
 20
177.028291
 30
0.0
 40
0.413962
 50
256.88111800000007
 51
258.92939000000001
  0
ARC
  5
3F1
  8
0
 62
     7
 10
95.628727999999995
 20
176.38035600000001
 30
0.0
 40
0.250492
 50
77.737251999999998
 51
81.184363000000005
  0
ARC
  5
3F2
  8
0
 62
     7
 10
95.614277000000016
 20
176.37564800000001
 30
0.0
 40
0.257716
 50
78.168774999999997
 51
81.670011999999986
  0
LINE
  5
3F3
  8
0
 62
     7
 10
95.651600000000002
 20
176.631
 30
0.0
 11
95.635799999999989
 21
176.63399999999999
 31
0.0
  0
ARC
  5
3F4
  8
0
 62
     7
 10
95.658214999999998
 20
176.81011000000001
 30
0.0
 40
0.177446
 50
257.53638799999999
 51
262.73201999999998
  0
LINE
  5
3F5
  8
0
 62
     7
 10
95.619899999999987
 20
176.637
 30
0.0
 11
95.603399999999993
 21
176.63999999999999
 31
0.0
  0
ARC
  5
3F6
  8
0
 62
     7
 10
95.540868999999986
 20
176.371824
 30
0.0
 40
0.274978
 50
76.859606999999997
 51
80.520510999999985
  0
LINE
  5
3F7
  8
0
 62
     7
 10
95.586200000000005
 20
176.643
 30
0.0
 11
95.569299999999984
 21
176.64599999999999
 31
0.0
  0
ARC
  5
3F8
  8
0
 62
     7
 10
95.493888999999996
 20
176.222598
 30
0.0
 40
0.429868
 50
79.899727999999996
 51
82.270399999999995
  0
ARC
  5
3F9
  8
0
 62
     7
 10
95.500236999999998
 20
176.42588499999999
 30
0.0
 40
0.228546
 50
76.985298
 51
81.644858999999997
  0
ARC
  5
3FA
  8
0
 62
     7
 10
95.572539000000006
 20
176.972859
 30
0.0
 40
0.323226
 50
259.77951000000002
 51
263.053269
  0
ARC
  5
3FB
  8
0
 62
     7
 10
95.46996
 20
176.44075699999999
 30
0.0
 40
0.218731
 50
78.066718000000023
 51
83.008618999999996
  0
ARC
  5
3FC
  8
0
 62
     7
 10
95.561528999999993
 20
177.13038700000001
 30
0.0
 40
0.4769680000000001
 50
258.47915399999999
 51
262.17415699999998
  0
ARC
  5
3FD
  8
0
 62
     7
 10
95.654432999999997
 20
178.04162099999999
 30
0.0
 40
1.391373999999999
 50
260.96563600000002
 51
262.227644
  0
LINE
  5
3FE
  8
0
 62
     7
 10
95.435900000000004
 20
176.66800000000001
 30
0.0
 11
95.404899999999998
 21
176.672
 31
0.0
  0
ARC
  5
3FF
  8
0
 62
     7
 10
95.282030000000006
 20
175.923216
 30
0.0
 40
0.7584520000000001
 50
80.673620999999997
 51
83.066157000000004
  0
ARC
  5
400
  8
0
 62
     7
 10
95.297899000000001
 20
176.285256
 30
0.0
 40
0.398127
 50
79.039899000000005
 51
83.655000000000001
  0
LINE
  5
401
  8
0
 62
     7
 10
95.341899999999995
 20
176.6809999999999
 30
0.0
 11
95.310199999999995
 21
176.685
 31
0.0
  0
ARC
  5
402
  8
0
 62
     7
 10
96.726038000000003
 20
188.02539300000001
 30
0.0
 40
11.428356000000001
 50
262.71808299999998
 51
262.88347099999999
  0
LINE
  5
403
  8
0
 62
     7
 10
95.277500000000003
 20
176.68899999999999
 30
0.0
 11
95.244699999999995
 21
176.69300000000001
 31
0.0
  0
ARC
  5
404
  8
0
 62
     7
 10
94.718319999999991
 20
172.61630099999999
 30
0.0
 40
4.1108909999999996
 50
82.642701000000002
 51
83.107247999999998
  0
ARC
  5
405
  8
0
 62
     7
 10
95.110005999999998
 20
175.87511599999999
 30
0.0
 40
0.8286249999999999
 50
82.95245899999999
 51
85.275547000000003
  0
ARC
  5
406
  8
0
 62
     7
 10
96.575828000000001
 20
188.25437199999999
 30
0.0
 40
11.637669000000001
 50
262.93522200000001
 51
263.10268500000001
  0
LINE
  5
407
  8
0
 62
     7
 10
95.144499999999994
 20
176.70500000000001
 30
0.0
 11
95.110399999999984
 21
176.709
 31
0.0
  0
ARC
  5
408
  8
0
 62
     7
 10
94.931928999999997
 20
175.17073099999999
 30
0.0
 40
1.5480940000000001
 50
83.380511999999996
 51
85.021034999999998
  0
ARC
  5
409
  8
0
 62
     7
 10
95.959204
 20
186.55277100000001
 30
0.0
 40
9.8802179999999993
 50
264.55604799999998
 51
264.81488200000001
  0
LINE
  5
40A
  8
0
 62
     7
 10
95.021799999999999
 20
176.71700000000001
 30
0.0
 11
94.977099999999993
 21
176.72099999999989
 31
0.0
  0
ARC
  5
40B
  8
0
 62
     7
 10
96.338796000000002
 20
191.71805000000001
 30
0.0
 40
15.058495000000001
 50
264.64054900000002
 51
264.81168000000002
  0
ARC
  5
40C
  8
0
 62
     7
 10
95.367256000000026
 20
183.49356800000001
 30
0.0
 40
6.782144999999999
 50
265.93476600000002
 51
266.32274200000001
  0
ARC
  5
40D
  8
0
 62
     7
 10
94.586625999999995
 20
173.382206
 30
0.0
 40
3.3596859999999991
 50
84.879959999999997
 51
85.664045000000002
  0
ARC
  5
40E
  8
0
 62
     7
 10
93.934310999999994
 20
163.67895999999999
 30
0.0
 40
13.084743
 50
86.028186000000005
 51
86.229282999999995
  0
ARC
  5
40F
  8
0
 62
     7
 10
95.093799000000004
 20
181.0873499999999
 30
0.0
 40
4.3622309999999986
 50
265.45733999999999
 51
266.06989099999998
  0
ARC
  5
410
  8
0
 62
     7
 10
94.822323999999995
 20
178.38170400000001
 30
0.0
 40
1.644549
 50
265.79703799999999
 51
267.42030299999999
  0
ARC
  5
411
  8
0
 62
     7
 10
94.733290999999994
 20
178.000606
 30
0.0
 40
1.259422
 50
266.41760799999997
 51
268.56700899999998
  0
ARC
  5
412
  8
0
 62
     7
 10
94.556939999999983
 20
175.31727599999999
 30
0.0
 40
1.4297079999999991
 50
86.083318000000006
 51
87.935973000000004
  0
ARC
  5
413
  8
0
 62
     7
 10
94.497594999999976
 20
175.02180100000001
 30
0.0
 40
1.7278139999999991
 50
86.322006000000002
 51
87.912046999999987
  0
LINE
  5
414
  8
0
 62
     7
 10
94.560500000000005
 20
176.74799999999999
 30
0.0
 11
94.513300000000001
 21
176.75
 31
0.0
  0
ARC
  5
415
  8
0
 62
     7
 10
94.456210999999996
 20
175.828293
 30
0.0
 40
0.923667
 50
86.453513999999998
 51
89.426244999999994
  0
ARC
  5
416
  8
0
 62
     7
 10
94.392250999999987
 20
175.04064399999999
 30
0.0
 40
1.7128339999999991
 50
87.55035500000001
 51
89.152935999999997
  0
ARC
  5
417
  8
0
 62
     7
 10
94.344363999999999
 20
175.042022
 30
0.0
 40
1.7128339999999991
 50
87.55035500000001
 51
89.152935999999997
  0
ARC
  5
418
  8
0
 62
     7
 10
94.321943999999974
 20
175.652625
 30
0.0
 40
1.103078
 50
87.519407000000001
 51
90.025416000000021
  0
ARC
  5
419
  8
0
 62
     7
 10
93.335491000000005
 20
132.18267299999999
 30
0.0
 40
44.583933999999999
 50
88.732804999999985
 51
88.794359999999998
  0
LINE
  5
41A
  8
0
 62
     7
 10
94.273600000000002
 20
176.75700000000001
 30
0.0
 11
94.224599999999995
 21
176.75700000000001
 31
0.0
  0
LINE
  5
41B
  8
0
 62
     7
 10
94.224599999999995
 20
176.75700000000001
 30
0.0
 11
94.176100000000005
 21
176.75700000000001
 31
0.0
  0
LINE
  5
41C
  8
0
 62
     7
 10
94.176100000000005
 20
176.75700000000001
 30
0.0
 11
94.127499999999998
 21
176.75700000000001
 31
0.0
  0
LINE
  5
41D
  8
0
 62
     7
 10
37.794000000000011
 20
176.601
 30
0.0
 11
37.794000000000011
 21
167.53399999999999
 31
0.0
  0
LINE
  5
41E
  8
0
 62
     7
 10
35.127099999999999
 20
177.315
 30
0.0
 11
35.127099999999999
 21
167.53399999999999
 31
0.0
  0
LINE
  5
41F
  8
0
 62
     7
 10
59.359000000000002
 20
176.75700000000001
 30
0.0
 11
39.4604
 21
176.75700000000001
 31
0.0
  0
LINE
  5
420
  8
0
 62
     7
 10
74.229200000000006
 20
176.75700000000001
 30
0.0
 11
94.127499999999998
 21
176.75700000000001
 31
0.0
  0
LINE
  5
421
  8
0
 62
     7
 10
59.291800000000002
 20
179.42500000000001
 30
0.0
 11
39.4604
 21
179.42500000000001
 31
0.0
  0
LINE
  5
422
  8
0
 62
     7
 10
74.295699999999997
 20
179.42500000000001
 30
0.0
 11
94.127499999999998
 21
179.42500000000001
 31
0.0
  0
LINE
  5
423
  8
0
 62
     7
 10
94.127499999999998
 20
168.09100000000001
 30
0.0
 11
39.4604
 21
168.09100000000001
 31
0.0
  0
LINE
  5
424
  8
0
 62
     7
 10
94.127499999999998
 20
165.42400000000001
 30
0.0
 11
39.4604
 21
165.42400000000001
 31
0.0
  0
LINE
  5
425
  8
0
 62
     7
 10
98.460800000000006
 20
177.315
 30
0.0
 11
98.460800000000006
 21
167.53399999999999
 31
0.0
  0
LINE
  5
426
  8
0
 62
     7
 10
95.794200000000004
 20
176.601
 30
0.0
 11
95.794200000000004
 21
167.53399999999999
 31
0.0
  0
ARC
  5
427
  8
0
 62
     7
 10
137.524046
 20
207.46448100000001
 30
0.0
 40
79.706125
 50
267.07664699999998
 51
267.241536
  0
ARC
  5
428
  8
0
 62
     7
 10
136.94291799999999
 20
200.607011
 30
0.0
 40
72.828306999999995
 50
267.07709499999999
 51
267.25809700000008
  0
ARC
  5
429
  8
0
 62
     7
 10
134.08784499999999
 20
128.51659100000001
 30
0.0
 40
1.345523
 50
188.24101999999991
 51
190.08371199999999
  0
ARC
  5
42A
  8
0
 62
     7
 10
133.31309400000001
 20
128.390783
 30
0.0
 40
0.5608360000000001
 50
191.28765999999999
 51
195.66802200000001
  0
ARC
  5
42B
  8
0
 62
     7
 10
133.852452
 20
128.57728800000001
 30
0.0
 40
1.1310299999999991
 50
197.38631699999999
 51
199.48361600000001
  0
ARC
  5
42C
  8
0
 62
     7
 10
133.44817699999999
 20
128.460757
 30
0.0
 40
0.711475
 50
201.49584200000001
 51
205.336254
  0
ARC
  5
42D
  8
0
 62
     7
 10
133.24732
 20
128.369439
 30
0.0
 40
0.490873
 50
205.735254
 51
216.557931
  0
ARC
  5
42E
  8
0
 62
     7
 10
133.251532
 20
128.36852500000001
 30
0.0
 40
0.493723
 50
216.18158700000001
 51
226.76141100000001
  0
ARC
  5
42F
  8
0
 62
     7
 10
133.24592100000001
 20
128.357876
 30
0.0
 40
0.482133
 50
226.38027700000001
 51
237.18315799999999
  0
ARC
  5
430
  8
0
 62
     7
 10
133.24995899999999
 20
128.361762
 30
0.0
 40
0.4875880000000001
 50
237.031858
 51
247.69459599999999
  0
ARC
  5
431
  8
0
 62
     7
 10
133.247254
 20
128.33956800000001
 30
0.0
 40
0.466066
 50
246.9667649999999
 51
257.34772800000002
  0
ARC
  5
432
  8
0
 62
     7
 10
133.272198
 20
128.50760299999999
 30
0.0
 40
0.6356060000000001
 50
258.47161999999997
 51
266.12383299999999
  0
LINE
  5
433
  8
0
 62
     7
 10
142.22200000000001
 20
127.429
 30
0.0
 11
142.24100000000001
 21
127.428
 31
0.0
  0
LINE
  5
434
  8
0
 62
     7
 10
142.24100000000001
 20
127.428
 30
0.0
 11
142.25999999999999
 21
127.42700000000001
 31
0.0
  0
LINE
  5
435
  8
0
 62
     7
 10
142.25999999999999
 20
127.42700000000001
 30
0.0
 11
142.31299999999999
 21
127.425
 31
0.0
  0
LINE
  5
436
  8
0
 62
     7
 10
142.31299999999999
 20
127.425
 30
0.0
 11
142.36799999999999
 21
127.423
 31
0.0
  0
ARC
  5
437
  8
0
 62
     7
 10
146.38957199999999
 20
238.83740900000001
 30
0.0
 40
111.486801
 50
267.93264799999997
 51
268.01272599999999
  0
ARC
  5
438
  8
0
 62
     7
 10
141.64945399999999
 20
104.824009
 30
0.0
 40
22.610551999999998
 50
87.390589000000006
 51
87.784662999999995
  0
ARC
  5
439
  8
0
 62
     7
 10
129.59636699999999
 20
-186.39541
 30
0.0
 40
314.07911000000001
 50
87.575305999999998
 51
87.612732999999992
  0
ARC
  5
43A
  8
0
 62
     7
 10
149.003962
 20
255.48384300000001
 30
0.0
 40
128.227476
 50
267.26431600000001
 51
267.35616399999998
  0
LINE
  5
43B
  8
0
 62
     7
 10
143.089
 20
127.393
 30
0.0
 11
143.29400000000001
 21
127.383
 31
0.0
  0
ARC
  5
43C
  8
0
 62
     7
 10
140.80938800000001
 20
82.099879999999999
 30
0.0
 40
45.350761999999989
 50
86.599802999999994
 51
86.85920200000001
  0
ARC
  5
43D
  8
0
 62
     7
 10
142.84551999999999
 20
114.650096
 30
0.0
 40
12.737493000000001
 50
86.357033999999999
 51
87.058653000000007
  0
ARC
  5
43E
  8
0
 62
     7
 10
142.07444100000001
 20
100.649919
 30
0.0
 40
26.758642999999999
 50
86.280719000000005
 51
86.614050000000006
  0
LINE
  5
43F
  8
0
 62
     7
 10
143.81
 20
127.352
 30
0.0
 11
143.86500000000001
 21
127.349
 31
0.0
  0
LINE
  5
440
  8
0
 62
     7
 10
143.86500000000001
 20
127.349
 30
0.0
 11
143.91800000000001
 21
127.345
 31
0.0
  0
LINE
  5
441
  8
0
 62
     7
 10
143.91800000000001
 20
127.345
 30
0.0
 11
143.93700000000001
 21
127.34399999999999
 31
0.0
  0
LINE
  5
442
  8
0
 62
     7
 10
143.93700000000001
 20
127.34399999999999
 30
0.0
 11
143.95599999999999
 21
127.343
 31
0.0
  0
LINE
  5
443
  8
0
 62
     7
 10
142.22200000000001
 20
127.429
 30
0.0
 11
139.97399999999999
 21
127.54000000000001
 31
0.0
  0
LINE
  5
444
  8
0
 62
     7
 10
139.97399999999999
 20
127.54000000000001
 30
0.0
 11
137.726
 21
127.651
 31
0.0
  0
LINE
  5
445
  8
0
 62
     7
 10
137.726
 20
127.651
 30
0.0
 11
137.06999999999999
 21
127.684
 31
0.0
  0
ARC
  5
446
  8
0
 62
     7
 10
151.736796
 20
431.92281600000001
 30
0.0
 40
304.59253899999999
 50
267.11619999999999
 51
267.23993200000001
  0
ARC
  5
447
  8
0
 62
     7
 10
206.23434
 20
1313.9939999999999
 30
0.0
 40
1188.2793200000001
 50
267.13332000000003
 51
267.179191
  0
LINE
  5
448
  8
0
 62
     7
 10
146.80600000000001
 20
127.202
 30
0.0
 11
145.85599999999999
 21
127.249
 31
0.0
  0
LINE
  5
449
  8
0
 62
     7
 10
145.85599999999999
 20
127.249
 30
0.0
 11
144.90600000000001
 21
127.29600000000001
 31
0.0
  0
LINE
  5
44A
  8
0
 62
     7
 10
144.90600000000001
 20
127.29600000000001
 30
0.0
 11
143.95599999999999
 21
127.343
 31
0.0
  0
ARC
  5
44B
  8
0
 62
     7
 10
136.07925599999999
 20
131.58533299999999
 30
0.0
 40
1.436998999999999
 50
39.482489999999999
 51
125.28887
  0
ARC
  5
44C
  8
0
 62
     7
 10
136.047132
 20
131.65684300000001
 30
0.0
 40
1.4183410000000001
 50
330.48230000000012
 51
36.426312000000003
  0
ARC
  5
44D
  8
0
 62
     7
 10
133.268395
 20
128.38800800000001
 30
0.0
 40
0.516045
 50
187.61835899999991
 51
265.64746200000002
  0
ARC
  5
44E
  8
0
 62
     7
 10
165.90572700000001
 20
131.65938600000001
 30
0.0
 40
33.316806999999997
 50
174.70544899999999
 51
185.73236900000001
  0
ARC
  5
44F
  8
0
 62
     7
 10
136.111717
 20
131.648113
 30
0.0
 40
1.4059099999999991
 50
127.84759099999999
 51
179.993728
  0
LINE
  5
450
  8
0
 62
     7
 10
132.73099999999999
 20
134.73400000000001
 30
0.0
 11
132.733
 21
134.75399999999999
 31
0.0
  0
ARC
  5
451
  8
0
 62
     7
 10
133.24603999999999
 20
134.69362899999999
 30
0.0
 40
0.5163979999999999
 50
92.171368000000001
 51
172.70418000000001
  0
LINE
  5
452
  8
0
 62
     7
 10
133.226
 20
135.21000000000001
 30
0.0
 11
147.756
 21
135.33600000000001
 31
0.0
  0
LINE
  5
453
  8
0
 62
     7
 10
147.756
 20
127.155
 30
0.0
 11
147.756
 21
135.33600000000001
 31
0.0
  0
ARC
  5
454
  8
0
 62
     7
 10
124.620332
 20
89.054688999999996
 30
0.0
 40
1.385205999999999
 50
257.10488500000002
 51
342.88351899999998
  0
ARC
  5
455
  8
0
 62
     7
 10
124.717962
 20
89.027737000000002
 30
0.0
 40
1.384423999999999
 50
167.07478399999999
 51
252.91359900000009
  0
ARC
  5
456
  8
0
 62
     7
 10
136.08913699999999
 20
131.659155
 30
0.0
 40
1.3333509999999991
 50
75.000464000000008
 51
164.99696599999999
  0
ARC
  5
457
  8
0
 62
     7
 10
136.02653599999999
 20
131.623222
 30
0.0
 40
1.385205999999999
 50
347.10487499999999
 51
72.883509000000004
  0
LINE
  5
458
  8
0
 62
     7
 10
136.601
 20
128.416
 30
0.0
 11
126.76600000000001
 21
91.711100000000002
 31
0.0
  0
LINE
  5
459
  8
0
 62
     7
 10
137.37700000000001
 20
131.31399999999999
 30
0.0
 11
136.601
 21
128.416
 31
0.0
  0
LINE
  5
45A
  8
0
 62
     7
 10
134.024
 20
129.10599999999999
 30
0.0
 11
124.19
 21
92.400800000000004
 31
0.0
  0
LINE
  5
45B
  8
0
 62
     7
 10
134.80099999999999
 20
132.00399999999999
 30
0.0
 11
134.024
 21
129.10599999999999
 31
0.0
  0
LINE
  5
45C
  8
0
 62
     7
 10
124.19
 20
92.400800000000004
 30
0.0
 11
123.369
 21
89.337400000000002
 31
0.0
  0
LINE
  5
45D
  8
0
 62
     7
 10
126.76600000000001
 20
91.711100000000002
 30
0.0
 11
125.944
 21
88.647000000000006
 31
0.0
  0
LINE
  5
45E
  8
0
 62
     7
 10
137.30099999999999
 20
132.32599999999999
 30
0.0
 11
137.24299999999999
 21
132.32599999999999
 31
0.0
  0
LINE
  5
45F
  8
0
 62
     7
 10
137.322
 20
131.10900000000001
 30
0.0
 11
137.291
 21
131.10900000000001
 31
0.0
  0
LINE
  5
460
  8
0
 62
     7
 10
137.304
 20
132.209
 30
0.0
 11
137.24299999999999
 21
132.209
 31
0.0
  0
TEXT
  5
461
  8
_________2
 62
     7
 10
23.357900000000001
 20
41.843000000000004
 30
0.0
 40
4.2168199999999993
  1
・壁取付部には厚さ30mm以上の補強木を入れてください。
 41
0.5
  0
LINE
  5
462
  8
_________2
 62
     7
 10
205.30099999999999
 20
127.411
 30
0.0
 11
183.55000000000001
 21
127.411
 31
0.0
  0
LINE
  5
463
  8
_________2
 62
     7
 10
100.3
 20
-4.0910799999999998
 30
0.0
 11
100.3
 21
-21.071400000000001
 31
0.0
  0
LINE
  5
464
  8
_________2
 62
     7
 10
100.3
 20
275.93099999999998
 30
0.0
 11
100.3
 21
258.911
 31
0.0
  0
LINE
  5
465
  8
_________2
 62
     7
 10
17.049499999999998
 20
127.411
 30
0.0
 11
-4.70052
 21
127.411
 31
0.0
  0
LINE
  5
466
  8
_________2
 62
     7
 10
76.741
 20
29.8047
 30
0.0
 11
74.554699999999997
 21
29.8047
 31
0.0
  0
LINE
  5
467
  8
_________2
 62
     7
 10
77.233699999999999
 20
29.8047
 30
0.0
 11
76.981499999999997
 21
29.8047
 31
0.0
  0
LINE
  5
468
  8
_________2
 62
     7
 10
77.726299999999995
 20
29.8047
 30
0.0
 11
80.651200000000003
 21
29.8047
 31
0.0
  0
LINE
  5
469
  8
_________2
 62
     7
 10
77.233699999999999
 20
29.8047
 30
0.0
 11
77.485500000000002
 21
29.8047
 31
0.0
  0
LINE
  5
46A
  8
_________2
 62
     7
 10
70.837100000000007
 20
29.8047
 30
0.0
 11
68.650499999999994
 21
29.8047
 31
0.0
  0
LINE
  5
46B
  8
_________2
 62
     7
 10
71.329400000000007
 20
29.8047
 30
0.0
 11
71.077600000000004
 21
29.8047
 31
0.0
  0
LINE
  5
46C
  8
_________2
 62
     7
 10
71.329400000000007
 20
30.2974
 30
0.0
 11
71.329400000000007
 21
32.484400000000001
 31
0.0
  0
LINE
  5
46D
  8
_________2
 62
     7
 10
71.329400000000007
 20
29.8047
 30
0.0
 11
71.329400000000007
 21
30.056899999999999
 31
0.0
  0
LINE
  5
46E
  8
_________2
 62
     7
 10
71.822100000000006
 20
29.8047
 30
0.0
 11
74.009
 21
29.8047
 31
0.0
  0
LINE
  5
46F
  8
_________2
 62
     7
 10
71.329400000000007
 20
29.8047
 30
0.0
 11
71.581599999999995
 21
29.8047
 31
0.0
  0
LINE
  5
470
  8
_________2
 62
     7
 10
71.329400000000007
 20
29.312799999999999
 30
0.0
 11
71.329400000000007
 21
27.125800000000002
 31
0.0
  0
LINE
  5
471
  8
_________2
 62
     7
 10
71.329400000000007
 20
29.8047
 30
0.0
 11
71.329400000000007
 21
29.5532
 31
0.0
  0
LINE
  5
472
  8
_________2
 62
     7
 10
75.040499999999994
 20
28.5852
 30
0.0
 11
80.218500000000006
 21
27.720400000000001
 31
0.0
  0
LINE
  5
473
  8
_________2
 62
     7
 10
75.040499999999994
 20
31.0243
 30
0.0
 11
80.218500000000006
 21
31.889700000000001
 31
0.0
  0
LINE
  5
474
  8
_________2
 62
     7
 10
80.218500000000006
 20
27.720400000000001
 30
0.0
 11
80.218500000000006
 21
31.889700000000001
 31
0.0
  0
LINE
  5
475
  8
_________2
 62
     7
 10
75.040499999999994
 20
28.5852
 30
0.0
 11
75.040499999999994
 21
31.0243
 31
0.0
  0
ARC
  5
476
  8
_________2
 62
     7
 10
71.28285600000001
 20
29.757811
 30
0.0
 40
1.2673589999999999
 50
2.122214
 51
87.893958999999995
  0
ARC
  5
477
  8
_________2
 62
     7
 10
71.375959999999992
 20
29.758213000000001
 30
0.0
 40
1.2669559999999991
 50
92.104701000000006
 51
177.89526900000001
  0
ARC
  5
478
  8
_________2
 62
     7
 10
71.376357999999996
 20
29.851671
 30
0.0
 40
1.2673680000000001
 50
182.12203600000001
 51
267.877993
  0
ARC
  5
479
  8
_________2
 62
     7
 10
71.282531999999989
 20
29.851998999999999
 30
0.0
 40
1.267695999999999
 50
272.12015300000002
 51
357.863674
  0
ARC
  5
47A
  8
_________2
 62
     7
 10
71.329430000000002
 20
29.804742999999998
 30
0.0
 40
2.0849849999999992
 50
0.00001
 51
89.999980000000008
  0
ARC
  5
47B
  8
_________2
 62
     7
 10
71.329603000000006
 20
29.804915000000001
 30
0.0
 40
2.084813
 50
90.004733999999999
 51
180.00474399999999
  0
ARC
  5
47C
  8
_________2
 62
     7
 10
71.409106000000008
 20
29.884775999999999
 30
0.0
 40
2.1657950000000001
 50
182.11776599999999
 51
267.89173399999999
  0
ARC
  5
47D
  8
_________2
 62
     7
 10
71.249459000000002
 20
29.885429999999999
 30
0.0
 40
2.1664590000000001
 50
272.11546800000002
 51
357.86560400000002
  0
TEXT
  5
47E
  8
_________2
 62
     7
 10
104.605
 20
1.6794899999999999
 30
0.0
 40
3.0923400000000001
  1
図番
 41
0.5
  0
LINE
  5
47F
  8
_________2
 62
     7
 10
103.55
 20
5.9087199999999989
 30
0.0
 11
183.55099999999999
 21
5.9087199999999989
 31
0.0
  0
TEXT
  5
480
  8
_________2
 62
     7
 10
104.605
 20
11.6793
 30
0.0
 40
3.0923400000000001
  1
品番
 41
0.5
  0
TEXT
  5
481
  8
_________2
 62
     7
 10
104.605
 20
31.818100000000001
 30
0.0
 40
3.0923400000000001
  1
名称
 41
0.5
  0
TEXT
  5
482
  8
_________2
 62
     7
 10
91.845058333333341
 20
26.821999999999999
 30
0.0
 40
3.6545800000000002
  1
mm
 41
0.5
 72
     1
 11
93.367800000000003
 21
26.821999999999999
 31
0.0
  0
TEXT
  5
483
  8
_________2
 62
     7
 10
85.643199999999993
 20
31.818100000000001
 30
0.0
 40
3.0923400000000001
  1
単位
 41
0.5
  0
TEXT
  5
484
  8
_________2
 62
     7
 10
85.643199999999993
 20
19.410799999999998
 30
0.0
 40
3.0923400000000001
  1
尺度
 41
0.5
  0
TEXT
  5
485
  8
_________2
 62
     7
 10
90.548758666666686
 20
13.2179
 30
0.0
 40
3.6545800000000002
  1
1 ： 3
 41
0.5
 72
     1
 11
93.959699999999998
 21
13.2179
 31
0.0
  0
TEXT
  5
486
  8
_________2
 62
     7
 10
138.13841249999999
 20
9.1078600000000005
 30
0.0
 40
3.9357000000000002
  1
EC0255
 41
0.5
 72
     1
 11
143.55000000000001
 21
9.1078600000000005
 31
0.0
  0
TEXT
  5
487
  8
_________2
 62
     7
 10
138.13841249999999
 20
-0.8926299999999999
 30
0.0
 40
3.9357000000000002
  1
EC0255
 41
0.5
 72
     1
 11
143.55000000000001
 21
-0.8926299999999999
 31
0.0
  0
TEXT
  5
488
  8
_________2
 62
     7
 10
109.179
 20
24.2257
 30
0.0
 40
3.9357000000000002
  1
トレンド　タオルリング
 41
0.5
  0
TEXT
  5
489
  8
_________2
 62
     7
 10
39.425300333333333
 20
13.603
 30
0.0
 40
3.6545800000000002
  1
早川
 41
0.5
 72
     1
 11
41.313499999999998
 21
13.603
 31
0.0
  0
TEXT
  5
48A
  8
_________2
 62
     7
 10
20.790090666666671
 20
13.603
 30
0.0
 40
3.6545800000000002
  1
菅原
 41
0.5
 72
     1
 11
22.7392
 21
13.603
 31
0.0
  0
TEXT
  5
48B
  8
_________2
 62
     7
 10
67.785399999999996
 20
13.2179
 30
0.0
 40
3.6545800000000002
  1
15.12.24
 41
0.5
  0
TEXT
  5
48C
  8
_________2
 62
     7
 10
66.593100000000007
 20
19.410799999999998
 30
0.0
 40
3.0923400000000001
  1
日付
 41
0.5
  0
TEXT
  5
48D
  8
_________2
 62
     7
 10
29.639399999999998
 20
19.410799999999998
 30
0.0
 40
3.0923400000000001
  1
検図
 41
0.5
  0
TEXT
  5
48E
  8
_________2
 62
     7
 10
18.021100000000001
 20
5.21143
 30
0.0
 40
3.0923400000000001
  1
備考
 41
0.5
  0
TEXT
  5
48F
  8
_________2
 62
     7
 10
18.021100000000001
 20
19.410799999999998
 30
0.0
 40
3.0923400000000001
  1
製図
 41
0.5
  0
TEXT
  5
490
  8
_________2
 62
     7
 10
23.788465333333338
 20
27.936800000000002
 30
0.0
 40
4.4979399999999989
  1
セラトレーディング株式会社
 41
0.5
 72
     1
 11
41.180500000000002
 21
27.936800000000002
 31
0.0
  0
LINE
  5
491
  8
_________2
 62
     7
 10
183.55099999999999
 20
-4.0910799999999998
 30
0.0
 11
17.049499999999998
 21
-4.0910799999999998
 31
0.0
  0
LINE
  5
492
  8
_________2
 62
     7
 10
17.049499999999998
 20
-4.0910799999999998
 30
0.0
 11
17.049499999999998
 21
258.911
 31
0.0
  0
LINE
  5
493
  8
_________2
 62
     7
 10
17.049499999999998
 20
258.911
 30
0.0
 11
183.55099999999999
 21
258.911
 31
0.0
  0
LINE
  5
494
  8
_________2
 62
     7
 10
183.55099999999999
 20
258.911
 30
0.0
 11
183.55099999999999
 21
-4.0910799999999998
 31
0.0
  0
LINE
  5
495
  8
_________2
 62
     7
 10
65.549599999999998
 20
9.4089600000000004
 30
0.0
 11
65.549599999999998
 21
35.908799999999999
 31
0.0
  0
LINE
  5
496
  8
_________2
 62
     7
 10
84.549700000000016
 20
9.4089600000000004
 30
0.0
 11
84.549700000000016
 21
35.908799999999999
 31
0.0
  0
LINE
  5
497
  8
_________2
 62
     7
 10
103.55
 20
-4.0910799999999998
 30
0.0
 11
103.55
 21
35.908799999999999
 31
0.0
  0
LINE
  5
498
  8
_________2
 62
     7
 10
28.549299999999999
 20
9.4089600000000004
 30
0.0
 11
28.549299999999999
 21
23.409199999999998
 31
0.0
  0
LINE
  5
499
  8
_________2
 62
     7
 10
17.049499999999998
 20
9.4089600000000004
 30
0.0
 11
103.55
 21
9.4089600000000004
 31
0.0
  0
LINE
  5
49A
  8
_________2
 62
     7
 10
17.049499999999998
 20
23.409199999999998
 30
0.0
 11
103.55
 21
23.409199999999998
 31
0.0
  0
LINE
  5
49B
  8
_________2
 62
     7
 10
103.55
 20
15.9085
 30
0.0
 11
183.55099999999999
 21
15.9085
 31
0.0
  0
LINE
  5
49C
  8
_________2
 62
     7
 10
17.049499999999998
 20
35.908799999999999
 30
0.0
 11
183.55099999999999
 21
35.908799999999999
 31
0.0
  0
ENDSEC
  0
EOF
