  0
SECTION
  2
HEADER
  9
$ACADVER
  1
AC1009
  9
$INSBASE
 10
0.0
 20
0.0
 30
0.0
  9
$EXTMIN
 10
-4.7001699999999991
 20
-21.070699999999999
 30
0.0
  9
$EXTMAX
 10
205.30099999999999
 20
275.93099999999998
 30
0.0
  9
$LIMMIN
 10
0.0
 20
0.0
  9
$LIMMAX
 10
12.0
 20
9.0
  9
$ORTHOMODE
 70
     0
  9
$REGENMODE
 70
     1
  9
$FILLMODE
 70
     1
  9
$QTEXTMODE
 70
     0
  9
$MIRRTEXT
 70
     1
  9
$DRAGMODE
 70
     2
  9
$LTSCALE
 40
1.0
  9
$OSMODE
 70
    37
  9
$ATTMODE
 70
     1
  9
$TEXTSIZE
 40
0.0
  9
$TRACEWID
 40
0.05
  9
$TEXTSTYLE
  7
STANDARD
  9
$CLAYER
  8
0
  9
$CELTYPE
  6
CONTINUOUS
  9
$CECOLOR
 62
   256
  9
$DIMSCALE
 40
1.0
  9
$DIMASZ
 40
0.18
  9
$DIMEXO
 40
0.0625
  9
$DIMDLI
 40
0.38
  9
$DIMRND
 40
0.0
  9
$DIMDLE
 40
0.0
  9
$DIMEXE
 40
0.18
  9
$DIMTP
 40
0.0
  9
$DIMTM
 40
0.0
  9
$DIMTXT
 40
0.18
  9
$DIMCEN
 40
0.09
  9
$DIMTSZ
 40
0.0
  9
$DIMTOL
 70
     0
  9
$DIMLIM
 70
     0
  9
$DIMTIH
 70
     1
  9
$DIMTOH
 70
     1
  9
$DIMSE1
 70
     0
  9
$DIMSE2
 70
     0
  9
$DIMTAD
 70
     0
  9
$DIMZIN
 70
     0
  9
$DIMBLK
  1

  9
$DIMASO
 70
     1
  9
$DIMSHO
 70
     1
  9
$DIMPOST
  1

  9
$DIMAPOST
  1

  9
$DIMALT
 70
     0
  9
$DIMALTD
 70
     2
  9
$DIMALTF
 40
25.399999999999999
  9
$DIMLFAC
 40
1.0
  9
$DIMTOFL
 70
     0
  9
$DIMTVP
 40
0.0
  9
$DIMTIX
 70
     0
  9
$DIMSOXD
 70
     0
  9
$DIMSAH
 70
     0
  9
$DIMBLK1
  1

  9
$DIMBLK2
  1

  9
$DIMSTYLE
  2
STANDARD
  9
$DIMCLRD
 70
     0
  9
$DIMCLRE
 70
     0
  9
$DIMCLRT
 70
     0
  9
$DIMTFAC
 40
1.0
  9
$DIMGAP
 40
0.09
  9
$LUNITS
 70
     2
  9
$LUPREC
 70
     4
  9
$SKETCHINC
 40
0.1
  9
$FILLETRAD
 40
0.0
  9
$AUNITS
 70
     0
  9
$AUPREC
 70
     0
  9
$MENU
  1
.
  9
$ELEVATION
 40
0.0
  9
$PELEVATION
 40
0.0
  9
$THICKNESS
 40
0.0
  9
$LIMCHECK
 70
     0
  9
$BLIPMODE
 70
     0
  9
$CHAMFERA
 40
0.0
  9
$CHAMFERB
 40
0.0
  9
$SKPOLY
 70
     0
  9
$TDCREATE
 40
2444972.375
  9
$TDUPDATE
 40
2457436.2555169682
  9
$TDINDWG
 40
0.0000278125
  9
$TDUSRTIMER
 40
0.0000278125
  9
$USRTIMER
 70
     1
  9
$ANGBASE
 50
0.0
  9
$ANGDIR
 70
     0
  9
$PDMODE
 70
     0
  9
$PDSIZE
 40
0.0
  9
$PLINEWID
 40
0.0
  9
$COORDS
 70
     1
  9
$SPLFRAME
 70
     0
  9
$SPLINETYPE
 70
     6
  9
$SPLINESEGS
 70
     8
  9
$ATTDIA
 70
     1
  9
$ATTREQ
 70
     1
  9
$HANDLING
 70
     1
  9
$HANDSEED
  5
645
  9
$SURFTAB1
 70
     6
  9
$SURFTAB2
 70
     6
  9
$SURFTYPE
 70
     6
  9
$SURFU
 70
     6
  9
$SURFV
 70
     6
  9
$UCSNAME
  2

  9
$UCSORG
 10
0.0
 20
0.0
 30
0.0
  9
$UCSXDIR
 10
1.0
 20
0.0
 30
0.0
  9
$UCSYDIR
 10
0.0
 20
1.0
 30
0.0
  9
$PUCSNAME
  2

  9
$PUCSORG
 10
0.0
 20
0.0
 30
0.0
  9
$PUCSXDIR
 10
1.0
 20
0.0
 30
0.0
  9
$PUCSYDIR
 10
0.0
 20
1.0
 30
0.0
  9
$USERI1
 70
     0
  9
$USERI2
 70
     0
  9
$USERI3
 70
     0
  9
$USERI4
 70
     0
  9
$USERI5
 70
     0
  9
$USERR1
 40
0.0
  9
$USERR2
 40
0.0
  9
$USERR3
 40
0.0
  9
$USERR4
 40
0.0
  9
$USERR5
 40
0.0
  9
$WORLDVIEW
 70
     1
  9
$SHADEDGE
 70
     3
  9
$SHADEDIF
 70
    70
  9
$TILEMODE
 70
     1
  9
$MAXACTVP
 70
    48
  9
$PLIMCHECK
 70
     0
  9
$PEXTMIN
 10
1.0000000000000000E+020
 20
1.0000000000000000E+020
 30
1.0000000000000000E+020
  9
$PEXTMAX
 10
-1.0000000000000000E+020
 20
-1.0000000000000000E+020
 30
-1.0000000000000000E+020
  9
$PLIMMIN
 10
0.0
 20
0.0
  9
$PLIMMAX
 10
12.0
 20
9.0
  9
$UNITMODE
 70
     0
  9
$VISRETAIN
 70
     1
  9
$PLINEGEN
 70
     0
  9
$PSLTSCALE
 70
     1
  0
ENDSEC
  0
SECTION
  2
TABLES
  0
TABLE
  2
VPORT
 70
     1
  0
VPORT
  2
*ACTIVE
 70
     0
 10
0.0
 20
0.0
 11
1.0
 21
1.0
 12
165.72807771434481
 22
127.4301499999999
 13
0.0
 23
0.0
 14
1.0
 24
1.0
 15
0.0
 25
0.0
 16
0.0
 26
0.0
 36
1.0
 17
0.0
 27
0.0
 37
0.0
 40
283.52814927642243
 41
2.1001926782273599
 42
50.0
 43
0.0
 44
0.0
 50
0.0
 51
0.0
 71
     0
 72
   100
 73
     1
 74
     1
 75
     0
 76
     0
 77
     0
 78
     0
  0
ENDTAB
  0
TABLE
  2
LTYPE
 70
     3
  0
LTYPE
  2
CONTINUOUS
 70
     0
  3
Solid line
 72
    65
 73
     0
 40
0.0
  0
LTYPE
  2
AIGENLINE001
 70
     0
  3
generate AI->DXF Converter
 72
    65
 73
     4
 40
5.8561449999999988
 49
3.5278
 49
-0.776115
 49
0.776115
 49
-0.776115
  0
LTYPE
  2
AIGENLINE002
 70
     0
  3
generate AI->DXF Converter
 72
    65
 73
     2
 40
1.5522299999999991
 49
0.776115
 49
-0.776115
  0
ENDTAB
  0
TABLE
  2
LAYER
 70
     2
  0
LAYER
  2
0
 70
     0
 62
     7
  6
CONTINUOUS
  0
LAYER
  2
_________2
 70
     0
 62
     7
  6
CONTINUOUS
  0
ENDTAB
  0
TABLE
  2
STYLE
 70
     1
  0
STYLE
  2
STANDARD
 70
     0
 40
0.0
 41
0.0
 50
0.0
 71
     0
 42
0.0
  3
TXT
  4
EXTFONT.SHX
  0
ENDTAB
  0
TABLE
  2
VIEW
 70
     0
  0
ENDTAB
  0
TABLE
  2
UCS
 70
     0
  0
ENDTAB
  0
TABLE
  2
APPID
 70
     3
  0
APPID
  2
ACAD
 70
     0
  0
APPID
  2
ACAD_NAV_VCDISPLAY
 70
     0
  0
APPID
  2
ACAD_MLEADERVER
 70
     0
  0
ENDTAB
  0
TABLE
  2
DIMSTYLE
 70
     1
  0
DIMSTYLE
  2
STANDARD
 70
     0
  3

  4

  5

  6

  7

 40
1.0
 41
0.18
 42
0.0625
 43
0.38
 44
0.18
 45
0.0
 46
0.0
 47
0.0
 48
0.0
140
0.18
141
0.09
142
0.0
143
25.399999999999999
144
1.0
145
0.0
146
1.0
147
0.09
 71
     0
 72
     0
 73
     1
 74
     1
 75
     0
 76
     0
 77
     0
 78
     0
170
     0
171
     2
172
     0
173
     0
174
     0
175
     0
176
     0
177
     0
178
     0
  0
ENDTAB
  0
ENDSEC
  0
SECTION
  2
BLOCKS
  0
BLOCK
  8
0
  2
$MODEL_SPACE
 70
     0
 10
0.0
 20
0.0
 30
0.0
  3
$MODEL_SPACE
  1

  0
ENDBLK
  5
1A
  8
0
  0
BLOCK
 67
     1
  8
0
  2
$PAPER_SPACE
 70
     0
 10
0.0
 20
0.0
 30
0.0
  3
$PAPER_SPACE
  1

  0
ENDBLK
  5
17
 67
     1
  8
0
  0
ENDSEC
  0
SECTION
  2
ENTITIES
  0
TEXT
  5
23
  8
0
 62
     7
 10
153.055691
 20
175.096
 30
0.0
 40
3.0923400000000001
  1
（%%c6\U+00D730 樹脂プラグ付）
 41
0.5
 72
     2
 11
175.26900000000001
 21
175.096
 31
0.0
  0
TEXT
  5
24
  8
0
 62
     7
 10
143.67559299999999
 20
180.92500000000001
 30
0.0
 40
3.0923400000000001
  1
%%c3.8\U+00D750 十字穴付SUS丸頭木ネジ
 41
0.5
 72
     2
 11
175.26900000000001
 21
180.92500000000001
 31
0.0
  0
TEXT
  5
25
  8
0
 62
     7
 10
103.64400000000001
 20
160.02726999999999
 30
0.0
 40
3.0923400000000001
  1
%%c18
 50
90.0
 41
0.5
 72
     2
 11
103.64400000000001
 21
163.63499999999999
 31
0.0
  0
TEXT
  5
26
  8
0
 62
     7
 10
78.318740000000005
 20
202.541
 30
0.0
 40
3.0923400000000001
  1
646
 41
0.5
 72
     1
 11
80.380300000000005
 21
202.541
 31
0.0
  0
TEXT
  5
27
  8
0
 62
     7
 10
129.17252500000001
 20
182.07400000000001
 30
0.0
 40
3.0923400000000001
  1
24
 41
0.5
 72
     1
 11
130.46100000000001
 21
182.07400000000001
 31
0.0
  0
TEXT
  5
28
  8
0
 62
     7
 10
29.225224999999998
 20
182.07400000000001
 30
0.0
 40
3.0923400000000001
  1
24
 41
0.5
 72
     1
 11
30.5137
 21
182.07400000000001
 31
0.0
  0
TEXT
  5
29
  8
0
 62
     7
 10
169.77099999999999
 20
104.20413499999999
 30
0.0
 40
3.0923400000000001
  1
10
 50
90.0
 41
0.5
 72
     2
 11
169.77099999999999
 21
106.008
 31
0.0
  0
TEXT
  5
2A
  8
0
 62
     7
 10
175.54400000000001
 20
97.589825000000005
 30
0.0
 40
3.0923400000000001
  1
26
 50
90.0
 41
0.5
 72
     1
 11
175.54400000000001
 21
98.87830000000001
 31
0.0
  0
TEXT
  5
2B
  8
0
 62
     7
 10
145.05099999999999
 20
157.55137250000001
 30
0.0
 40
3.0923400000000001
  1
70
 50
90.0
 41
0.5
 72
     1
 11
145.05099999999999
 21
158.71100000000001
 31
0.0
  0
TEXT
  5
2C
  8
0
 62
     7
 10
129.09252499999999
 20
191.31800000000001
 30
0.0
 40
3.0923400000000001
  1
46
 41
0.5
 72
     1
 11
130.381
 21
191.31800000000001
 31
0.0
  0
TEXT
  5
2D
  8
0
 62
     7
 10
29.091625000000001
 20
191.31800000000001
 30
0.0
 40
3.0923400000000001
  1
46
 41
0.5
 72
     1
 11
30.380099999999999
 21
191.31800000000001
 31
0.0
  0
TEXT
  5
2E
  8
0
 62
     7
 10
78.318740000000005
 20
191.31800000000001
 30
0.0
 40
3.0923400000000001
  1
554
 41
0.5
 72
     1
 11
80.380300000000005
 21
191.31800000000001
 31
0.0
  0
LINE
  5
2F
  8
0
 62
     7
 10
157.202
 20
99.062600000000003
 30
0.0
 11
164.15799999999999
 21
99.062600000000003
 31
0.0
  0
LINE
  5
30
  8
0
 62
     7
 10
157.202
 20
99.695499999999996
 30
0.0
 11
164.15799999999999
 21
99.695499999999996
 31
0.0
  0
LINE
  5
31
  8
0
 62
     7
 10
164.2759999999999
 20
99.860900000000001
 30
0.0
 11
164.577
 21
98.897300000000001
 31
0.0
  0
LINE
  5
32
  8
0
 62
     7
 10
163.749
 20
99.860900000000001
 30
0.0
 11
164.05099999999999
 21
98.897300000000001
 31
0.0
  0
LINE
  5
33
  8
0
 62
     7
 10
163.22300000000001
 20
99.860900000000001
 30
0.0
 11
163.52500000000001
 21
98.897300000000001
 31
0.0
  0
LINE
  5
34
  8
0
 62
     7
 10
162.696
 20
99.860900000000001
 30
0.0
 11
162.999
 21
98.897300000000001
 31
0.0
  0
LINE
  5
35
  8
0
 62
     7
 10
162.17099999999999
 20
99.860900000000001
 30
0.0
 11
162.47200000000001
 21
98.897300000000001
 31
0.0
  0
LINE
  5
36
  8
0
 62
     7
 10
161.64400000000001
 20
99.860900000000001
 30
0.0
 11
161.946
 21
98.897300000000001
 31
0.0
  0
LINE
  5
37
  8
0
 62
     7
 10
161.11799999999999
 20
99.860900000000001
 30
0.0
 11
161.41999999999999
 21
98.897300000000001
 31
0.0
  0
LINE
  5
38
  8
0
 62
     7
 10
160.59200000000001
 20
99.860900000000001
 30
0.0
 11
160.893
 21
98.897300000000001
 31
0.0
  0
LINE
  5
39
  8
0
  6
AIGENLINE001
 62
     7
 10
156.65600000000001
 20
99.378500000000003
 30
0.0
 11
165.69999999999999
 21
99.378500000000003
 31
0.0
  0
LINE
  5
3A
  8
0
 62
     7
 10
164.15799999999999
 20
99.062600000000003
 30
0.0
 11
165.035
 21
99.378500000000003
 31
0.0
  0
LINE
  5
3B
  8
0
 62
     7
 10
164.15799999999999
 20
99.695499999999996
 30
0.0
 11
165.035
 21
99.378500000000003
 31
0.0
  0
LINE
  5
3C
  8
0
 62
     7
 10
159.53899999999999
 20
99.860900000000001
 30
0.0
 11
159.84
 21
98.897300000000001
 31
0.0
  0
LINE
  5
3D
  8
0
 62
     7
 10
160.065
 20
99.860900000000001
 30
0.0
 11
160.36699999999999
 21
98.897300000000001
 31
0.0
  0
LINE
  5
3E
  8
0
 62
     7
 10
159.202
 20
99.695499999999996
 30
0.0
 11
159.202
 21
99.062600000000003
 31
0.0
  0
LINE
  5
3F
  8
0
  6
AIGENLINE001
 62
     7
 10
131.38
 20
99.378500000000003
 30
0.0
 11
133.381
 21
99.378500000000003
 31
0.0
  0
LINE
  5
40
  8
0
  6
AIGENLINE001
 62
     7
 10
132.381
 20
98.378100000000003
 30
0.0
 11
132.381
 21
100.378
 31
0.0
  0
ARC
  5
41
  8
0
  6
AIGENLINE002
 62
     7
 10
132.36855299999999
 20
99.365720999999994
 30
0.0
 40
0.328963
 50
2.0534970000000001
 51
87.884181000000012
  0
ARC
  5
42
  8
0
  6
AIGENLINE002
 62
     7
 10
132.392528
 20
99.365678000000003
 30
0.0
 40
0.328994
 50
92.060716000000014
 51
177.93925400000001
  0
ARC
  5
43
  8
0
  6
AIGENLINE002
 62
     7
 10
132.39149499999999
 20
99.389375999999999
 30
0.0
 40
0.327963
 50
182.07379599999999
 51
268.11337300000002
  0
ARC
  5
44
  8
0
  6
AIGENLINE002
 62
     7
 10
132.368931
 20
99.389989999999997
 30
0.0
 40
0.32861
 50
272.05205100000001
 51
357.82313099999999
  0
LINE
  5
45
  8
0
  6
AIGENLINE001
 62
     7
 10
127.38
 20
99.378500000000003
 30
0.0
 11
129.381
 21
99.378500000000003
 31
0.0
  0
LINE
  5
46
  8
0
  6
AIGENLINE001
 62
     7
 10
128.381
 20
98.378100000000003
 30
0.0
 11
128.381
 21
100.378
 31
0.0
  0
ARC
  5
47
  8
0
  6
AIGENLINE002
 62
     7
 10
128.368438
 20
99.365744999999976
 30
0.0
 40
0.328951
 50
2.0493259999999989
 51
87.825973000000005
  0
ARC
  5
48
  8
0
  6
AIGENLINE002
 62
     7
 10
128.39274700000001
 20
99.365678000000003
 30
0.0
 40
0.328994
 50
92.060716000000014
 51
177.93925400000001
  0
ARC
  5
49
  8
0
  6
AIGENLINE002
 62
     7
 10
128.39171400000001
 20
99.389375999999999
 30
0.0
 40
0.327963
 50
182.07379599999999
 51
268.11337300000002
  0
ARC
  5
4A
  8
0
  6
AIGENLINE002
 62
     7
 10
128.36913200000001
 20
99.389651000000001
 30
0.0
 40
0.3282719999999999
 50
272.05741499999999
 51
357.88014800000002
  0
LINE
  5
4B
  8
0
  6
AIGENLINE001
 62
     7
 10
31.380199999999999
 20
99.378500000000003
 30
0.0
 11
33.380400000000002
 21
99.378500000000003
 31
0.0
  0
LINE
  5
4C
  8
0
  6
AIGENLINE001
 62
     7
 10
32.380699999999997
 20
98.378100000000003
 30
0.0
 11
32.380699999999997
 21
100.378
 31
0.0
  0
ARC
  5
4D
  8
0
  6
AIGENLINE002
 62
     7
 10
32.367787
 20
99.365355000000008
 30
0.0
 40
0.329356
 50
2.114730999999999
 51
87.760567000000009
  0
ARC
  5
4E
  8
0
  6
AIGENLINE002
 62
     7
 10
32.392482999999999
 20
99.365681999999993
 30
0.0
 40
0.328989
 50
92.059945999999982
 51
177.94002399999999
  0
ARC
  5
4F
  8
0
  6
AIGENLINE002
 62
     7
 10
32.391845000000004
 20
99.389768000000004
 30
0.0
 40
0.328368
 50
182.13967299999999
 51
268.04749600000002
  0
ARC
  5
50
  8
0
  6
AIGENLINE002
 62
     7
 10
32.368872000000003
 20
99.389651000000001
 30
0.0
 40
0.3282719999999999
 50
272.05741499999999
 51
357.88014800000002
  0
LINE
  5
51
  8
0
  6
AIGENLINE001
 62
     7
 10
27.380099999999999
 20
99.378500000000003
 30
0.0
 11
29.380600000000001
 21
99.378500000000003
 31
0.0
  0
LINE
  5
52
  8
0
  6
AIGENLINE001
 62
     7
 10
28.380500000000001
 20
98.378100000000003
 30
0.0
 11
28.380500000000001
 21
100.378
 31
0.0
  0
ARC
  5
53
  8
0
  6
AIGENLINE002
 62
     7
 10
28.367996000000002
 20
99.36533
 30
0.0
 40
0.329367
 50
2.1188899999999991
 51
87.818787999999984
  0
ARC
  5
54
  8
0
  6
AIGENLINE002
 62
     7
 10
28.392357000000001
 20
99.365681999999993
 30
0.0
 40
0.328989
 50
92.059945999999982
 51
177.94002399999999
  0
ARC
  5
55
  8
0
  6
AIGENLINE002
 62
     7
 10
28.391718999999998
 20
99.389768000000004
 30
0.0
 40
0.328368
 50
182.13967299999999
 51
268.04749600000002
  0
ARC
  5
56
  8
0
  6
AIGENLINE002
 62
     7
 10
28.36876500000001
 20
99.389989999999997
 30
0.0
 40
0.32861
 50
272.05205100000001
 51
357.82313099999999
  0
LINE
  5
57
  8
0
 62
     7
 10
141.53700000000001
 20
179.584
 30
0.0
 11
175.26900000000001
 21
179.584
 31
0.0
  0
LINE
  5
58
  8
0
 62
     7
 10
134.00800000000001
 20
172.893
 30
0.0
 11
132.863
 21
170.91
 31
0.0
  0
LINE
  5
59
  8
0
 62
     7
 10
132.863
 20
170.91
 30
0.0
 11
134.846
 21
172.05500000000001
 31
0.0
  0
LINE
  5
5A
  8
0
 62
     7
 10
134.846
 20
172.05500000000001
 30
0.0
 11
134.00800000000001
 21
172.893
 31
0.0
  0
LINE
  5
5B
  8
0
 62
     7
 10
132.863
 20
170.91
 30
0.0
 11
141.53700000000001
 21
179.584
 31
0.0
  0
LINE
  5
5C
  8
0
 62
     7
 10
126.715
 20
97.537499999999994
 30
0.0
 11
126.715
 21
97.538499999999985
 31
0.0
  0
LINE
  5
5D
  8
0
 62
     7
 10
126.715
 20
97.538499999999985
 30
0.0
 11
126.715
 21
97.539199999999994
 31
0.0
  0
LINE
  5
5E
  8
0
 62
     7
 10
126.715
 20
97.539199999999994
 30
0.0
 11
126.715
 21
97.540199999999999
 31
0.0
  0
LINE
  5
5F
  8
0
 62
     7
 10
126.715
 20
97.540199999999999
 30
0.0
 11
126.715
 21
97.541300000000007
 31
0.0
  0
LINE
  5
60
  8
0
 62
     7
 10
126.715
 20
97.541300000000007
 30
0.0
 11
126.715
 21
97.541900000000012
 31
0.0
  0
LINE
  5
61
  8
0
 62
     7
 10
126.715
 20
97.541900000000012
 30
0.0
 11
126.715
 21
97.543000000000006
 31
0.0
  0
LINE
  5
62
  8
0
 62
     7
 10
126.715
 20
97.543000000000006
 30
0.0
 11
126.715
 21
97.543999999999997
 31
0.0
  0
LINE
  5
64
  8
0
 62
     7
 10
126.715
 20
97.543999999999997
 30
0.0
 11
126.715
 21
97.545700000000011
 31
0.0
  0
LINE
  5
65
  8
0
 62
     7
 10
126.715
 20
97.545700000000011
 30
0.0
 11
126.715
 21
97.547500000000014
 31
0.0
  0
LINE
  5
66
  8
0
 62
     7
 10
126.715
 20
97.547500000000014
 30
0.0
 11
126.715
 21
97.549499999999995
 31
0.0
  0
LINE
  5
67
  8
0
 62
     7
 10
126.715
 20
97.549499999999995
 30
0.0
 11
126.715
 21
97.551300000000012
 31
0.0
  0
LINE
  5
68
  8
0
 62
     7
 10
126.715
 20
97.551300000000012
 30
0.0
 11
126.715
 21
97.552999999999997
 31
0.0
  0
LINE
  5
69
  8
0
 62
     7
 10
126.715
 20
97.552999999999997
 30
0.0
 11
126.715
 21
97.555000000000007
 31
0.0
  0
LINE
  5
6A
  8
0
 62
     7
 10
126.715
 20
97.555000000000007
 30
0.0
 11
126.715
 21
97.556799999999996
 31
0.0
  0
LINE
  5
6B
  8
0
 62
     7
 10
126.715
 20
97.556799999999996
 30
0.0
 11
126.714
 21
97.558499999999995
 31
0.0
  0
LINE
  5
6C
  8
0
 62
     7
 10
126.703
 20
100.66500000000001
 30
0.0
 11
126.70399999999999
 21
100.667
 31
0.0
  0
LINE
  5
6D
  8
0
 62
     7
 10
126.70399999999999
 20
100.667
 30
0.0
 11
126.70399999999999
 21
100.669
 31
0.0
  0
LINE
  5
6E
  8
0
 62
     7
 10
126.70399999999999
 20
100.669
 30
0.0
 11
126.70399999999999
 21
100.672
 31
0.0
  0
LINE
  5
6F
  8
0
 62
     7
 10
126.70399999999999
 20
100.672
 30
0.0
 11
126.70399999999999
 21
100.675
 31
0.0
  0
LINE
  5
70
  8
0
 62
     7
 10
126.70399999999999
 20
100.675
 30
0.0
 11
126.70399999999999
 21
100.67700000000001
 31
0.0
  0
LINE
  5
71
  8
0
 62
     7
 10
126.70399999999999
 20
100.67700000000001
 30
0.0
 11
126.70399999999999
 21
100.679
 31
0.0
  0
LINE
  5
72
  8
0
 62
     7
 10
126.70399999999999
 20
100.679
 30
0.0
 11
126.70399999999999
 21
100.68000000000001
 31
0.0
  0
LINE
  5
73
  8
0
 62
     7
 10
126.70399999999999
 20
100.68000000000001
 30
0.0
 11
126.70399999999999
 21
100.681
 31
0.0
  0
LINE
  5
74
  8
0
 62
     7
 10
126.70399999999999
 20
100.681
 30
0.0
 11
126.70399999999999
 21
100.682
 31
0.0
  0
LINE
  5
75
  8
0
 62
     7
 10
126.70399999999999
 20
100.682
 30
0.0
 11
126.70399999999999
 21
100.684
 31
0.0
  0
LINE
  5
76
  8
0
 62
     7
 10
126.70399999999999
 20
100.684
 30
0.0
 11
126.70399999999999
 21
100.685
 31
0.0
  0
ARC
  5
77
  8
0
 62
     7
 10
126.890314
 20
100.604117
 30
0.0
 40
0.4164120000000001
 50
92.479323999999991
 51
98.769910999999993
  0
ARC
  5
78
  8
0
 62
     7
 10
126.868729
 20
100.79036499999999
 30
0.0
 40
0.22916
 50
100.53636
 51
111.949375
  0
ARC
  5
79
  8
0
 62
     7
 10
126.91506200000001
 20
100.681983
 30
0.0
 40
0.347014
 50
112.35609699999991
 51
116.099368
  0
ARC
  5
7A
  8
0
 62
     7
 10
126.86248000000001
 20
100.80860699999999
 30
0.0
 40
0.21034
 50
118.41128999999999
 51
124.691453
  0
ARC
  5
7B
  8
0
 62
     7
 10
126.82663700000001
 20
100.83671099999999
 30
0.0
 40
0.167375
 50
120.073335
 51
127.30677299999989
  0
ARC
  5
7C
  8
0
 62
     7
 10
126.894096
 20
100.75272099999999
 30
0.0
 40
0.275081
 50
127.880115
 51
132.972014
  0
ARC
  5
7D
  8
0
 62
     7
 10
126.773544
 20
100.870628
 30
0.0
 40
0.106924
 50
128.76899299999999
 51
139.882903
  0
ARC
  5
7E
  8
0
 62
     7
 10
126.825427
 20
100.80685
 30
0.0
 40
0.188322
 50
135.21012999999999
 51
142.71914899999999
  0
ARC
  5
7F
  8
0
 62
     7
 10
126.10123400000001
 20
101.298883
 30
0.0
 40
0.6875550000000001
 50
324.91632400000009
 51
326.65227900000002
  0
ARC
  5
80
  8
0
 62
     7
 10
134.84426400000001
 20
96.415720999999991
 30
0.0
 40
9.3306360000000002
 50
151.24967899999999
 51
151.40399500000001
  0
ARC
  5
81
  8
0
 62
     7
 10
126.83105500000001
 20
100.787284
 30
0.0
 40
0.202564
 50
152.23538600000001
 51
165.12875399999999
  0
ARC
  5
82
  8
0
 62
     7
 10
126.983665
 20
100.751124
 30
0.0
 40
0.359367
 50
165.80139500000001
 51
172.95925700000001
  0
ARC
  5
83
  8
0
 62
     7
 10
130.605479
 20
-165.74615900000001
 30
0.0
 40
266.69253500000002
 50
90.468591000000004
 51
90.775397999999996
  0
ARC
  5
84
  8
0
 62
     7
 10
130.71183500000001
 20
-196.57125400000001
 30
0.0
 40
297.51750500000003
 50
90.163723000000005
 51
90.440522000000016
  0
ARC
  5
85
  8
0
 62
     7
 10
130.27216999999999
 20
-318.67357299999998
 30
0.0
 40
419.61880999999988
 50
89.861017000000004
 51
90.056045999999995
  0
ARC
  5
86
  8
0
 62
     7
 10
127.87225100000001
 20
-494.12828999999999
 30
0.0
 40
595.08210799999995
 50
89.532533000000001
 51
89.670923000000002
  0
LINE
  5
87
  8
0
 62
     7
 10
133.80699999999999
 20
100.931
 30
0.0
 11
133.80500000000001
 21
100.93000000000001
 31
0.0
  0
LINE
  5
88
  8
0
 62
     7
 10
133.80500000000001
 20
100.93000000000001
 30
0.0
 11
133.80000000000001
 21
100.93000000000001
 31
0.0
  0
LINE
  5
89
  8
0
 62
     7
 10
133.80000000000001
 20
100.93000000000001
 30
0.0
 11
133.79300000000001
 21
100.93000000000001
 31
0.0
  0
ARC
  5
8A
  8
0
 62
     7
 10
133.78644199999999
 20
100.950664
 30
0.0
 40
0.021529
 50
265.966634
 51
288.28341599999999
  0
LINE
  5
8B
  8
0
 62
     7
 10
133.785
 20
100.929
 30
0.0
 11
133.77199999999999
 21
100.929
 31
0.0
  0
LINE
  5
8C
  8
0
 62
     7
 10
133.77199999999999
 20
100.929
 30
0.0
 11
133.75700000000001
 21
100.929
 31
0.0
  0
LINE
  5
8D
  8
0
 62
     7
 10
133.75700000000001
 20
100.929
 30
0.0
 11
133.74100000000001
 21
100.929
 31
0.0
  0
ARC
  5
8E
  8
0
 62
     7
 10
133.72698199999999
 20
101.053888
 30
0.0
 40
0.125466
 50
267.98528800000003
 51
276.33689099999998
  0
LINE
  5
8F
  8
0
 62
     7
 10
133.72300000000001
 20
100.928
 30
0.0
 11
133.696
 21
100.928
 31
0.0
  0
LINE
  5
90
  8
0
 62
     7
 10
133.696
 20
100.928
 30
0.0
 11
133.666
 21
100.928
 31
0.0
  0
LINE
  5
91
  8
0
 62
     7
 10
133.666
 20
100.928
 30
0.0
 11
133.63399999999999
 21
100.928
 31
0.0
  0
LINE
  5
92
  8
0
 62
     7
 10
133.63399999999999
 20
100.928
 30
0.0
 11
133.59999999999999
 21
100.928
 31
0.0
  0
LINE
  5
93
  8
0
 62
     7
 10
133.59999999999999
 20
100.928
 30
0.0
 11
133.56399999999999
 21
100.928
 31
0.0
  0
LINE
  5
94
  8
0
 62
     7
 10
133.56399999999999
 20
100.928
 30
0.0
 11
133.52699999999999
 21
100.928
 31
0.0
  0
LINE
  5
95
  8
0
 62
     7
 10
133.52699999999999
 20
100.928
 30
0.0
 11
133.488
 21
100.928
 31
0.0
  0
LINE
  5
96
  8
0
 62
     7
 10
133.488
 20
100.928
 30
0.0
 11
133.465
 21
100.928
 31
0.0
  0
LINE
  5
97
  8
0
 62
     7
 10
133.465
 20
100.928
 30
0.0
 11
133.44
 21
100.929
 31
0.0
  0
LINE
  5
98
  8
0
 62
     7
 10
133.44
 20
100.929
 30
0.0
 11
133.41300000000001
 21
100.929
 31
0.0
  0
LINE
  5
99
  8
0
 62
     7
 10
133.41300000000001
 20
100.929
 30
0.0
 11
133.38200000000001
 21
100.929
 31
0.0
  0
LINE
  5
9A
  8
0
 62
     7
 10
133.38200000000001
 20
100.929
 30
0.0
 11
133.34899999999999
 21
100.929
 31
0.0
  0
LINE
  5
9B
  8
0
 62
     7
 10
133.34899999999999
 20
100.929
 30
0.0
 11
133.31299999999999
 21
100.929
 31
0.0
  0
ARC
  5
9C
  8
0
 62
     7
 10
133.31156999999999
 20
101.598052
 30
0.0
 40
0.668866
 50
266.81103100000001
 51
270.14744999999999
  0
LINE
  5
9D
  8
0
 62
     7
 10
133.274
 20
100.93000000000001
 30
0.0
 11
133.232
 21
100.93000000000001
 31
0.0
  0
LINE
  5
9E
  8
0
 62
     7
 10
133.232
 20
100.93000000000001
 30
0.0
 11
133.18700000000001
 21
100.93000000000001
 31
0.0
  0
ARC
  5
9F
  8
0
 62
     7
 10
133.185182
 20
101.99365
 30
0.0
 40
1.063429
 50
267.47212400000001
 51
270.090146
  0
LINE
  5
A0
  8
0
 62
     7
 10
133.13800000000001
 20
100.931
 30
0.0
 11
133.12100000000001
 21
100.931
 31
0.0
  0
LINE
  5
A1
  8
0
 62
     7
 10
133.12100000000001
 20
100.931
 30
0.0
 11
133.09999999999999
 21
100.931
 31
0.0
  0
LINE
  5
A2
  8
0
 62
     7
 10
133.09999999999999
 20
100.931
 30
0.0
 11
133.07599999999999
 21
100.931
 31
0.0
  0
LINE
  5
A3
  8
0
 62
     7
 10
133.07599999999999
 20
100.931
 30
0.0
 11
133.04900000000001
 21
100.931
 31
0.0
  0
LINE
  5
A4
  8
0
 62
     7
 10
133.04900000000001
 20
100.931
 30
0.0
 11
133.018
 21
100.932
 31
0.0
  0
LINE
  5
A5
  8
0
 62
     7
 10
133.018
 20
100.932
 30
0.0
 11
132.98500000000001
 21
100.932
 31
0.0
  0
LINE
  5
A6
  8
0
 62
     7
 10
132.98500000000001
 20
100.932
 30
0.0
 11
132.94900000000001
 21
100.932
 31
0.0
  0
ARC
  5
A7
  8
0
 62
     7
 10
132.94742099999999
 20
101.61326800000001
 30
0.0
 40
0.681325
 50
266.840394
 51
270.14475399999998
  0
LINE
  5
A8
  8
0
 62
     7
 10
132.91
 20
100.93300000000001
 30
0.0
 11
132.86799999999999
 21
100.93300000000001
 31
0.0
  0
LINE
  5
A9
  8
0
 62
     7
 10
132.86799999999999
 20
100.93300000000001
 30
0.0
 11
132.82400000000001
 21
100.93300000000001
 31
0.0
  0
ARC
  5
AA
  8
0
 62
     7
 10
132.78806299999999
 20
100.378156
 30
0.0
 40
0.5559680000000001
 50
86.320746999999997
 51
91.151888
  0
LINE
  5
AB
  8
0
 62
     7
 10
132.77699999999999
 20
100.934
 30
0.0
 11
132.727
 21
100.934
 31
0.0
  0
ARC
  5
AC
  8
0
 62
     7
 10
133.973637
 20
100.703819
 30
0.0
 40
0.078633
 50
0.294172
 51
7.5961990000000004
  0
ARC
  5
AD
  8
0
 62
     7
 10
133.89737700000001
 20
100.691007
 30
0.0
 40
0.155939
 50
8.5586070000000003
 51
12.680700999999999
  0
ARC
  5
AE
  8
0
 62
     7
 10
133.87510599999999
 20
100.70363399999999
 30
0.0
 40
0.17574
 50
7.0614309999999989
 51
10.699885
  0
ARC
  5
AF
  8
0
 62
     7
 10
134.146849
 20
100.768213
 30
0.0
 40
0.104084
 50
191.98606099999989
 51
197.87681000000001
  0
ARC
  5
B0
  8
0
 62
     7
 10
133.592049
 20
100.62514400000001
 30
0.0
 40
0.4689840000000001
 50
15.009067999999999
 51
16.408204000000001
  0
ARC
  5
B1
  8
0
 62
     7
 10
133.60568599999999
 20
100.597863
 30
0.0
 40
0.46458
 50
20.113332
 51
21.431173000000001
  0
LINE
  5
B2
  8
0
 62
     7
 10
134.03800000000001
 20
100.768
 30
0.0
 11
134.03399999999999
 21
100.779
 31
0.0
  0
ARC
  5
B3
  8
0
 62
     7
 10
133.95231899999999
 20
100.748017
 30
0.0
 40
0.087241
 50
20.547846
 51
27.743231999999988
  0
ARC
  5
B4
  8
0
 62
     7
 10
134.10030499999999
 20
100.82746
 30
0.0
 40
0.080727
 50
204.377523
 51
208.752613
  0
ARC
  5
B5
  8
0
 62
     7
 10
134.09754899999999
 20
100.832972
 30
0.0
 40
0.080727
 50
204.377523
 51
208.752613
  0
ARC
  5
B6
  8
0
 62
     7
 10
134.03379100000001
 20
100.808436
 30
0.0
 40
0.013139
 50
197.54061300000001
 51
221.949183
  0
ARC
  5
B7
  8
0
 62
     7
 10
134.043869
 20
100.81922400000001
 30
0.0
 40
0.026992
 50
200.00984
 51
213.120296
  0
ARC
  5
B8
  8
0
 62
     7
 10
134.03211099999999
 20
100.824017
 30
0.0
 40
0.019543
 50
209.256394
 51
225.880821
  0
ARC
  5
B9
  8
0
 62
     7
 10
134.00480099999999
 20
100.810676
 30
0.0
 40
0.010938
 50
20.276481
 51
49.113818000000002
  0
ARC
  5
BA
  8
0
 62
     7
 10
134.09393800000001
 20
100.868686
 30
0.0
 40
0.095887
 50
207.46791400000001
 51
211.24762699999999
  0
LINE
  5
BB
  8
0
 62
     7
 10
134.00899999999999
 20
100.824
 30
0.0
 11
134.005
 21
100.82899999999999
 31
0.0
  0
ARC
  5
BC
  8
0
 62
     7
 10
133.94896900000001
 20
100.785653
 30
0.0
 40
0.071069
 50
37.870756999999998
 51
42.601950000000002
  0
ARC
  5
BD
  8
0
 62
     7
 10
133.99279999999999
 20
100.830799
 30
0.0
 40
0.008983
 50
19.237389
 51
55.899787000000003
  0
ARC
  5
BE
  8
0
 62
     7
 10
133.98538600000001
 20
100.832356
 30
0.0
 40
0.01377
 50
25.287727000000011
 51
51.02671800000001
  0
ARC
  5
BF
  8
0
 62
     7
 10
133.97352599999999
 20
100.828267
 30
0.0
 40
0.025297
 50
35.790315
 51
49.628455000000002
  0
ARC
  5
C0
  8
0
 62
     7
 10
133.93381099999999
 20
100.803912
 30
0.0
 40
0.071069
 50
37.870756999999998
 51
42.601950000000002
  0
LINE
  5
C1
  8
0
 62
     7
 10
133.98599999999999
 20
100.852
 30
0.0
 11
133.982
 21
100.857
 31
0.0
  0
LINE
  5
C2
  8
0
 62
     7
 10
133.982
 20
100.857
 30
0.0
 11
133.97799999999989
 21
100.86
 31
0.0
  0
ARC
  5
C3
  8
0
 62
     7
 10
134.01227399999999
 20
100.896738
 30
0.0
 40
0.050134
 50
219.11514100000011
 51
226.642696
  0
ARC
  5
C4
  8
0
 62
     7
 10
133.95533499999999
 20
100.84629099999999
 30
0.0
 40
0.02607
 50
46.209949000000002
 51
58.652856000000007
  0
ARC
  5
C5
  8
0
 62
     7
 10
133.960162
 20
100.86240100000001
 30
0.0
 40
0.010685
 50
35.162415000000003
 51
68.523119999999992
  0
ARC
  5
C6
  8
0
 62
     7
 10
133.951865
 20
100.86245700000001
 30
0.0
 40
0.015711
 50
39.00264
 51
60.524631999999997
  0
ARC
  5
C7
  8
0
 62
     7
 10
133.95118199999999
 20
100.869831
 30
0.0
 40
0.010513
 50
36.842030999999999
 51
68.020774000000003
  0
ARC
  5
C8
  8
0
 62
     7
 10
133.94293200000001
 20
100.86903599999999
 30
0.0
 40
0.016113
 50
40.870345999999998
 51
62.815189000000011
  0
ARC
  5
C9
  8
0
 62
     7
 10
133.93407500000001
 20
100.86769200000001
 30
0.0
 40
0.022556
 50
44.028253999999997
 51
59.657282000000002
  0
ARC
  5
CA
  8
0
 62
     7
 10
133.91615899999999
 20
100.84879100000001
 30
0.0
 40
0.048283
 50
52.622295999999992
 51
59.997556000000003
  0
ARC
  5
CB
  8
0
 62
     7
 10
133.92916
 20
100.875933
 30
0.0
 40
0.018423
 50
52.781273999999982
 51
71.073738000000006
  0
ARC
  5
CC
  8
0
 62
     7
 10
133.953945
 20
100.922264
 30
0.0
 40
0.034486
 50
226.74063700000011
 51
236.94493800000001
  0
ARC
  5
CD
  8
0
 62
     7
 10
133.842918
 20
100.739508
 30
0.0
 40
0.180245
 50
60.996611000000009
 51
62.858401999999991
  0
ARC
  5
CE
  8
0
 62
     7
 10
133.88528500000001
 20
100.83139300000001
 30
0.0
 40
0.079263
 50
59.81024399999999
 51
64.044768000000005
  0
ARC
  5
CF
  8
0
 62
     7
 10
133.873907
 20
100.817414
 30
0.0
 40
0.096899
 50
61.612623999999997
 51
65.257258999999991
  0
ARC
  5
D0
  8
0
 62
     7
 10
133.90944999999999
 20
100.898991
 30
0.0
 40
0.008151
 50
52.036313
 51
88.656023000000005
  0
ARC
  5
D1
  8
0
 62
     7
 10
133.87080900000001
 20
100.836366
 30
0.0
 40
0.080727
 50
61.247397000000007
 51
65.622486999999992
  0
ARC
  5
D2
  8
0
 62
     7
 10
133.88931199999999
 20
100.888338
 30
0.0
 40
0.026159
 50
55.500126000000002
 51
68.354885999999993
  0
ARC
  5
D3
  8
0
 62
     7
 10
133.90061800000001
 20
100.925454
 30
0.0
 40
0.012908
 50
236.2624450000001
 51
262.62548900000002
  0
LINE
  5
D4
  8
0
 62
     7
 10
133.893
 20
100.91500000000001
 30
0.0
 11
133.88200000000001
 21
100.91800000000001
 31
0.0
  0
ARC
  5
D5
  8
0
 62
     7
 10
133.76008300000001
 20
100.590326
 30
0.0
 40
0.3499219999999999
 50
69.53553100000002
 51
71.391143999999997
  0
ARC
  5
D6
  8
0
 62
     7
 10
133.8127889999999
 20
100.709557
 30
0.0
 40
0.220427
 50
74.486702000000008
 51
77.440793999999997
  0
ARC
  5
D7
  8
0
 62
     7
 10
133.84907799999999
 20
100.886336
 30
0.0
 40
0.040101
 50
73.122156000000004
 51
89.116507999999996
  0
ARC
  5
D8
  8
0
 62
     7
 10
133.83731499999999
 20
100.8914
 30
0.0
 40
0.037157
 50
70.536140000000003
 51
86.843976999999995
  0
ARC
  5
D9
  8
0
 62
     7
 10
133.87150500000001
 20
101.17036299999999
 30
0.0
 40
0.243989
 50
259.80911099999997
 51
262.42959300000001
  0
ARC
  5
DA
  8
0
 62
     7
 10
133.82699099999999
 20
100.972013
 30
0.0
 40
0.041813
 50
257.10064699999998
 51
271.84429399999999
  0
LINE
  5
DB
  8
0
 62
     7
 10
133.81800000000001
 20
100.931
 30
0.0
 11
133.80699999999999
 21
100.931
 31
0.0
  0
ARC
  5
DC
  8
0
 62
     7
 10
133.884872
 20
100.74226400000001
 30
0.0
 40
0.277918
 50
79.65252199999999
 51
89.012888000000004
  0
ARC
  5
DD
  8
0
 62
     7
 10
133.89366799999999
 20
100.793048
 30
0.0
 40
0.226379
 50
67.980276000000003
 51
79.533948999999993
  0
ARC
  5
DE
  8
0
 62
     7
 10
133.65565699999999
 20
100.222871
 30
0.0
 40
0.8442299999999999
 50
66.089122000000003
 51
67.513683000000015
  0
ARC
  5
DF
  8
0
 62
     7
 10
133.900001
 20
100.81104999999999
 30
0.0
 40
0.208037
 50
55.043772999999987
 51
61.947681000000003
  0
ARC
  5
E0
  8
0
 62
     7
 10
133.91932299999999
 20
100.81616099999999
 30
0.0
 40
0.193208
 50
52.694107999999993
 51
58.874474999999997
  0
ARC
  5
E1
  8
0
 62
     7
 10
133.91962000000001
 20
100.807981
 30
0.0
 40
0.199603
 50
47.013617999999987
 51
54.18504999999999
  0
ARC
  5
E2
  8
0
 62
     7
 10
133.86297999999999
 20
100.74823000000001
 30
0.0
 40
0.281932
 50
41.969793000000003
 51
46.872745999999999
  0
ARC
  5
E3
  8
0
 62
     7
 10
133.918554
 20
100.79254899999999
 30
0.0
 40
0.211016
 50
37.470326
 51
43.113960999999989
  0
ARC
  5
E4
  8
0
 62
     7
 10
138.11802299999999
 20
103.65008
 30
0.0
 40
4.8688060000000002
 50
214.09315000000001
 51
214.33828600000001
  0
ARC
  5
E5
  8
0
 62
     7
 10
125.91735
 20
96.415720999999991
 30
0.0
 40
9.3306360000000002
 50
28.595984999999999
 51
28.750302000000008
  0
ARC
  5
E6
  8
0
 62
     7
 10
133.47730000000001
 20
100.579904
 30
0.0
 40
0.7007909999999999
 50
23.676279999999998
 51
25.503948999999999
  0
ARC
  5
E7
  8
0
 62
     7
 10
133.84110100000001
 20
100.75788900000001
 30
0.0
 40
0.29662
 50
15.924184
 51
20.407724999999999
  0
ARC
  5
E8
  8
0
 62
     7
 10
134.00983199999999
 20
100.800335
 30
0.0
 40
0.122841
 50
7.9017600000000003
 51
18.479458000000001
  0
ARC
  5
E9
  8
0
 62
     7
 10
133.984251
 20
100.78292
 30
0.0
 40
0.151198
 50
4.6484879999999986
 51
13.112829
  0
LINE
  5
EA
  8
0
 62
     7
 10
130.381
 20
96.805400000000006
 30
0.0
 11
130.43899999999999
 21
96.805400000000006
 31
0.0
  0
LINE
  5
EB
  8
0
 62
     7
 10
130.43899999999999
 20
96.805400000000006
 30
0.0
 11
130.49600000000001
 21
96.806100000000015
 31
0.0
  0
LINE
  5
EC
  8
0
 62
     7
 10
130.49600000000001
 20
96.806100000000015
 30
0.0
 11
130.55000000000001
 21
96.80810000000001
 31
0.0
  0
LINE
  5
ED
  8
0
 62
     7
 10
130.55000000000001
 20
96.80810000000001
 30
0.0
 11
130.57900000000001
 21
96.808800000000005
 31
0.0
  0
LINE
  5
EE
  8
0
 62
     7
 10
130.57900000000001
 20
96.808800000000005
 30
0.0
 11
130.60400000000001
 21
96.809900000000013
 31
0.0
  0
LINE
  5
EF
  8
0
 62
     7
 10
130.60400000000001
 20
96.809900000000013
 30
0.0
 11
130.626
 21
96.810900000000004
 31
0.0
  0
LINE
  5
F0
  8
0
 62
     7
 10
130.626
 20
96.810900000000004
 30
0.0
 11
130.64599999999999
 21
96.811599999999999
 31
0.0
  0
LINE
  5
F1
  8
0
 62
     7
 10
130.64599999999999
 20
96.811599999999999
 30
0.0
 11
130.66900000000001
 21
96.813700000000011
 31
0.0
  0
LINE
  5
F2
  8
0
 62
     7
 10
130.66900000000001
 20
96.813700000000011
 30
0.0
 11
130.69300000000001
 21
96.815399999999997
 31
0.0
  0
LINE
  5
F3
  8
0
 62
     7
 10
130.69300000000001
 20
96.815399999999997
 30
0.0
 11
130.71000000000001
 21
96.816400000000016
 31
0.0
  0
LINE
  5
F4
  8
0
 62
     7
 10
130.71000000000001
 20
96.816400000000016
 30
0.0
 11
130.72799999999989
 21
96.818100000000001
 31
0.0
  0
LINE
  5
F5
  8
0
 62
     7
 10
130.72799999999989
 20
96.818100000000001
 30
0.0
 11
130.74799999999999
 21
96.819900000000004
 31
0.0
  0
LINE
  5
F6
  8
0
 62
     7
 10
130.74799999999999
 20
96.819900000000004
 30
0.0
 11
130.76599999999999
 21
96.821899999999999
 31
0.0
  0
LINE
  5
F7
  8
0
 62
     7
 10
130.76599999999999
 20
96.821899999999999
 30
0.0
 11
130.779
 21
96.822599999999994
 31
0.0
  0
LINE
  5
F8
  8
0
 62
     7
 10
130.779
 20
96.822599999999994
 30
0.0
 11
130.78899999999999
 21
96.824700000000021
 31
0.0
  0
LINE
  5
F9
  8
0
 62
     7
 10
130.78899999999999
 20
96.824700000000021
 30
0.0
 11
130.80099999999999
 21
96.826400000000007
 31
0.0
  0
LINE
  5
FA
  8
0
 62
     7
 10
130.80099999999999
 20
96.826400000000007
 30
0.0
 11
130.80799999999999
 21
96.828100000000006
 31
0.0
  0
LINE
  5
FB
  8
0
 62
     7
 10
130.80799999999999
 20
96.828100000000006
 30
0.0
 11
130.81399999999999
 21
96.829200000000014
 31
0.0
  0
LINE
  5
FC
  8
0
 62
     7
 10
130.81399999999999
 20
96.829200000000014
 30
0.0
 11
130.81999999999999
 21
96.830899999999986
 31
0.0
  0
LINE
  5
FD
  8
0
 62
     7
 10
130.81999999999999
 20
96.830899999999986
 30
0.0
 11
130.82300000000001
 21
96.833600000000004
 31
0.0
  0
LINE
  5
FF
  8
0
 62
     7
 10
126.96299999999999
 20
100.922
 30
0.0
 11
126.964
 21
100.922
 31
0.0
  0
LINE
  5
101
  8
0
 62
     7
 10
126.964
 20
100.922
 30
0.0
 11
126.965
 21
100.922
 31
0.0
  0
LINE
  5
102
  8
0
 62
     7
 10
126.965
 20
100.922
 30
0.0
 11
126.96599999999999
 21
100.922
 31
0.0
  0
LINE
  5
104
  8
0
 62
     7
 10
126.96599999999999
 20
100.922
 30
0.0
 11
126.968
 21
100.922
 31
0.0
  0
LINE
  5
105
  8
0
 62
     7
 10
126.968
 20
100.922
 30
0.0
 11
126.96899999999999
 21
100.922
 31
0.0
  0
LINE
  5
106
  8
0
 62
     7
 10
126.96899999999999
 20
100.922
 30
0.0
 11
126.97
 21
100.922
 31
0.0
  0
LINE
  5
107
  8
0
 62
     7
 10
126.97
 20
100.922
 30
0.0
 11
126.97199999999999
 21
100.922
 31
0.0
  0
LINE
  5
108
  8
0
 62
     7
 10
126.97199999999999
 20
100.922
 30
0.0
 11
126.973
 21
100.922
 31
0.0
  0
LINE
  5
109
  8
0
 62
     7
 10
126.973
 20
100.922
 30
0.0
 11
126.97499999999999
 21
100.922
 31
0.0
  0
LINE
  5
10A
  8
0
 62
     7
 10
126.97499999999999
 20
100.922
 30
0.0
 11
126.976
 21
100.922
 31
0.0
  0
LINE
  5
10B
  8
0
 62
     7
 10
126.976
 20
100.922
 30
0.0
 11
126.97799999999999
 21
100.922
 31
0.0
  0
LINE
  5
10C
  8
0
 62
     7
 10
126.97799999999999
 20
100.922
 30
0.0
 11
126.979
 21
100.922
 31
0.0
  0
LINE
  5
10D
  8
0
 62
     7
 10
126.979
 20
100.922
 30
0.0
 11
126.98099999999999
 21
100.922
 31
0.0
  0
LINE
  5
10E
  8
0
 62
     7
 10
126.98099999999999
 20
100.922
 30
0.0
 11
126.982
 21
100.922
 31
0.0
  0
LINE
  5
10F
  8
0
 62
     7
 10
126.982
 20
100.922
 30
0.0
 11
126.98399999999999
 21
100.922
 31
0.0
  0
LINE
  5
110
  8
0
 62
     7
 10
126.98399999999999
 20
100.922
 30
0.0
 11
126.986
 21
100.922
 31
0.0
  0
LINE
  5
111
  8
0
 62
     7
 10
126.986
 20
100.922
 30
0.0
 11
126.988
 21
100.922
 31
0.0
  0
LINE
  5
112
  8
0
 62
     7
 10
126.988
 20
100.922
 30
0.0
 11
126.98999999999999
 21
100.922
 31
0.0
  0
LINE
  5
113
  8
0
 62
     7
 10
126.98999999999999
 20
100.922
 30
0.0
 11
126.992
 21
100.922
 31
0.0
  0
LINE
  5
114
  8
0
 62
     7
 10
126.992
 20
100.922
 30
0.0
 11
126.99299999999999
 21
100.922
 31
0.0
  0
LINE
  5
115
  8
0
 62
     7
 10
126.99299999999999
 20
100.922
 30
0.0
 11
126.995
 21
100.922
 31
0.0
  0
LINE
  5
116
  8
0
 62
     7
 10
126.995
 20
100.922
 30
0.0
 11
126.996
 21
100.922
 31
0.0
  0
ARC
  5
117
  8
0
 62
     7
 10
126.818888
 20
100.694125
 30
0.0
 40
0.101277
 50
173.297584
 51
179.54970800000001
  0
ARC
  5
118
  8
0
 62
     7
 10
127.668409
 20
100.521298
 30
0.0
 40
0.9678819999999999
 50
168.37807799999999
 51
169.00201999999999
  0
ARC
  5
119
  8
0
 62
     7
 10
126.82273600000001
 20
100.702793
 30
0.0
 40
0.103251
 50
166.266672
 51
172.49397999999999
  0
ARC
  5
11A
  8
0
 62
     7
 10
126.84812700000001
 20
100.702253
 30
0.0
 40
0.128162
 50
164.13154599999999
 51
168.72754800000001
  0
ARC
  5
11B
  8
0
 62
     7
 10
126.451188
 20
100.820211
 30
0.0
 40
0.285947
 50
343.14394600000003
 51
345.438782
  0
LINE
  5
11C
  8
0
 62
     7
 10
126.72799999999999
 20
100.748
 30
0.0
 11
126.732
 21
100.759
 31
0.0
  0
ARC
  5
11D
  8
0
 62
     7
 10
126.62405200000001
 20
100.80975599999999
 30
0.0
 40
0.118902
 50
334.91456699999998
 51
340.12656900000002
  0
ARC
  5
11E
  8
0
 62
     7
 10
126.812826
 20
100.737319
 30
0.0
 40
0.083348
 50
149.460027
 51
157.40983700000001
  0
ARC
  5
11F
  8
0
 62
     7
 10
126.839315
 20
100.74596200000001
 30
0.0
 40
0.103894
 50
157.82042799999999
 51
161.06744599999999
  0
ARC
  5
120
  8
0
 62
     7
 10
126.720502
 20
100.799931
 30
0.0
 40
0.026992
 50
326.87972400000001
 51
339.99018000000001
  0
ARC
  5
121
  8
0
 62
     7
 10
126.728719
 20
100.804333
 30
0.0
 40
0.021908
 50
321.499303
 51
335.28570000000002
  0
ARC
  5
122
  8
0
 62
     7
 10
126.712346
 20
100.816756
 30
0.0
 40
0.042209
 50
329.248469
 51
337.62143400000002
  0
ARC
  5
123
  8
0
 62
     7
 10
126.729376
 20
100.821174
 30
0.0
 40
0.030063
 50
317.03897799999999
 51
327.823846
  0
ARC
  5
124
  8
0
 62
     7
 10
126.654241
 20
100.865369
 30
0.0
 40
0.117222
 50
329.09644300000002
 51
332.18805600000007
  0
ARC
  5
125
  8
0
 62
     7
 10
126.739741
 20
100.828863
 30
0.0
 40
0.025715
 50
314.99311799999998
 51
328.69243699999998
  0
ARC
  5
126
  8
0
 62
     7
 10
126.77140300000001
 20
100.81210400000001
 30
0.0
 40
0.010269
 50
129.924093
 51
160.68556799999999
  0
ARC
  5
127
  8
0
 62
     7
 10
126.77714400000001
 20
100.81338700000001
 30
0.0
 40
0.013983
 50
127.653597
 51
151.87365600000001
  0
ARC
  5
128
  8
0
 62
     7
 10
126.778368
 20
100.821124
 30
0.0
 40
0.010319
 50
127.77197700000001
 51
161.152636
  0
ARC
  5
129
  8
0
 62
     7
 10
126.789064
 20
100.818724
 30
0.0
 40
0.020025
 50
131.340397
 51
148.18685600000001
  0
ARC
  5
12A
  8
0
 62
     7
 10
126.788696
 20
100.826036
 30
0.0
 40
0.015
 50
125.568502
 51
149.012688
  0
ARC
  5
12B
  8
0
 62
     7
 10
126.79755900000001
 20
100.82831899999999
 30
0.0
 40
0.020192
 50
133.10636700000001
 51
150.579149
  0
ARC
  5
12C
  8
0
 62
     7
 10
126.861901
 20
100.7694
 30
0.0
 40
0.107387
 50
133.31005999999999
 51
136.689911
  0
ARC
  5
12D
  8
0
 62
     7
 10
126.812248
 20
100.825498
 30
0.0
 40
0.032593
 50
127.574867
 51
137.445998
  0
ARC
  5
12E
  8
0
 62
     7
 10
126.811136
 20
100.838157
 30
0.0
 40
0.022924
 50
129.65118200000001
 51
144.93000799999999
  0
LINE
  5
12F
  8
0
 62
     7
 10
126.797
 20
100.85599999999999
 30
0.0
 11
126.801
 21
100.86
 31
0.0
  0
ARC
  5
130
  8
0
 62
     7
 10
126.83043600000001
 20
100.832718
 30
0.0
 40
0.039872
 50
128.144487
 51
137.613291
  0
ARC
  5
131
  8
0
 62
     7
 10
126.797026
 20
100.878997
 30
0.0
 40
0.017314
 50
300.48211600000002
 51
319.990612
  0
ARC
  5
132
  8
0
 62
     7
 10
126.80531999999999
 20
100.878957
 30
0.0
 40
0.012153
 50
294.126285
 51
321.01091100000002
  0
ARC
  5
133
  8
0
 62
     7
 10
126.80521299999999
 20
100.88975600000001
 30
0.0
 40
0.020773
 50
297.38059399999997
 51
315.127094
  0
LINE
  5
134
  8
0
 62
     7
 10
126.81999999999999
 20
100.875
 30
0.0
 11
126.824
 21
100.878
 31
0.0
  0
ARC
  5
135
  8
0
 62
     7
 10
126.848642
 20
100.850235
 30
0.0
 40
0.036742
 50
121.250944
 51
131.25670400000001
  0
LINE
  5
136
  8
0
 62
     7
 10
126.83
 20
100.88200000000001
 30
0.0
 11
126.83499999999999
 21
100.884
 31
0.0
  0
ARC
  5
137
  8
0
 62
     7
 10
126.844165
 20
100.876318
 30
0.0
 40
0.012411
 50
111.72282
 51
139.352508
  0
LINE
  5
138
  8
0
 62
     7
 10
126.84
 20
100.88800000000001
 30
0.0
 11
126.845
 21
100.89100000000001
 31
0.0
  0
LINE
  5
139
  8
0
 62
     7
 10
126.845
 20
100.89100000000001
 30
0.0
 11
126.84999999999999
 21
100.893
 31
0.0
  0
LINE
  5
13A
  8
0
 62
     7
 10
126.84999999999999
 20
100.893
 30
0.0
 11
126.855
 21
100.896
 31
0.0
  0
LINE
  5
13B
  8
0
 62
     7
 10
126.855
 20
100.896
 30
0.0
 11
126.86
 21
100.899
 31
0.0
  0
LINE
  5
13C
  8
0
 62
     7
 10
126.86
 20
100.899
 30
0.0
 11
126.866
 21
100.901
 31
0.0
  0
LINE
  5
13D
  8
0
 62
     7
 10
126.866
 20
100.901
 30
0.0
 11
126.871
 21
100.904
 31
0.0
  0
LINE
  5
13E
  8
0
 62
     7
 10
126.871
 20
100.904
 30
0.0
 11
126.876
 21
100.905
 31
0.0
  0
ARC
  5
13F
  8
0
 62
     7
 10
126.90849799999999
 20
100.830072
 30
0.0
 40
0.081884
 50
104.888463
 51
113.052328
  0
LINE
  5
140
  8
0
 62
     7
 10
126.887
 20
100.90900000000001
 30
0.0
 11
126.898
 21
100.913
 31
0.0
  0
LINE
  5
141
  8
0
 62
     7
 10
126.898
 20
100.913
 30
0.0
 11
126.90900000000001
 21
100.91500000000001
 31
0.0
  0
LINE
  5
142
  8
0
 62
     7
 10
126.90900000000001
 20
100.91500000000001
 30
0.0
 11
126.92
 21
100.91800000000001
 31
0.0
  0
LINE
  5
143
  8
0
 62
     7
 10
126.92
 20
100.91800000000001
 30
0.0
 11
126.931
 21
100.92
 31
0.0
  0
LINE
  5
144
  8
0
 62
     7
 10
126.931
 20
100.92
 30
0.0
 11
126.94199999999999
 21
100.92100000000001
 31
0.0
  0
LINE
  5
145
  8
0
 62
     7
 10
126.94199999999999
 20
100.92100000000001
 30
0.0
 11
126.952
 21
100.922
 31
0.0
  0
LINE
  5
146
  8
0
 62
     7
 10
126.952
 20
100.922
 30
0.0
 11
126.96299999999999
 21
100.922
 31
0.0
  0
ARC
  5
147
  8
0
 62
     7
 10
126.91853500000001
 20
97.569284999999994
 30
0.0
 40
0.347037
 50
248.98726099999999
 51
252.24373199999999
  0
ARC
  5
148
  8
0
 62
     7
 10
126.83807899999999
 20
97.371126000000004
 30
0.0
 40
0.133268
 50
243.48958300000001
 51
250.72933900000001
  0
ARC
  5
149
  8
0
 62
     7
 10
127.594967
 20
98.801241000000005
 30
0.0
 40
1.751288999999999
 50
241.64010999999999
 51
242.21494200000001
  0
ARC
  5
14A
  8
0
 62
     7
 10
126.822266
 20
97.376766000000003
 30
0.0
 40
0.130781
 50
234.62502000000001
 51
243.09706199999999
  0
ARC
  5
14B
  8
0
 62
     7
 10
126.79527
 20
97.351825000000005
 30
0.0
 40
0.095118
 50
228.92458600000001
 51
239.19121799999999
  0
ARC
  5
14C
  8
0
 62
     7
 10
126.851968
 20
97.445522999999994
 30
0.0
 40
0.203876
 50
228.77662000000001
 51
234.22210100000001
  0
ARC
  5
14D
  8
0
 62
     7
 10
126.92610000000001
 20
97.519394999999975
 30
0.0
 40
0.308373
 50
224.066182
 51
227.46164400000001
  0
ARC
  5
14E
  8
0
 62
     7
 10
127.11305400000001
 20
97.685074999999998
 30
0.0
 40
0.5580430000000001
 50
221.03542200000001
 51
222.93903399999999
  0
ARC
  5
14F
  8
0
 62
     7
 10
126.166701
 20
96.935407999999995
 30
0.0
 40
0.650371
 50
36.111109999999996
 51
37.628678000000001
  0
ARC
  5
150
  8
0
 62
     7
 10
126.92388200000001
 20
97.500557999999998
 30
0.0
 40
0.294718
 50
210.941868
 51
214.76960800000001
  0
ARC
  5
151
  8
0
 62
     7
 10
126.779505
 20
97.423338000000001
 30
0.0
 40
0.131427
 50
206.079746
 51
214.43316200000001
  0
ARC
  5
152
  8
0
 62
     7
 10
127.019114
 20
97.53048299999999
 30
0.0
 40
0.393849
 50
202.24151900000001
 51
204.75564700000001
  0
ARC
  5
153
  8
0
 62
     7
 10
126.90286
 20
97.489253000000005
 30
0.0
 40
0.270701
 50
199.71283700000001
 51
203.47781900000001
  0
ARC
  5
154
  8
0
 62
     7
 10
128.543452
 20
97.980109999999996
 30
0.0
 40
1.9828179999999991
 50
196.52282099999999
 51
197.073959
  0
ARC
  5
155
  8
0
 62
     7
 10
126.820522
 20
97.461916000000016
 30
0.0
 40
0.183787
 50
189.134398
 51
194.40221700000001
  0
ARC
  5
156
  8
0
 62
     7
 10
127.19201099999999
 20
97.521574999999999
 30
0.0
 40
0.5600360000000001
 50
187.133161
 51
189.12708199999989
  0
LINE
  5
157
  8
0
 62
     7
 10
129.93899999999999
 20
96.833600000000004
 30
0.0
 11
129.941
 21
96.830899999999986
 31
0.0
  0
LINE
  5
158
  8
0
 62
     7
 10
129.941
 20
96.830899999999986
 30
0.0
 11
129.94799999999989
 21
96.829200000000014
 31
0.0
  0
LINE
  5
159
  8
0
 62
     7
 10
129.94799999999989
 20
96.829200000000014
 30
0.0
 11
129.959
 21
96.826400000000007
 31
0.0
  0
LINE
  5
15A
  8
0
 62
     7
 10
129.959
 20
96.826400000000007
 30
0.0
 11
129.97300000000001
 21
96.824700000000021
 31
0.0
  0
LINE
  5
15B
  8
0
 62
     7
 10
129.97300000000001
 20
96.824700000000021
 30
0.0
 11
129.99100000000001
 21
96.821899999999999
 31
0.0
  0
LINE
  5
15C
  8
0
 62
     7
 10
129.99100000000001
 20
96.821899999999999
 30
0.0
 11
130.01400000000001
 21
96.819900000000004
 31
0.0
  0
LINE
  5
15D
  8
0
 62
     7
 10
130.01400000000001
 20
96.819900000000004
 30
0.0
 11
130.03399999999999
 21
96.818100000000001
 31
0.0
  0
LINE
  5
15E
  8
0
 62
     7
 10
130.03399999999999
 20
96.818100000000001
 30
0.0
 11
130.05199999999999
 21
96.816400000000016
 31
0.0
  0
LINE
  5
15F
  8
0
 62
     7
 10
130.05199999999999
 20
96.816400000000016
 30
0.0
 11
130.06800000000001
 21
96.815399999999997
 31
0.0
  0
LINE
  5
160
  8
0
 62
     7
 10
130.06800000000001
 20
96.815399999999997
 30
0.0
 11
130.09299999999999
 21
96.813700000000011
 31
0.0
  0
LINE
  5
161
  8
0
 62
     7
 10
130.09299999999999
 20
96.813700000000011
 30
0.0
 11
130.11600000000001
 21
96.811599999999999
 31
0.0
  0
LINE
  5
162
  8
0
 62
     7
 10
130.11600000000001
 20
96.811599999999999
 30
0.0
 11
130.136
 21
96.810900000000004
 31
0.0
  0
LINE
  5
163
  8
0
 62
     7
 10
130.136
 20
96.810900000000004
 30
0.0
 11
130.16300000000001
 21
96.809900000000013
 31
0.0
  0
LINE
  5
164
  8
0
 62
     7
 10
130.16300000000001
 20
96.809900000000013
 30
0.0
 11
130.18899999999999
 21
96.808800000000005
 31
0.0
  0
LINE
  5
165
  8
0
 62
     7
 10
130.18899999999999
 20
96.808800000000005
 30
0.0
 11
130.21199999999999
 21
96.80810000000001
 31
0.0
  0
LINE
  5
166
  8
0
 62
     7
 10
130.21199999999999
 20
96.80810000000001
 30
0.0
 11
130.23699999999999
 21
96.807100000000005
 31
0.0
  0
LINE
  5
167
  8
0
 62
     7
 10
130.23699999999999
 20
96.807100000000005
 30
0.0
 11
130.267
 21
96.806100000000015
 31
0.0
  0
LINE
  5
168
  8
0
 62
     7
 10
130.267
 20
96.806100000000015
 30
0.0
 11
130.30099999999999
 21
96.806100000000015
 31
0.0
  0
LINE
  5
169
  8
0
 62
     7
 10
130.30099999999999
 20
96.806100000000015
 30
0.0
 11
130.339
 21
96.805400000000006
 31
0.0
  0
LINE
  5
16A
  8
0
 62
     7
 10
130.339
 20
96.805400000000006
 30
0.0
 11
130.381
 21
96.805400000000006
 31
0.0
  0
LINE
  5
16B
  8
0
 62
     7
 10
130.82300000000001
 20
96.833600000000004
 30
0.0
 11
130.821
 21
96.834699999999984
 31
0.0
  0
ARC
  5
16C
  8
0
 62
     7
 10
130.81749400000001
 20
96.831020999999993
 30
0.0
 40
0.005371
 50
42.755459000000002
 51
88.356617000000014
  0
LINE
  5
16D
  8
0
 62
     7
 10
130.81800000000001
 20
96.836399999999998
 30
0.0
 11
130.81200000000001
 21
96.838499999999996
 31
0.0
  0
LINE
  5
16E
  8
0
 62
     7
 10
130.81200000000001
 20
96.838499999999996
 30
0.0
 11
130.804
 21
96.839100000000002
 31
0.0
  0
ARC
  5
16F
  8
0
 62
     7
 10
130.79461499999999
 20
96.803441000000007
 30
0.0
 40
0.036799
 50
75.991315999999983
 51
93.297015000000002
  0
ARC
  5
170
  8
0
 62
     7
 10
130.77147199999999
 20
96.729429000000025
 30
0.0
 40
0.112729
 50
79.249713999999997
 51
86.138749000000004
  0
ARC
  5
171
  8
0
 62
     7
 10
130.77759900000001
 20
96.927608000000006
 30
0.0
 40
0.085718
 50
261.03984800000001
 51
270.97834699999999
  0
ARC
  5
172
  8
0
 62
     7
 10
130.76282399999999
 20
96.943093999999988
 30
0.0
 40
0.100169
 50
261.72189900000001
 51
270.81532800000002
  0
LINE
  5
173
  8
0
 62
     7
 10
130.74799999999999
 20
96.843999999999994
 30
0.0
 11
130.733
 21
96.843999999999994
 31
0.0
  0
ARC
  5
174
  8
0
 62
     7
 10
130.719415
 20
96.731157999999994
 30
0.0
 40
0.113574
 50
83.356729999999985
 51
92.062031000000005
  0
LINE
  5
175
  8
0
 62
     7
 10
130.715
 20
96.844700000000003
 30
0.0
 11
130.69499999999999
 21
96.845699999999994
 31
0.0
  0
ARC
  5
176
  8
0
 62
     7
 10
130.69365300000001
 20
97.045272999999995
 30
0.0
 40
0.199588
 50
264.14638000000002
 51
270.48609099999999
  0
LINE
  5
177
  8
0
 62
     7
 10
130.673
 20
96.846699999999998
 30
0.0
 11
130.648
 21
96.846699999999998
 31
0.0
  0
LINE
  5
178
  8
0
 62
     7
 10
130.648
 20
96.846699999999998
 30
0.0
 11
130.62100000000001
 21
96.847399999999993
 31
0.0
  0
LINE
  5
179
  8
0
 62
     7
 10
130.62100000000001
 20
96.847399999999993
 30
0.0
 11
130.59
 21
96.847399999999993
 31
0.0
  0
ARC
  5
17A
  8
0
 62
     7
 10
130.550209
 20
96.162188
 30
0.0
 40
0.686376
 50
86.682704999999999
 51
91.055893000000012
  0
LINE
  5
17B
  8
0
 62
     7
 10
130.5379999999999
 20
96.848400000000012
 30
0.0
 11
130.48400000000001
 21
96.848400000000012
 31
0.0
  0
ARC
  5
17C
  8
0
 62
     7
 10
130.48251500000001
 20
98.109126000000003
 30
0.0
 40
1.26068
 50
267.67859299999998
 51
270.07482199999998
  0
LINE
  5
17D
  8
0
 62
     7
 10
130.43100000000001
 20
96.849500000000006
 30
0.0
 11
130.381
 21
96.849500000000006
 31
0.0
  0
LINE
  5
17E
  8
0
 62
     7
 10
130.381
 20
96.849500000000006
 30
0.0
 11
130.36699999999999
 21
96.849500000000006
 31
0.0
  0
LINE
  5
17F
  8
0
 62
     7
 10
130.36699999999999
 20
96.849500000000006
 30
0.0
 11
130.34899999999999
 21
96.849500000000006
 31
0.0
  0
LINE
  5
180
  8
0
 62
     7
 10
130.34899999999999
 20
96.849500000000006
 30
0.0
 11
130.328
 21
96.849500000000006
 31
0.0
  0
ARC
  5
181
  8
0
 62
     7
 10
130.31080499999999
 20
96.988490999999996
 30
0.0
 40
0.140124
 50
268.05456600000002
 51
277.23054400000001
  0
LINE
  5
182
  8
0
 62
     7
 10
130.30600000000001
 20
96.848400000000012
 30
0.0
 11
130.28100000000001
 21
96.848400000000012
 31
0.0
  0
LINE
  5
183
  8
0
 62
     7
 10
130.28100000000001
 20
96.848400000000012
 30
0.0
 11
130.255
 21
96.848400000000012
 31
0.0
  0
LINE
  5
184
  8
0
 62
     7
 10
130.255
 20
96.848400000000012
 30
0.0
 11
130.22800000000001
 21
96.848400000000012
 31
0.0
  0
LINE
  5
185
  8
0
 62
     7
 10
130.22800000000001
 20
96.848400000000012
 30
0.0
 11
130.19999999999999
 21
96.848400000000012
 31
0.0
  0
LINE
  5
186
  8
0
 62
     7
 10
130.19999999999999
 20
96.848400000000012
 30
0.0
 11
130.172
 21
96.847399999999993
 31
0.0
  0
LINE
  5
187
  8
0
 62
     7
 10
130.172
 20
96.847399999999993
 30
0.0
 11
130.14099999999999
 21
96.847399999999993
 31
0.0
  0
LINE
  5
188
  8
0
 62
     7
 10
130.14099999999999
 20
96.847399999999993
 30
0.0
 11
130.113
 21
96.846699999999998
 31
0.0
  0
LINE
  5
189
  8
0
 62
     7
 10
130.113
 20
96.846699999999998
 30
0.0
 11
130.08799999999999
 21
96.846699999999998
 31
0.0
  0
ARC
  5
18A
  8
0
 62
     7
 10
130.07118500000001
 20
96.976501999999996
 30
0.0
 40
0.130903
 50
267.84741500000001
 51
277.52015499999999
  0
LINE
  5
18B
  8
0
 62
     7
 10
130.066
 20
96.845699999999994
 30
0.0
 11
130.04599999999999
 21
96.844700000000003
 31
0.0
  0
ARC
  5
18C
  8
0
 62
     7
 10
130.04458700000001
 20
96.671482999999995
 30
0.0
 40
0.173183
 50
89.437697
 51
95.143503000000024
  0
LINE
  5
18D
  8
0
 62
     7
 10
130.029
 20
96.843999999999994
 30
0.0
 11
130.01300000000001
 21
96.843999999999994
 31
0.0
  0
ARC
  5
18E
  8
0
 62
     7
 10
130.001364
 20
96.904919999999976
 30
0.0
 40
0.062093
 50
266.626689
 51
281.00148000000002
  0
ARC
  5
18F
  8
0
 62
     7
 10
129.985826
 20
96.905556000000004
 30
0.0
 40
0.063738
 50
267.05523900000009
 51
280.745767
  0
ARC
  5
190
  8
0
 62
     7
 10
130.06240099999999
 20
96.202994000000004
 30
0.0
 40
0.643878
 50
97.123731000000006
 51
98.268350999999981
  0
ARC
  5
191
  8
0
 62
     7
 10
129.96836499999989
 20
96.789606000000006
 30
0.0
 40
0.050594
 50
88.369055000000003
 51
101.715827
  0
LINE
  5
192
  8
0
 62
     7
 10
129.958
 20
96.839100000000002
 30
0.0
 11
129.95099999999999
 21
96.838499999999996
 31
0.0
  0
LINE
  5
193
  8
0
 62
     7
 10
129.95099999999999
 20
96.838499999999996
 30
0.0
 11
129.94399999999999
 21
96.836399999999998
 31
0.0
  0
LINE
  5
194
  8
0
 62
     7
 10
129.94399999999999
 20
96.836399999999998
 30
0.0
 11
129.94
 21
96.835700000000017
 31
0.0
  0
LINE
  5
195
  8
0
 62
     7
 10
129.94
 20
96.835700000000017
 30
0.0
 11
129.93899999999999
 21
96.833600000000004
 31
0.0
  0
LINE
  5
196
  8
0
 62
     7
 10
127.01000000000001
 20
97.28670000000001
 30
0.0
 11
127.009
 21
97.28670000000001
 31
0.0
  0
LINE
  5
197
  8
0
 62
     7
 10
127.009
 20
97.28670000000001
 30
0.0
 11
127.00700000000001
 21
97.28670000000001
 31
0.0
  0
LINE
  5
198
  8
0
 62
     7
 10
127.00700000000001
 20
97.28670000000001
 30
0.0
 11
127.005
 21
97.28670000000001
 31
0.0
  0
LINE
  5
199
  8
0
 62
     7
 10
127.005
 20
97.28670000000001
 30
0.0
 11
127.003
 21
97.28670000000001
 31
0.0
  0
LINE
  5
19A
  8
0
 62
     7
 10
127.003
 20
97.28670000000001
 30
0.0
 11
127.001
 21
97.28670000000001
 31
0.0
  0
LINE
  5
19B
  8
0
 62
     7
 10
127.001
 20
97.28670000000001
 30
0.0
 11
127.0
 21
97.28670000000001
 31
0.0
  0
LINE
  5
19C
  8
0
 62
     7
 10
127.0
 20
97.28670000000001
 30
0.0
 11
126.999
 21
97.28670000000001
 31
0.0
  0
LINE
  5
19D
  8
0
 62
     7
 10
126.999
 20
97.28670000000001
 30
0.0
 11
126.998
 21
97.28670000000001
 31
0.0
  0
LINE
  5
19E
  8
0
 62
     7
 10
126.998
 20
97.28670000000001
 30
0.0
 11
126.996
 21
97.28670000000001
 31
0.0
  0
LINE
  5
19F
  8
0
 62
     7
 10
126.996
 20
97.28670000000001
 30
0.0
 11
126.994
 21
97.28670000000001
 31
0.0
  0
LINE
  5
1A0
  8
0
 62
     7
 10
126.994
 20
97.28670000000001
 30
0.0
 11
126.99299999999999
 21
97.28670000000001
 31
0.0
  0
LINE
  5
1A1
  8
0
 62
     7
 10
126.99299999999999
 20
97.28670000000001
 30
0.0
 11
126.991
 21
97.28670000000001
 31
0.0
  0
LINE
  5
1A2
  8
0
 62
     7
 10
126.991
 20
97.28670000000001
 30
0.0
 11
126.98999999999999
 21
97.28670000000001
 31
0.0
  0
LINE
  5
1A3
  8
0
 62
     7
 10
126.98999999999999
 20
97.28670000000001
 30
0.0
 11
126.989
 21
97.28670000000001
 31
0.0
  0
LINE
  5
1A4
  8
0
 62
     7
 10
126.989
 20
97.28670000000001
 30
0.0
 11
126.988
 21
97.28670000000001
 31
0.0
  0
LINE
  5
1A5
  8
0
 62
     7
 10
126.988
 20
97.28670000000001
 30
0.0
 11
126.98699999999999
 21
97.28670000000001
 31
0.0
  0
LINE
  5
1A6
  8
0
 62
     7
 10
126.98699999999999
 20
97.28670000000001
 30
0.0
 11
126.986
 21
97.28670000000001
 31
0.0
  0
LINE
  5
1A7
  8
0
 62
     7
 10
126.986
 20
97.28670000000001
 30
0.0
 11
126.98399999999999
 21
97.28670000000001
 31
0.0
  0
LINE
  5
1A9
  8
0
 62
     7
 10
126.98399999999999
 20
97.28670000000001
 30
0.0
 11
126.983
 21
97.28670000000001
 31
0.0
  0
LINE
  5
1AA
  8
0
 62
     7
 10
126.983
 20
97.28670000000001
 30
0.0
 11
126.982
 21
97.28670000000001
 31
0.0
  0
LINE
  5
1AB
  8
0
 62
     7
 10
126.982
 20
97.28670000000001
 30
0.0
 11
126.98099999999999
 21
97.28670000000001
 31
0.0
  0
LINE
  5
1AC
  8
0
 62
     7
 10
126.98099999999999
 20
97.28670000000001
 30
0.0
 11
126.98
 21
97.28670000000001
 31
0.0
  0
LINE
  5
1AE
  8
0
 62
     7
 10
126.98
 20
97.28670000000001
 30
0.0
 11
126.979
 21
97.28670000000001
 31
0.0
  0
LINE
  5
1AF
  8
0
 62
     7
 10
126.979
 20
97.28670000000001
 30
0.0
 11
126.97799999999999
 21
97.28670000000001
 31
0.0
  0
LINE
  5
1B1
  8
0
 62
     7
 10
126.97799999999999
 20
97.28670000000001
 30
0.0
 11
126.977
 21
97.28670000000001
 31
0.0
  0
LINE
  5
1B2
  8
0
 62
     7
 10
133.80000000000001
 20
97.280100000000004
 30
0.0
 11
133.81
 21
97.281199999999998
 31
0.0
  0
LINE
  5
1B3
  8
0
 62
     7
 10
133.81
 20
97.281199999999998
 30
0.0
 11
133.81999999999999
 21
97.282200000000003
 31
0.0
  0
LINE
  5
1B4
  8
0
 62
     7
 10
133.81999999999999
 20
97.282200000000003
 30
0.0
 11
133.83099999999999
 21
97.282900000000012
 31
0.0
  0
LINE
  5
1B5
  8
0
 62
     7
 10
133.83099999999999
 20
97.282900000000012
 30
0.0
 11
133.84100000000001
 21
97.285600000000017
 31
0.0
  0
LINE
  5
1B6
  8
0
 62
     7
 10
133.84100000000001
 20
97.285600000000017
 30
0.0
 11
133.852
 21
97.287700000000001
 31
0.0
  0
LINE
  5
1B7
  8
0
 62
     7
 10
133.852
 20
97.287700000000001
 30
0.0
 11
133.863
 21
97.290499999999994
 31
0.0
  0
LINE
  5
1B8
  8
0
 62
     7
 10
133.863
 20
97.290499999999994
 30
0.0
 11
133.874
 21
97.293899999999994
 31
0.0
  0
ARC
  5
1B9
  8
0
 62
     7
 10
133.91676699999999
 20
97.192740000000001
 30
0.0
 40
0.109903
 50
107.26563
 51
113.006953
  0
LINE
  5
1BA
  8
0
 62
     7
 10
133.88399999999999
 20
97.29770000000002
 30
0.0
 11
133.88900000000001
 21
97.300399999999996
 31
0.0
  0
LINE
  5
1BB
  8
0
 62
     7
 10
133.88900000000001
 20
97.300399999999996
 30
0.0
 11
133.89400000000001
 21
97.302199999999999
 31
0.0
  0
LINE
  5
1BC
  8
0
 62
     7
 10
133.89400000000001
 20
97.302199999999999
 30
0.0
 11
133.90000000000001
 21
97.304900000000004
 31
0.0
  0
LINE
  5
1BD
  8
0
 62
     7
 10
133.90000000000001
 20
97.304900000000004
 30
0.0
 11
133.905
 21
97.307699999999997
 31
0.0
  0
LINE
  5
1BE
  8
0
 62
     7
 10
133.905
 20
97.307699999999997
 30
0.0
 11
133.91
 21
97.310400000000001
 31
0.0
  0
LINE
  5
1BF
  8
0
 62
     7
 10
133.91
 20
97.310400000000001
 30
0.0
 11
133.91499999999999
 21
97.313199999999995
 31
0.0
  0
LINE
  5
1C0
  8
0
 62
     7
 10
133.91499999999999
 20
97.313199999999995
 30
0.0
 11
133.91999999999999
 21
97.315899999999999
 31
0.0
  0
LINE
  5
1C1
  8
0
 62
     7
 10
133.91999999999999
 20
97.315899999999999
 30
0.0
 11
133.92500000000001
 21
97.318700000000007
 31
0.0
  0
ARC
  5
1C2
  8
0
 62
     7
 10
133.917182
 20
97.332656999999998
 30
0.0
 40
0.016063
 50
299.71388999999999
 51
320.75883800000003
  0
LINE
  5
1C3
  8
0
 62
     7
 10
133.93000000000001
 20
97.322500000000005
 30
0.0
 11
133.935
 21
97.325299999999999
 31
0.0
  0
LINE
  5
1C4
  8
0
 62
     7
 10
133.935
 20
97.325299999999999
 30
0.0
 11
133.93899999999999
 21
97.328999999999994
 31
0.0
  0
ARC
  5
1C5
  8
0
 62
     7
 10
133.93545900000001
 20
97.339473999999996
 30
0.0
 40
0.011107
 50
290.06252799999999
 51
321.01283899999999
  0
ARC
  5
1C6
  8
0
 62
     7
 10
133.93685300000001
 20
97.345584000000002
 30
0.0
 40
0.014965
 50
298.932143
 51
321.54058400000002
  0
ARC
  5
1C7
  8
0
 62
     7
 10
133.944334
 20
97.345825000000005
 30
0.0
 40
0.010446
 50
293.92778500000009
 51
326.54494299999999
  0
ARC
  5
1C8
  8
0
 62
     7
 10
133.970066
 20
97.321341000000004
 30
0.0
 40
0.025301
 50
118.811042
 51
132.264286
  0
LINE
  5
1C9
  8
0
 62
     7
 10
133.958
 20
97.343500000000006
 30
0.0
 11
133.96199999999999
 21
97.347300000000004
 31
0.0
  0
ARC
  5
1CA
  8
0
 62
     7
 10
133.94687999999999
 20
97.365410999999995
 30
0.0
 40
0.023597
 50
309.870251
 51
324.71097900000001
  0
ARC
  5
1CB
  8
0
 62
     7
 10
134.09716499999999
 20
97.201474000000005
 30
0.0
 40
0.199396
 50
129.39340899999999
 51
131.07927900000001
  0
LINE
  5
1CC
  8
0
 62
     7
 10
133.971
 20
97.355599999999995
 30
0.0
 11
133.97399999999999
 21
97.359999999999999
 31
0.0
  0
ARC
  5
1CD
  8
0
 62
     7
 10
133.95954900000001
 20
97.376968000000005
 30
0.0
 40
0.022519
 50
311.29030899999998
 51
327.50711100000001
  0
LINE
  5
1CE
  8
0
 62
     7
 10
133.97900000000001
 20
97.364900000000006
 30
0.0
 11
133.982
 21
97.368300000000005
 31
0.0
  0
ARC
  5
1CF
  8
0
 62
     7
 10
134.00981200000001
 20
97.350355000000022
 30
0.0
 40
0.033117
 50
136.529087
 51
147.156429
  0
ARC
  5
1D0
  8
0
 62
     7
 10
134.02620200000001
 20
97.342776999999984
 30
0.0
 40
0.050556
 50
136.43729400000001
 51
143.08995899999999
  0
ARC
  5
1D1
  8
0
 62
     7
 10
134.00172000000001
 20
97.371833999999993
 30
0.0
 40
0.013458
 50
130.31322599999999
 51
154.54955799999999
  0
ARC
  5
1D2
  8
0
 62
     7
 10
134.00986700000001
 20
97.373699000000002
 30
0.0
 40
0.01883
 50
135.40726000000001
 51
153.51735300000001
  0
ARC
  5
1D3
  8
0
 62
     7
 10
133.97000600000001
 20
97.405427000000003
 30
0.0
 40
0.032284
 50
325.02108700000002
 51
336.26341300000001
  0
ARC
  5
1D4
  8
0
 62
     7
 10
133.99280200000001
 20
97.400421999999992
 30
0.0
 40
0.010464
 50
310.21736600000003
 51
340.39233400000001
  0
ARC
  5
1D5
  8
0
 62
     7
 10
134.012607
 20
97.392821999999995
 30
0.0
 40
0.010755
 50
127.201649
 51
157.661136
  0
ARC
  5
1D6
  8
0
 62
     7
 10
134.03362100000001
 20
97.391075999999998
 30
0.0
 40
0.029386
 50
147.41583
 51
159.45403400000001
  0
ARC
  5
1D7
  8
0
 62
     7
 10
134.078891
 20
97.370082999999994
 30
0.0
 40
0.079119
 50
148.243269
 51
152.26693499999999
  0
ARC
  5
1D8
  8
0
 62
     7
 10
134.09961999999999
 20
97.371168000000026
 30
0.0
 40
0.096899
 50
151.61261400000001
 51
155.257249
  0
LINE
  5
1D9
  8
0
 62
     7
 10
134.01400000000001
 20
97.417199999999994
 30
0.0
 11
134.01599999999999
 21
97.421700000000016
 31
0.0
  0
ARC
  5
1DA
  8
0
 62
     7
 10
133.87347199999999
 20
97.496893
 30
0.0
 40
0.161529
 50
332.26269000000002
 51
336.19866000000007
  0
ARC
  5
1DB
  8
0
 62
     7
 10
133.93982
 20
97.468533999999991
 30
0.0
 40
0.089382
 50
335.66753899999998
 51
343.22037499999999
  0
ARC
  5
1DC
  8
0
 62
     7
 10
133.98878300000001
 20
97.460677000000004
 30
0.0
 40
0.040776
 50
333.88807300000002
 51
349.24203399999999
  0
ARC
  5
1DD
  8
0
 62
     7
 10
133.94382300000001
 20
97.485685000000004
 30
0.0
 40
0.091062
 50
339.00989099999998
 51
346.28206399999999
  0
ARC
  5
1DE
  8
0
 62
     7
 10
134.50875400000001
 20
97.338025999999999
 30
0.0
 40
0.492862
 50
163.97539499999999
 51
165.18024600000001
  0
ARC
  5
1DF
  8
0
 62
     7
 10
134.356144
 20
97.412855000000008
 30
0.0
 40
0.326885
 50
167.41644600000001
 51
169.204779
  0
ARC
  5
1E0
  8
0
 62
     7
 10
133.91264099999989
 20
97.505228999999986
 30
0.0
 40
0.126255
 50
350.35321599999997
 51
355.39675299999999
  0
ARC
  5
1E1
  8
0
 62
     7
 10
134.002926
 20
97.505097000000006
 30
0.0
 40
0.036942
 50
344.29252000000002
 51
0.518195
  0
LINE
  5
1E2
  8
0
 62
     7
 10
132.714
 20
97.281199999999998
 30
0.0
 11
132.922
 21
97.282200000000003
 31
0.0
  0
LINE
  5
1E3
  8
0
 62
     7
 10
132.922
 20
97.282200000000003
 30
0.0
 11
133.126
 21
97.281199999999998
 31
0.0
  0
LINE
  5
1E4
  8
0
 62
     7
 10
133.126
 20
97.281199999999998
 30
0.0
 11
133.245
 21
97.281199999999998
 31
0.0
  0
LINE
  5
1E5
  8
0
 62
     7
 10
133.245
 20
97.281199999999998
 30
0.0
 11
133.36199999999999
 21
97.281199999999998
 31
0.0
  0
LINE
  5
1E6
  8
0
 62
     7
 10
133.36199999999999
 20
97.281199999999998
 30
0.0
 11
133.476
 21
97.280100000000004
 31
0.0
  0
LINE
  5
1E7
  8
0
 62
     7
 10
133.476
 20
97.280100000000004
 30
0.0
 11
133.524
 21
97.280100000000004
 31
0.0
  0
LINE
  5
1E8
  8
0
 62
     7
 10
133.524
 20
97.280100000000004
 30
0.0
 11
133.5679999999999
 21
97.280100000000004
 31
0.0
  0
LINE
  5
1E9
  8
0
 62
     7
 10
133.5679999999999
 20
97.280100000000004
 30
0.0
 11
133.61099999999999
 21
97.280100000000004
 31
0.0
  0
LINE
  5
1EA
  8
0
 62
     7
 10
133.61099999999999
 20
97.280100000000004
 30
0.0
 11
133.64099999999999
 21
97.280100000000004
 31
0.0
  0
LINE
  5
1EB
  8
0
 62
     7
 10
133.64099999999999
 20
97.280100000000004
 30
0.0
 11
133.667
 21
97.281199999999998
 31
0.0
  0
LINE
  5
1EC
  8
0
 62
     7
 10
133.667
 20
97.281199999999998
 30
0.0
 11
133.691
 21
97.281199999999998
 31
0.0
  0
LINE
  5
1ED
  8
0
 62
     7
 10
133.691
 20
97.281199999999998
 30
0.0
 11
133.71299999999999
 21
97.281199999999998
 31
0.0
  0
LINE
  5
1EE
  8
0
 62
     7
 10
133.71299999999999
 20
97.281199999999998
 30
0.0
 11
133.732
 21
97.281199999999998
 31
0.0
  0
LINE
  5
1EF
  8
0
 62
     7
 10
133.732
 20
97.281199999999998
 30
0.0
 11
133.749
 21
97.281199999999998
 31
0.0
  0
LINE
  5
1F0
  8
0
 62
     7
 10
133.749
 20
97.281199999999998
 30
0.0
 11
133.76400000000001
 21
97.281199999999998
 31
0.0
  0
LINE
  5
1F1
  8
0
 62
     7
 10
133.76400000000001
 20
97.281199999999998
 30
0.0
 11
133.77600000000001
 21
97.281199999999998
 31
0.0
  0
LINE
  5
1F2
  8
0
 62
     7
 10
133.77600000000001
 20
97.281199999999998
 30
0.0
 11
133.786
 21
97.281199999999998
 31
0.0
  0
LINE
  5
1F3
  8
0
 62
     7
 10
133.786
 20
97.281199999999998
 30
0.0
 11
133.79300000000001
 21
97.281199999999998
 31
0.0
  0
LINE
  5
1F4
  8
0
 62
     7
 10
133.79300000000001
 20
97.281199999999998
 30
0.0
 11
133.797
 21
97.280100000000004
 31
0.0
  0
LINE
  5
1F5
  8
0
 62
     7
 10
133.797
 20
97.280100000000004
 30
0.0
 11
133.80000000000001
 21
97.280100000000004
 31
0.0
  0
ARC
  5
1F6
  8
0
 62
     7
 10
128.06164799999999
 20
222.86148600000001
 30
0.0
 40
125.57921899999999
 50
269.52039300000001
 51
269.82140600000002
  0
ARC
  5
1F7
  8
0
 62
     7
 10
127.101422
 20
-167.336657
 30
0.0
 40
264.62014499999998
 50
89.710942000000017
 51
89.876839999999987
  0
ARC
  5
1F8
  8
0
 62
     7
 10
129.440573
 20
372.13197400000001
 30
0.0
 40
274.85368799999998
 50
269.79067700000002
 51
269.94831499999998
  0
ARC
  5
1F9
  8
0
 62
     7
 10
129.72692799999999
 20
226.49302299999999
 30
0.0
 40
129.21572900000001
 50
269.76307600000001
 51
270.06019600000002
  0
LINE
  5
1FA
  8
0
 62
     7
 10
129.863
 20
97.2774
 30
0.0
 11
130.642
 21
97.2774
 31
0.0
  0
LINE
  5
1FB
  8
0
 62
     7
 10
130.642
 20
97.2774
 30
0.0
 11
131.28899999999999
 21
97.2774
 31
0.0
  0
LINE
  5
1FC
  8
0
 62
     7
 10
131.28899999999999
 20
97.2774
 30
0.0
 11
132.072
 21
97.279399999999995
 31
0.0
  0
ARC
  5
1FD
  8
0
 62
     7
 10
132.92348000000001
 20
-100.615497
 30
0.0
 40
197.896762
 50
90.060586000000015
 51
90.246610000000004
  0
ARC
  5
1FE
  8
0
 62
     7
 10
126.791774
 20
97.511865999999998
 30
0.0
 40
0.06142
 50
180.8601219999999
 51
190.561103
  0
ARC
  5
1FF
  8
0
 62
     7
 10
126.879014
 20
97.520915999999986
 30
0.0
 40
0.149009
 50
187.83291199999999
 51
191.73194000000001
  0
LINE
  5
200
  8
0
 62
     7
 10
126.733
 20
97.490600000000001
 30
0.0
 11
126.736
 21
97.479600000000005
 31
0.0
  0
ARC
  5
201
  8
0
 62
     7
 10
126.84504800000001
 20
97.501116000000025
 30
0.0
 40
0.111614
 50
191.118292
 51
196.95423199999999
  0
ARC
  5
202
  8
0
 62
     7
 10
126.818031
 20
97.487841000000003
 30
0.0
 40
0.082042
 50
193.586206
 51
200.896749
  0
ARC
  5
203
  8
0
 62
     7
 10
126.834279
 20
97.484347
 30
0.0
 40
0.096402
 50
195.50402199999999
 51
202.43682899999999
  0
LINE
  5
204
  8
0
 62
     7
 10
126.745
 20
97.447599999999994
 30
0.0
 11
126.749
 21
97.437200000000004
 31
0.0
  0
ARC
  5
205
  8
0
 62
     7
 10
126.57489200000001
 20
97.354343000000014
 30
0.0
 40
0.193105
 50
21.843906
 51
25.414843999999999
  0
ARC
  5
206
  8
0
 62
     7
 10
126.74437
 20
97.417098999999993
 30
0.0
 40
0.013343
 50
20.242273999999998
 51
42.972723999999992
  0
ARC
  5
207
  8
0
 62
     7
 10
126.720614
 20
97.400133000000011
 30
0.0
 40
0.042209
 50
22.378565999999999
 51
30.751531
  0
ARC
  5
208
  8
0
 62
     7
 10
126.78577300000001
 20
97.429193999999995
 30
0.0
 40
0.02918
 50
206.437659
 51
216.777378
  0
ARC
  5
209
  8
0
 62
     7
 10
126.691627
 20
97.372892000000007
 30
0.0
 40
0.080727
 50
24.377503000000001
 51
28.752593999999998
  0
LINE
  5
20A
  8
0
 62
     7
 10
126.765
 20
97.406199999999984
 30
0.0
 11
126.76900000000001
 21
97.401399999999995
 31
0.0
  0
ARC
  5
20B
  8
0
 62
     7
 10
126.937166
 20
97.492578000000023
 30
0.0
 40
0.191649
 50
208.41234800000001
 51
210.303192
  0
ARC
  5
20C
  8
0
 62
     7
 10
126.763631
 20
97.386976000000004
 30
0.0
 40
0.012015
 50
21.593526000000001
 51
47.796773000000002
  0
LINE
  5
20D
  8
0
 62
     7
 10
126.77500000000001
 20
97.391400000000004
 30
0.0
 11
126.779
 21
97.386899999999997
 31
0.0
  0
ARC
  5
20E
  8
0
 62
     7
 10
126.794605
 20
97.395600000000002
 30
0.0
 40
0.018213
 50
208.46303900000001
 51
227.85144600000001
  0
ARC
  5
20F
  8
0
 62
     7
 10
126.798689
 20
97.391075000000015
 30
0.0
 40
0.018615
 50
208.83923999999999
 51
226.29797500000001
  0
ARC
  5
210
  8
0
 62
     7
 10
126.798159
 20
97.384209000000013
 30
0.0
 40
0.013983
 50
208.12634399999999
 51
232.34640300000001
  0
ARC
  5
211
  8
0
 62
     7
 10
126.806192
 20
97.38316300000001
 30
0.0
 40
0.019371
 50
211.16380100000001
 51
230.03881899999999
  0
LINE
  5
212
  8
0
 62
     7
 10
126.794
 20
97.368300000000005
 30
0.0
 11
126.798
 21
97.363799999999998
 31
0.0
  0
ARC
  5
213
  8
0
 62
     7
 10
126.77469499999999
 20
97.338282999999976
 30
0.0
 40
0.034508
 50
37.642760000000003
 51
47.77601099999999
  0
LINE
  5
214
  8
0
 62
     7
 10
126.80200000000001
 20
97.359399999999994
 30
0.0
 11
126.806
 21
97.355599999999995
 31
0.0
  0
LINE
  5
215
  8
0
 62
     7
 10
126.806
 20
97.355599999999995
 30
0.0
 11
126.81100000000001
 21
97.351100000000002
 31
0.0
  0
ARC
  5
216
  8
0
 62
     7
 10
126.80048600000001
 20
97.335871000000012
 30
0.0
 40
0.018291
 50
38.671010000000003
 51
56.308086000000003
  0
ARC
  5
217
  8
0
 62
     7
 10
126.72343499999999
 20
97.226095999999998
 30
0.0
 40
0.151763
 50
50.684820000000009
 51
53.00071599999999
  0
ARC
  5
218
  8
0
 62
     7
 10
126.83125099999999
 20
97.354035999999994
 30
0.0
 40
0.015709
 50
222.07042799999999
 51
242.792416
  0
ARC
  5
219
  8
0
 62
     7
 10
126.835964
 20
97.350868999999975
 30
0.0
 40
0.016069
 50
222.24421000000001
 51
245.248142
  0
LINE
  5
21A
  8
0
 62
     7
 10
126.82899999999999
 20
97.336299999999994
 30
0.0
 11
126.834
 21
97.332499999999996
 31
0.0
  0
ARC
  5
21B
  8
0
 62
     7
 10
126.813213
 20
97.296134999999992
 30
0.0
 40
0.041734
 50
52.042693999999997
 51
60.577157999999997
  0
LINE
  5
21C
  8
0
 62
     7
 10
126.839
 20
97.328999999999994
 30
0.0
 11
126.84399999999999
 21
97.326300000000003
 31
0.0
  0
ARC
  5
21D
  8
0
 62
     7
 10
126.871369
 20
97.358590000000007
 30
0.0
 40
0.04253
 50
229.42553899999999
 51
238.066813
  0
LINE
  5
21E
  8
0
 62
     7
 10
126.849
 20
97.322500000000005
 30
0.0
 11
126.854
 21
97.319699999999997
 31
0.0
  0
LINE
  5
21F
  8
0
 62
     7
 10
126.854
 20
97.319699999999997
 30
0.0
 11
126.85899999999999
 21
97.317000000000007
 31
0.0
  0
LINE
  5
220
  8
0
 62
     7
 10
126.85899999999999
 20
97.317000000000007
 30
0.0
 11
126.864
 21
97.314199999999985
 31
0.0
  0
LINE
  5
221
  8
0
 62
     7
 10
126.864
 20
97.314199999999985
 30
0.0
 11
126.87
 21
97.311499999999995
 31
0.0
  0
LINE
  5
222
  8
0
 62
     7
 10
126.87
 20
97.311499999999995
 30
0.0
 11
126.875
 21
97.308700000000016
 31
0.0
  0
LINE
  5
223
  8
0
 62
     7
 10
126.875
 20
97.308700000000016
 30
0.0
 11
126.88
 21
97.307000000000002
 31
0.0
  0
LINE
  5
224
  8
0
 62
     7
 10
126.88
 20
97.307000000000002
 30
0.0
 11
126.886
 21
97.304199999999994
 31
0.0
  0
LINE
  5
225
  8
0
 62
     7
 10
126.886
 20
97.304199999999994
 30
0.0
 11
126.89100000000001
 21
97.302199999999999
 31
0.0
  0
LINE
  5
226
  8
0
 62
     7
 10
126.89100000000001
 20
97.302199999999999
 30
0.0
 11
126.902
 21
97.298699999999997
 31
0.0
  0
ARC
  5
227
  8
0
 62
     7
 10
126.983566
 20
97.519288000000003
 30
0.0
 40
0.235308
 50
249.61019400000001
 51
252.44901400000001
  0
LINE
  5
228
  8
0
 62
     7
 10
126.913
 20
97.294899999999998
 30
0.0
 11
126.92400000000001
 21
97.292199999999994
 31
0.0
  0
LINE
  5
229
  8
0
 62
     7
 10
126.92400000000001
 20
97.292199999999994
 30
0.0
 11
126.934
 21
97.290499999999994
 31
0.0
  0
LINE
  5
22A
  8
0
 62
     7
 10
126.934
 20
97.290499999999994
 30
0.0
 11
126.94499999999999
 21
97.288399999999996
 31
0.0
  0
LINE
  5
22B
  8
0
 62
     7
 10
126.94499999999999
 20
97.288399999999996
 30
0.0
 11
126.956
 21
97.287700000000001
 31
0.0
  0
LINE
  5
22C
  8
0
 62
     7
 10
126.956
 20
97.287700000000001
 30
0.0
 11
126.967
 21
97.28670000000001
 31
0.0
  0
LINE
  5
22D
  8
0
 62
     7
 10
126.967
 20
97.28670000000001
 30
0.0
 11
126.977
 21
97.28670000000001
 31
0.0
  0
ARC
  5
22E
  8
0
 62
     7
 10
134.09792899999999
 20
96.794556
 30
0.0
 40
0.468551
 50
106.291999
 51
108.543919
  0
LINE
  5
22F
  8
0
 62
     7
 10
133.96600000000001
 20
97.244299999999996
 30
0.0
 11
133.983
 21
97.251900000000006
 31
0.0
  0
ARC
  5
230
  8
0
 62
     7
 10
133.68594300000001
 20
97.815177000000006
 30
0.0
 40
0.6370040000000001
 50
297.83390200000002
 51
299.38703099999998
  0
ARC
  5
231
  8
0
 62
     7
 10
133.952754
 20
97.354580000000013
 30
0.0
 40
0.104948
 50
295.85758600000003
 51
306.42037199999999
  0
LINE
  5
232
  8
0
 62
     7
 10
134.01499999999999
 20
97.270099999999985
 30
0.0
 11
134.03100000000001
 21
97.281199999999998
 31
0.0
  0
LINE
  5
233
  8
0
 62
     7
 10
134.03100000000001
 20
97.281199999999998
 30
0.0
 11
134.04400000000001
 21
97.292199999999994
 31
0.0
  0
ARC
  5
234
  8
0
 62
     7
 10
133.84282899999999
 20
97.517895999999993
 30
0.0
 40
0.302355
 50
311.70922999999999
 51
315.49641800000001
  0
LINE
  5
235
  8
0
 62
     7
 10
134.05799999999999
 20
97.305999999999997
 30
0.0
 11
134.06899999999999
 21
97.318700000000007
 31
0.0
  0
ARC
  5
236
  8
0
 62
     7
 10
133.874154
 20
97.479015000000004
 30
0.0
 40
0.252699
 50
320.62545
 51
329.04168600000003
  0
ARC
  5
237
  8
0
 62
     7
 10
133.853084
 20
97.490852000000004
 30
0.0
 40
0.276858
 50
329.184147
 51
336.71466500000002
  0
LINE
  5
238
  8
0
 62
     7
 10
134.107
 20
97.381400000000014
 30
0.0
 11
134.114
 21
97.397900000000007
 31
0.0
  0
ARC
  5
239
  8
0
 62
     7
 10
133.985006
 20
97.446724000000003
 30
0.0
 40
0.137527
 50
339.22539499999999
 51
347.177865
  0
ARC
  5
23A
  8
0
 62
     7
 10
133.941092
 20
97.461916000000016
 30
0.0
 40
0.183787
 50
345.597803
 51
350.86562199999997
  0
ARC
  5
23B
  8
0
 62
     7
 10
133.97039599999999
 20
97.464318999999989
 30
0.0
 40
0.155396
 50
348.27474899999999
 51
355.46504800000002
  0
ARC
  5
23C
  8
0
 62
     7
 10
117.528235
 20
99.171506000000008
 30
0.0
 40
16.685903
 50
354.08519799999999
 51
5.5841589999999988
  0
ARC
  5
23D
  8
0
 62
     7
 10
117.488755
 20
99.169022999999996
 30
0.0
 40
16.634506999999999
 50
354.26034099999998
 51
5.2953650000000003
  0
ARC
  5
23E
  8
0
 62
     7
 10
130.380807
 20
109.14127000000001
 30
0.0
 40
12.425807000000001
 50
253.312423
 51
286.68759599999998
  0
ARC
  5
23F
  8
0
 62
     7
 10
130.38097999999999
 20
-148.65742700000001
 30
0.0
 40
249.70221900000001
 50
89.194874999999996
 51
90.805106000000009
  0
ARC
  5
240
  8
0
 62
     7
 10
194.08545899999999
 20
94.500963999999996
 30
0.0
 40
67.751455000000007
 50
174.669432
 51
174.82537400000001
  0
ARC
  5
241
  8
0
 62
     7
 10
-60.885033999999997
 20
78.942266000000004
 30
0.0
 40
188.43265600000001
 50
5.6372619999999998
 51
5.6861069999999989
  0
ARC
  5
242
  8
0
 62
     7
 10
143.268913
 20
99.169168999999997
 30
0.0
 40
16.621475
 50
174.733158
 51
185.72560300000001
  0
LINE
  5
243
  8
0
 62
     7
 10
126.7
 20
100.61199999999999
 30
0.0
 11
34.051200000000001
 21
100.61199999999999
 31
0.0
  0
LINE
  5
244
  8
0
 62
     7
 10
126.711
 20
97.611900000000006
 30
0.0
 11
34.040500000000002
 21
97.611900000000006
 31
0.0
  0
LINE
  5
245
  8
0
 62
     7
 10
29.938800000000001
 20
96.833600000000004
 30
0.0
 11
29.940100000000001
 21
96.835700000000017
 31
0.0
  0
LINE
  5
246
  8
0
 62
     7
 10
29.940100000000001
 20
96.835700000000017
 30
0.0
 11
29.943200000000001
 21
96.836399999999998
 31
0.0
  0
LINE
  5
247
  8
0
 62
     7
 10
29.943200000000001
 20
96.836399999999998
 30
0.0
 11
29.9498
 21
96.838499999999996
 31
0.0
  0
LINE
  5
248
  8
0
 62
     7
 10
29.9498
 20
96.838499999999996
 30
0.0
 11
29.9574
 21
96.839100000000002
 31
0.0
  0
LINE
  5
249
  8
0
 62
     7
 10
29.9574
 20
96.839100000000002
 30
0.0
 11
29.973199999999999
 21
96.841200000000001
 31
0.0
  0
LINE
  5
24A
  8
0
 62
     7
 10
29.973199999999999
 20
96.841200000000001
 30
0.0
 11
29.991800000000001
 21
96.841899999999995
 31
0.0
  0
LINE
  5
24B
  8
0
 62
     7
 10
29.991800000000001
 20
96.841899999999995
 30
0.0
 11
30.013200000000001
 21
96.843999999999994
 31
0.0
  0
LINE
  5
24C
  8
0
 62
     7
 10
30.013200000000001
 20
96.843999999999994
 30
0.0
 11
30.031099999999999
 21
96.844700000000003
 31
0.0
  0
LINE
  5
24D
  8
0
 62
     7
 10
30.031099999999999
 20
96.844700000000003
 30
0.0
 11
30.052099999999999
 21
96.844700000000003
 31
0.0
  0
LINE
  5
24E
  8
0
 62
     7
 10
30.052099999999999
 20
96.844700000000003
 30
0.0
 11
30.076599999999999
 21
96.845699999999994
 31
0.0
  0
LINE
  5
24F
  8
0
 62
     7
 10
30.076599999999999
 20
96.845699999999994
 30
0.0
 11
30.104099999999999
 21
96.846699999999998
 31
0.0
  0
LINE
  5
250
  8
0
 62
     7
 10
30.104099999999999
 20
96.846699999999998
 30
0.0
 11
30.1358
 21
96.847399999999993
 31
0.0
  0
LINE
  5
251
  8
0
 62
     7
 10
30.1358
 20
96.847399999999993
 30
0.0
 11
30.171600000000002
 21
96.847399999999993
 31
0.0
  0
LINE
  5
252
  8
0
 62
     7
 10
30.171600000000002
 20
96.847399999999993
 30
0.0
 11
30.2027
 21
96.848400000000012
 31
0.0
  0
LINE
  5
253
  8
0
 62
     7
 10
30.2027
 20
96.848400000000012
 30
0.0
 11
30.234000000000002
 21
96.848400000000012
 31
0.0
  0
LINE
  5
254
  8
0
 62
     7
 10
30.234000000000002
 20
96.848400000000012
 30
0.0
 11
30.264299999999999
 21
96.848400000000012
 31
0.0
  0
LINE
  5
255
  8
0
 62
     7
 10
30.264299999999999
 20
96.848400000000012
 30
0.0
 11
30.292899999999999
 21
96.848400000000012
 31
0.0
  0
LINE
  5
256
  8
0
 62
     7
 10
30.292899999999999
 20
96.848400000000012
 30
0.0
 11
30.319400000000002
 21
96.848400000000012
 31
0.0
  0
LINE
  5
257
  8
0
 62
     7
 10
30.319400000000002
 20
96.848400000000012
 30
0.0
 11
30.3432
 21
96.849500000000006
 31
0.0
  0
LINE
  5
258
  8
0
 62
     7
 10
30.3432
 20
96.849500000000006
 30
0.0
 11
30.363499999999998
 21
96.849500000000006
 31
0.0
  0
LINE
  5
259
  8
0
 62
     7
 10
30.363499999999998
 20
96.849500000000006
 30
0.0
 11
30.380099999999999
 21
96.849500000000006
 31
0.0
  0
LINE
  5
25A
  8
0
 62
     7
 10
30.380099999999999
 20
96.849500000000006
 30
0.0
 11
30.430700000000002
 21
96.849500000000006
 31
0.0
  0
LINE
  5
25B
  8
0
 62
     7
 10
30.430700000000002
 20
96.849500000000006
 30
0.0
 11
30.4834
 21
96.848400000000012
 31
0.0
  0
LINE
  5
25C
  8
0
 62
     7
 10
30.4834
 20
96.848400000000012
 30
0.0
 11
30.536799999999999
 21
96.848400000000012
 31
0.0
  0
LINE
  5
25D
  8
0
 62
     7
 10
30.536799999999999
 20
96.848400000000012
 30
0.0
 11
30.589200000000002
 21
96.847399999999993
 31
0.0
  0
LINE
  5
25E
  8
0
 62
     7
 10
30.589200000000002
 20
96.847399999999993
 30
0.0
 11
30.625
 21
96.847399999999993
 31
0.0
  0
LINE
  5
25F
  8
0
 62
     7
 10
30.625
 20
96.847399999999993
 30
0.0
 11
30.656700000000001
 21
96.846699999999998
 31
0.0
  0
LINE
  5
260
  8
0
 62
     7
 10
30.656700000000001
 20
96.846699999999998
 30
0.0
 11
30.6843
 21
96.845699999999994
 31
0.0
  0
LINE
  5
261
  8
0
 62
     7
 10
30.6843
 20
96.845699999999994
 30
0.0
 11
30.708400000000001
 21
96.844700000000003
 31
0.0
  0
LINE
  5
262
  8
0
 62
     7
 10
30.708400000000001
 20
96.844700000000003
 30
0.0
 11
30.729800000000001
 21
96.844700000000003
 31
0.0
  0
LINE
  5
263
  8
0
 62
     7
 10
30.729800000000001
 20
96.844700000000003
 30
0.0
 11
30.747699999999998
 21
96.843999999999994
 31
0.0
  0
LINE
  5
264
  8
0
 62
     7
 10
30.747699999999998
 20
96.843999999999994
 30
0.0
 11
30.768699999999999
 21
96.841899999999995
 31
0.0
  0
LINE
  5
265
  8
0
 62
     7
 10
30.768699999999999
 20
96.841899999999995
 30
0.0
 11
30.787600000000001
 21
96.841200000000001
 31
0.0
  0
LINE
  5
266
  8
0
 62
     7
 10
30.787600000000001
 20
96.841200000000001
 30
0.0
 11
30.803100000000001
 21
96.839100000000002
 31
0.0
  0
LINE
  5
267
  8
0
 62
     7
 10
30.803100000000001
 20
96.839100000000002
 30
0.0
 11
30.8111
 21
96.838499999999996
 31
0.0
  0
LINE
  5
268
  8
0
 62
     7
 10
30.8111
 20
96.838499999999996
 30
0.0
 11
30.817299999999999
 21
96.836399999999998
 31
0.0
  0
LINE
  5
269
  8
0
 62
     7
 10
30.817299999999999
 20
96.836399999999998
 30
0.0
 11
30.820699999999999
 21
96.835700000000017
 31
0.0
  0
LINE
  5
26A
  8
0
 62
     7
 10
30.820699999999999
 20
96.835700000000017
 30
0.0
 11
30.822099999999999
 21
96.833600000000004
 31
0.0
  0
ARC
  5
26B
  8
0
 62
     7
 10
30.800977
 20
96.849671000000015
 30
0.0
 40
0.026511
 50
314.85345699999999
 51
322.77470199999999
  0
ARC
  5
26C
  8
0
 62
     7
 10
30.811896999999998
 20
96.847132999999999
 30
0.0
 40
0.01802
 50
273.91872899999998
 51
295.56841400000002
  0
ARC
  5
26D
  8
0
 62
     7
 10
30.808820999999998
 20
96.837486999999996
 30
0.0
 40
0.00938
 50
266.85090700000001
 51
297.33862399999998
  0
ARC
  5
26E
  8
0
 62
     7
 10
30.795829000000001
 20
96.867304000000004
 30
0.0
 40
0.041121
 50
275.87396000000001
 51
287.66263599999991
  0
ARC
  5
26F
  8
0
 62
     7
 10
30.787201
 20
96.872998999999993
 30
0.0
 40
0.048336
 50
271.33121799999998
 51
285.40057300000001
  0
ARC
  5
270
  8
0
 62
     7
 10
30.686088999999999
 20
97.522717000000014
 30
0.0
 40
0.705488
 50
276.610859
 51
278.33227799999997
  0
ARC
  5
271
  8
0
 62
     7
 10
30.740154
 20
96.98558100000001
 30
0.0
 40
0.165898
 50
272.59724799999998
 51
279.42078199999997
  0
ARC
  5
272
  8
0
 62
     7
 10
31.161738
 20
93.280060000000006
 30
0.0
 40
3.5639279999999989
 50
96.671833000000007
 51
96.906094999999979
  0
ARC
  5
273
  8
0
 62
     7
 10
30.709811999999999
 20
96.968431999999993
 30
0.0
 40
0.15211
 50
271.93310000000002
 51
278.84554200000002
  0
LINE
  5
274
  8
0
 62
     7
 10
30.7149
 20
96.816400000000016
 30
0.0
 11
30.692900000000002
 21
96.815399999999997
 31
0.0
  0
ARC
  5
275
  8
0
 62
     7
 10
30.666730000000001
 20
96.998102000000003
 30
0.0
 40
0.184591
 50
272.24031500000001
 51
278.14856099999997
  0
LINE
  5
276
  8
0
 62
     7
 10
30.6739
 20
96.813700000000011
 30
0.0
 11
30.651900000000001
 21
96.812600000000003
 31
0.0
  0
ARC
  5
277
  8
0
 62
     7
 10
30.620412999999999
 20
97.091328000000004
 30
0.0
 40
0.280483
 50
271.08302300000003
 51
276.445066
  0
LINE
  5
278
  8
0
 62
     7
 10
30.625699999999998
 20
96.810900000000004
 30
0.0
 11
30.597799999999999
 21
96.809900000000013
 31
0.0
  0
ARC
  5
279
  8
0
 62
     7
 10
30.577867999999999
 20
96.984899999999996
 30
0.0
 40
0.17617
 50
268.08175899999998
 51
276.49948000000001
  0
ARC
  5
27A
  8
0
 62
     7
 10
30.555012999999999
 20
96.995710000000003
 30
0.0
 40
0.187649
 50
268.34002700000002
 51
275.184775
  0
ARC
  5
27B
  8
0
 62
     7
 10
30.423029
 20
100.215388
 30
0.0
 40
3.4095979999999999
 50
270.73716000000002
 51
272.12705199999999
  0
ARC
  5
27C
  8
0
 62
     7
 10
30.400822000000002
 20
99.671710000000004
 30
0.0
 40
2.8663989999999999
 50
269.592241
 51
271.32083900000009
  0
ARC
  5
27D
  8
0
 62
     7
 10
30.378709000000011
 20
102.10195
 30
0.0
 40
5.2965669999999987
 50
269.07563199999998
 51
270.01854400000002
  0
ARC
  5
27E
  8
0
 62
     7
 10
30.291667
 20
98.383533999999997
 30
0.0
 40
1.5774629999999989
 50
267.06595900000002
 51
270.05788999999999
  0
LINE
  5
27F
  8
0
 62
     7
 10
30.210899999999999
 20
96.80810000000001
 30
0.0
 11
30.172000000000001
 21
96.808800000000005
 31
0.0
  0
ARC
  5
280
  8
0
 62
     7
 10
30.119519
 20
96.200203000000002
 30
0.0
 40
0.610883
 50
85.072331999999989
 51
88.567987999999986
  0
ARC
  5
281
  8
0
 62
     7
 10
30.054281
 20
95.537005000000008
 30
0.0
 40
1.276432
 50
86.383954000000003
 51
87.947805000000017
  0
LINE
  5
282
  8
0
 62
     7
 10
30.100000000000001
 20
96.812600000000003
 30
0.0
 11
30.067599999999999
 21
96.815399999999997
 31
0.0
  0
ARC
  5
283
  8
0
 62
     7
 10
30.066223999999998
 20
96.916199000000006
 30
0.0
 40
0.100835
 50
261.75196299999999
 51
270.78526399999998
  0
ARC
  5
284
  8
0
 62
     7
 10
30.051967000000001
 20
96.923780000000008
 30
0.0
 40
0.107372
 50
259.72252400000002
 51
269.88863900000001
  0
ARC
  5
285
  8
0
 62
     7
 10
30.034199999999998
 20
96.946767000000023
 30
0.0
 40
0.128644
 50
260.59277600000001
 51
269.38101699999999
  0
ARC
  5
286
  8
0
 62
     7
 10
30.01418
 20
96.949223000000003
 30
0.0
 40
0.129374
 50
259.73440299999999
 51
269.553968
  0
ARC
  5
287
  8
0
 62
     7
 10
30.019157
 20
97.081160999999994
 30
0.0
 40
0.260753
 50
259.619978
 51
263.82825800000001
  0
ARC
  5
288
  8
0
 62
     7
 10
29.97306
 20
96.884835999999993
 30
0.0
 40
0.060167
 50
256.23076099999997
 51
269.15774099999999
  0
ARC
  5
289
  8
0
 62
     7
 10
29.914487000000001
 20
96.664591999999999
 30
0.0
 40
0.167749
 50
74.704008000000002
 51
78.814934999999991
  0
ARC
  5
28A
  8
0
 62
     7
 10
29.949998000000001
 20
96.851878000000013
 30
0.0
 40
0.022916
 50
246.40347
 51
262.54833100000002
  0
LINE
  5
28B
  8
0
 62
     7
 10
29.940799999999999
 20
96.830899999999986
 30
0.0
 11
29.938800000000001
 21
96.833600000000004
 31
0.0
  0
LINE
  5
28C
  8
0
 62
     7
 10
34.046700000000001
 20
97.558499999999995
 30
0.0
 11
34.046700000000001
 21
97.555700000000002
 31
0.0
  0
LINE
  5
28D
  8
0
 62
     7
 10
34.046700000000001
 20
97.555700000000002
 30
0.0
 11
34.046700000000001
 21
97.554000000000016
 31
0.0
  0
LINE
  5
28E
  8
0
 62
     7
 10
34.046700000000001
 20
97.554000000000016
 30
0.0
 11
34.046700000000001
 21
97.551300000000012
 31
0.0
  0
LINE
  5
28F
  8
0
 62
     7
 10
34.046700000000001
 20
97.551300000000012
 30
0.0
 11
34.045999999999999
 21
97.548500000000004
 31
0.0
  0
LINE
  5
290
  8
0
 62
     7
 10
34.045999999999999
 20
97.548500000000004
 30
0.0
 11
34.045999999999999
 21
97.546800000000005
 31
0.0
  0
LINE
  5
291
  8
0
 62
     7
 10
34.045999999999999
 20
97.546800000000005
 30
0.0
 11
34.045999999999999
 21
97.543999999999997
 31
0.0
  0
LINE
  5
292
  8
0
 62
     7
 10
34.045999999999999
 20
97.543999999999997
 30
0.0
 11
34.045999999999999
 21
97.543000000000006
 31
0.0
  0
LINE
  5
293
  8
0
 62
     7
 10
34.045999999999999
 20
97.543000000000006
 30
0.0
 11
34.045999999999999
 21
97.541900000000012
 31
0.0
  0
LINE
  5
294
  8
0
 62
     7
 10
34.045999999999999
 20
97.541900000000012
 30
0.0
 11
34.045999999999999
 21
97.541300000000007
 31
0.0
  0
LINE
  5
295
  8
0
 62
     7
 10
34.045999999999999
 20
97.541300000000007
 30
0.0
 11
34.045999999999999
 21
97.539199999999994
 31
0.0
  0
LINE
  5
296
  8
0
 62
     7
 10
34.045999999999999
 20
97.539199999999994
 30
0.0
 11
34.045999999999999
 21
97.538499999999985
 31
0.0
  0
LINE
  5
297
  8
0
 62
     7
 10
34.045999999999999
 20
97.538499999999985
 30
0.0
 11
34.045999999999999
 21
97.537499999999994
 31
0.0
  0
ARC
  5
298
  8
0
 62
     7
 10
26.960246000000001
 20
97.319901000000002
 30
0.0
 40
0.039799
 50
256.791426
 51
271.78740900000003
  0
ARC
  5
299
  8
0
 62
     7
 10
26.949915000000001
 20
97.320972999999995
 30
0.0
 40
0.039838
 50
256.79885200000001
 51
271.77998300000002
  0
LINE
  5
29A
  8
0
 62
     7
 10
26.940799999999999
 20
97.282200000000003
 30
0.0
 11
26.930499999999999
 21
97.282900000000012
 31
0.0
  0
ARC
  5
29B
  8
0
 62
     7
 10
26.856926000000001
 20
97.019918000000004
 30
0.0
 40
0.273052
 50
74.372407999999993
 51
76.686987999999999
  0
ARC
  5
29C
  8
0
 62
     7
 10
26.920860000000001
 20
97.321706999999989
 30
0.0
 40
0.03609
 50
250.44055900000001
 51
268.320153
  0
ARC
  5
29D
  8
0
 62
     7
 10
26.927071000000002
 20
97.380656999999985
 30
0.0
 40
0.09474
 50
252.19260700000001
 51
258.866828
  0
ARC
  5
29E
  8
0
 62
     7
 10
26.880385
 20
97.254543999999996
 30
0.0
 40
0.040043
 50
63.746566999999999
 51
79.38351999999999
  0
ARC
  5
29F
  8
0
 62
     7
 10
26.921688
 20
97.406455000000008
 30
0.0
 40
0.117555
 50
247.70064300000001
 51
253.22607099999999
  0
ARC
  5
2A0
  8
0
 62
     7
 10
26.899370999999999
 20
97.345703999999998
 30
0.0
 40
0.052934
 50
238.756291
 51
245.09876199999999
  0
ARC
  5
2A1
  8
0
 62
     7
 10
26.858578999999999
 20
97.267453000000003
 30
0.0
 40
0.035587
 50
67.991897000000009
 51
77.300037000000003
  0
ARC
  5
2A2
  8
0
 62
     7
 10
26.827017000000001
 20
97.238844000000014
 30
0.0
 40
0.074574
 50
58.120618999999998
 51
62.38960500000001
  0
LINE
  5
2A3
  8
0
 62
     7
 10
26.861599999999999
 20
97.304900000000004
 30
0.0
 11
26.856400000000001
 21
97.307699999999997
 31
0.0
  0
ARC
  5
2A4
  8
0
 62
     7
 10
26.835222999999999
 20
97.272193999999999
 30
0.0
 40
0.041332
 50
59.159388000000007
 51
67.710494999999995
  0
ARC
  5
2A5
  8
0
 62
     7
 10
26.832094999999999
 20
97.284897999999998
 30
0.0
 40
0.031716
 50
53.636955000000022
 51
63.148027999999996
  0
LINE
  5
2A6
  8
0
 62
     7
 10
26.846399999999999
 20
97.313199999999995
 30
0.0
 11
26.8413
 21
97.315899999999999
 31
0.0
  0
ARC
  5
2A7
  8
0
 62
     7
 10
26.797419999999999
 20
97.239985000000004
 30
0.0
 40
0.087704
 50
60.014099999999992
 51
63.840912000000003
  0
ARC
  5
2A8
  8
0
 62
     7
 10
26.847887
 20
97.338690999999983
 30
0.0
 40
0.023209
 50
224.249325
 51
239.43625
  0
LINE
  5
2A9
  8
0
 62
     7
 10
26.831299999999999
 20
97.322500000000005
 30
0.0
 11
26.8264
 21
97.325299999999999
 31
0.0
  0
LINE
  5
2AA
  8
0
 62
     7
 10
26.8264
 20
97.325299999999999
 30
0.0
 11
26.8216
 21
97.328999999999994
 31
0.0
  0
ARC
  5
2AB
  8
0
 62
     7
 10
26.836369999999999
 20
97.354795999999993
 30
0.0
 40
0.029682
 50
228.73202599999999
 51
240.192646
  0
ARC
  5
2AC
  8
0
 62
     7
 10
26.837253000000011
 20
97.361208000000005
 30
0.0
 40
0.035263
 50
224.991951
 51
234.53536099999999
  0
ARC
  5
2AD
  8
0
 62
     7
 10
26.821736999999999
 20
97.351954000000021
 30
0.0
 40
0.018292
 50
220.535403
 51
238.99190899999999
  0
LINE
  5
2AE
  8
0
 62
     7
 10
26.8078
 20
97.340100000000007
 30
0.0
 11
26.803699999999999
 21
97.343500000000006
 31
0.0
  0
LINE
  5
2AF
  8
0
 62
     7
 10
26.803699999999999
 20
97.343500000000006
 30
0.0
 11
26.7989
 21
97.347300000000004
 31
0.0
  0
LINE
  5
2B0
  8
0
 62
     7
 10
26.7989
 20
97.347300000000004
 30
0.0
 11
26.794699999999999
 21
97.351799999999983
 31
0.0
  0
LINE
  5
2B1
  8
0
 62
     7
 10
26.794699999999999
 20
97.351799999999983
 30
0.0
 11
26.790600000000001
 21
97.355599999999995
 31
0.0
  0
LINE
  5
2B2
  8
0
 62
     7
 10
26.790600000000001
 20
97.355599999999995
 30
0.0
 11
26.7865
 21
97.359999999999999
 31
0.0
  0
ARC
  5
2B3
  8
0
 62
     7
 10
26.792873
 20
97.368258999999995
 30
0.0
 40
0.010409
 50
198.996623
 51
232.078765
  0
LINE
  5
2B4
  8
0
 62
     7
 10
26.783000000000001
 20
97.364900000000006
 30
0.0
 11
26.7789
 21
97.368300000000005
 31
0.0
  0
ARC
  5
2B5
  8
0
 62
     7
 10
26.766445999999998
 20
97.362433999999993
 30
0.0
 40
0.01377
 50
25.287727000000011
 51
51.02671800000001
  0
ARC
  5
2B6
  8
0
 62
     7
 10
26.76118
 20
97.365196999999995
 30
0.0
 40
0.016032
 50
29.69334400000001
 51
50.779364000000001
  0
ARC
  5
2B7
  8
0
 62
     7
 10
26.761035
 20
97.373812000000015
 30
0.0
 40
0.010964
 50
20.311153000000001
 51
49.079146999999999
  0
ARC
  5
2B8
  8
0
 62
     7
 10
26.751611
 20
97.372949000000006
 30
0.0
 40
0.018958
 50
28.847307000000001
 51
47.467136999999987
  0
ARC
  5
2B9
  8
0
 62
     7
 10
26.735548000000001
 20
97.374302999999983
 30
0.0
 40
0.031514
 50
23.598862
 51
35.116638999999999
  0
ARC
  5
2BA
  8
0
 62
     7
 10
26.884867
 20
97.481272000000004
 30
0.0
 40
0.152167
 50
213.66959300000011
 51
215.72074599999999
  0
ARC
  5
2BB
  8
0
 62
     7
 10
26.732097
 20
97.383918999999992
 30
0.0
 40
0.02918
 50
26.437639000000001
 51
36.777358
  0
ARC
  5
2BC
  8
0
 62
     7
 10
26.826243999999999
 20
97.440220999999994
 30
0.0
 40
0.080727
 50
204.377523
 51
208.752613
  0
ARC
  5
2BD
  8
0
 62
     7
 10
26.771767000000001
 20
97.420986999999997
 30
0.0
 40
0.023695
 50
203.01310599999999
 51
216.47668899999999
  0
ARC
  5
2BE
  8
0
 62
     7
 10
26.772563999999999
 20
97.426472000000004
 30
0.0
 40
0.026992
 50
200.00984
 51
213.120296
  0
ARC
  5
2BF
  8
0
 62
     7
 10
26.765231
 20
97.431418999999991
 30
0.0
 40
0.02294
 50
205.02572599999999
 51
218.189312
  0
ARC
  5
2C0
  8
0
 62
     7
 10
26.677265999999999
 20
97.395443
 30
0.0
 40
0.072134
 50
21.358927000000001
 51
30.179722000000002
  0
ARC
  5
2C1
  8
0
 62
     7
 10
26.290426
 20
97.269544999999994
 30
0.0
 40
0.47757
 50
19.849739
 51
21.262346999999998
  0
ARC
  5
2C2
  8
0
 62
     7
 10
26.807736999999999
 20
97.472555000000014
 30
0.0
 40
0.078163
 50
194.43876
 51
202.431174
  0
ARC
  5
2C3
  8
0
 62
     7
 10
27.77346
 20
97.784559000000002
 30
0.0
 40
1.0929029999999991
 50
197.05128099999999
 51
197.65680399999999
  0
ARC
  5
2C4
  8
0
 62
     7
 10
26.796489999999999
 20
97.483345999999983
 30
0.0
 40
0.070571
 50
187.54413099999999
 51
195.83464499999991
  0
ARC
  5
2C5
  8
0
 62
     7
 10
26.802972
 20
97.497819000000007
 30
0.0
 40
0.080042
 50
189.88940099999999
 51
197.25150500000001
  0
ARC
  5
2C6
  8
0
 62
     7
 10
26.781701000000002
 20
97.498716000000002
 30
0.0
 40
0.059414
 50
183.49261200000001
 51
194.268744
  0
ARC
  5
2C7
  8
0
 62
     7
 10
26.787989
 20
97.509101000000001
 30
0.0
 40
0.067071
 50
183.13656700000001
 51
192.05275700000001
  0
LINE
  5
2C8
  8
0
 62
     7
 10
28.046700000000001
 20
97.281199999999998
 30
0.0
 11
27.84
 21
97.282200000000003
 31
0.0
  0
LINE
  5
2C9
  8
0
 62
     7
 10
27.84
 20
97.282200000000003
 30
0.0
 11
27.635000000000002
 21
97.281199999999998
 31
0.0
  0
LINE
  5
2CA
  8
0
 62
     7
 10
27.635000000000002
 20
97.281199999999998
 30
0.0
 11
27.516500000000001
 21
97.281199999999998
 31
0.0
  0
LINE
  5
2CB
  8
0
 62
     7
 10
27.516500000000001
 20
97.281199999999998
 30
0.0
 11
27.399699999999999
 21
97.281199999999998
 31
0.0
  0
ARC
  5
2CC
  8
0
 62
     7
 10
27.316148999999999
 20
100.188456
 30
0.0
 40
2.9085019999999999
 50
269.38607300000001
 51
271.646275
  0
LINE
  5
2CD
  8
0
 62
     7
 10
27.285
 20
97.280100000000004
 30
0.0
 11
27.2378
 21
97.280100000000004
 31
0.0
  0
LINE
  5
2CE
  8
0
 62
     7
 10
27.2378
 20
97.280100000000004
 30
0.0
 11
27.192699999999999
 21
97.280100000000004
 31
0.0
  0
LINE
  5
2CF
  8
0
 62
     7
 10
27.192699999999999
 20
97.280100000000004
 30
0.0
 11
27.149899999999999
 21
97.280100000000004
 31
0.0
  0
LINE
  5
2D0
  8
0
 62
     7
 10
27.149899999999999
 20
97.280100000000004
 30
0.0
 11
27.120699999999999
 21
97.280100000000004
 31
0.0
  0
ARC
  5
2D1
  8
0
 62
     7
 10
27.118974999999999
 20
97.586356000000009
 30
0.0
 40
0.30624
 50
265.2809509999999
 51
270.313873
  0
LINE
  5
2D2
  8
0
 62
     7
 10
27.093800000000002
 20
97.281199999999998
 30
0.0
 11
27.07
 21
97.281199999999998
 31
0.0
  0
LINE
  5
2D3
  8
0
 62
     7
 10
27.07
 20
97.281199999999998
 30
0.0
 11
27.048999999999999
 21
97.281199999999998
 31
0.0
  0
LINE
  5
2D4
  8
0
 62
     7
 10
27.048999999999999
 20
97.281199999999998
 30
0.0
 11
27.029
 21
97.281199999999998
 31
0.0
  0
LINE
  5
2D5
  8
0
 62
     7
 10
27.029
 20
97.281199999999998
 30
0.0
 11
27.011800000000001
 21
97.281199999999998
 31
0.0
  0
LINE
  5
2D6
  8
0
 62
     7
 10
27.011800000000001
 20
97.281199999999998
 30
0.0
 11
26.997
 21
97.281199999999998
 31
0.0
  0
LINE
  5
2D7
  8
0
 62
     7
 10
26.997
 20
97.281199999999998
 30
0.0
 11
26.9849
 21
97.281199999999998
 31
0.0
  0
LINE
  5
2D8
  8
0
 62
     7
 10
26.9849
 20
97.281199999999998
 30
0.0
 11
26.975300000000001
 21
97.281199999999998
 31
0.0
  0
LINE
  5
2D9
  8
0
 62
     7
 10
26.975300000000001
 20
97.281199999999998
 30
0.0
 11
26.968
 21
97.281199999999998
 31
0.0
  0
ARC
  5
2DA
  8
0
 62
     7
 10
26.967407000000001
 20
97.273650000000004
 30
0.0
 40
0.007531
 50
85.225900999999993
 51
120.76330900000001
  0
LINE
  5
2DB
  8
0
 62
     7
 10
26.9636
 20
97.280100000000004
 30
0.0
 11
26.961500000000001
 21
97.280100000000004
 31
0.0
  0
LINE
  5
2DC
  8
0
 62
     7
 10
33.750399999999999
 20
97.28670000000001
 30
0.0
 11
33.751100000000001
 21
97.28670000000001
 31
0.0
  0
LINE
  5
2DD
  8
0
 62
     7
 10
33.751100000000001
 20
97.28670000000001
 30
0.0
 11
33.752499999999998
 21
97.28670000000001
 31
0.0
  0
LINE
  5
2DE
  8
0
 62
     7
 10
33.752499999999998
 20
97.28670000000001
 30
0.0
 11
33.753500000000003
 21
97.28670000000001
 31
0.0
  0
LINE
  5
2DF
  8
0
 62
     7
 10
33.753500000000003
 20
97.28670000000001
 30
0.0
 11
33.754899999999999
 21
97.28670000000001
 31
0.0
  0
LINE
  5
2E0
  8
0
 62
     7
 10
33.754899999999999
 20
97.28670000000001
 30
0.0
 11
33.75630000000001
 21
97.28670000000001
 31
0.0
  0
LINE
  5
2E1
  8
0
 62
     7
 10
33.75630000000001
 20
97.28670000000001
 30
0.0
 11
33.7577
 21
97.28670000000001
 31
0.0
  0
LINE
  5
2E2
  8
0
 62
     7
 10
33.7577
 20
97.28670000000001
 30
0.0
 11
33.759399999999999
 21
97.28670000000001
 31
0.0
  0
LINE
  5
2E3
  8
0
 62
     7
 10
33.759399999999999
 20
97.28670000000001
 30
0.0
 11
33.761499999999998
 21
97.28670000000001
 31
0.0
  0
LINE
  5
2E4
  8
0
 62
     7
 10
33.761499999999998
 20
97.28670000000001
 30
0.0
 11
33.763199999999998
 21
97.28670000000001
 31
0.0
  0
LINE
  5
2E5
  8
0
 62
     7
 10
33.763199999999998
 20
97.28670000000001
 30
0.0
 11
33.764899999999997
 21
97.28670000000001
 31
0.0
  0
LINE
  5
2E6
  8
0
 62
     7
 10
33.764899999999997
 20
97.28670000000001
 30
0.0
 11
33.767000000000003
 21
97.28670000000001
 31
0.0
  0
LINE
  5
2E7
  8
0
 62
     7
 10
33.767000000000003
 20
97.28670000000001
 30
0.0
 11
33.768700000000003
 21
97.28670000000001
 31
0.0
  0
LINE
  5
2E8
  8
0
 62
     7
 10
33.768700000000003
 20
97.28670000000001
 30
0.0
 11
33.770099999999999
 21
97.28670000000001
 31
0.0
  0
LINE
  5
2E9
  8
0
 62
     7
 10
33.770099999999999
 20
97.28670000000001
 30
0.0
 11
33.771099999999997
 21
97.28670000000001
 31
0.0
  0
LINE
  5
2EA
  8
0
 62
     7
 10
33.771099999999997
 20
97.28670000000001
 30
0.0
 11
33.772500000000001
 21
97.28670000000001
 31
0.0
  0
LINE
  5
2EB
  8
0
 62
     7
 10
33.772500000000001
 20
97.28670000000001
 30
0.0
 11
33.773200000000003
 21
97.28670000000001
 31
0.0
  0
LINE
  5
2EC
  8
0
 62
     7
 10
33.773200000000003
 20
97.28670000000001
 30
0.0
 11
33.773899999999998
 21
97.28670000000001
 31
0.0
  0
LINE
  5
2ED
  8
0
 62
     7
 10
33.773899999999998
 20
97.28670000000001
 30
0.0
 11
33.775599999999997
 21
97.28670000000001
 31
0.0
  0
LINE
  5
2EE
  8
0
 62
     7
 10
33.775599999999997
 20
97.28670000000001
 30
0.0
 11
33.776600000000002
 21
97.28670000000001
 31
0.0
  0
LINE
  5
2EF
  8
0
 62
     7
 10
33.776600000000002
 20
97.28670000000001
 30
0.0
 11
33.777999999999999
 21
97.28670000000001
 31
0.0
  0
LINE
  5
2F0
  8
0
 62
     7
 10
33.777999999999999
 20
97.28670000000001
 30
0.0
 11
33.778700000000001
 21
97.28670000000001
 31
0.0
  0
LINE
  5
2F1
  8
0
 62
     7
 10
33.778700000000001
 20
97.28670000000001
 30
0.0
 11
33.779699999999998
 21
97.28670000000001
 31
0.0
  0
LINE
  5
2F2
  8
0
 62
     7
 10
33.779699999999998
 20
97.28670000000001
 30
0.0
 11
33.780099999999997
 21
97.28670000000001
 31
0.0
  0
LINE
  5
2F3
  8
0
 62
     7
 10
33.780099999999997
 20
97.28670000000001
 30
0.0
 11
33.780799999999999
 21
97.28670000000001
 31
0.0
  0
LINE
  5
2F4
  8
0
 62
     7
 10
33.780799999999999
 20
97.28670000000001
 30
0.0
 11
33.781100000000002
 21
97.28670000000001
 31
0.0
  0
LINE
  5
2F5
  8
0
 62
     7
 10
33.781100000000002
 20
97.28670000000001
 30
0.0
 11
33.7821
 21
97.28670000000001
 31
0.0
  0
LINE
  5
2F6
  8
0
 62
     7
 10
33.7821
 20
97.28670000000001
 30
0.0
 11
33.782499999999999
 21
97.28670000000001
 31
0.0
  0
LINE
  5
2F7
  8
0
 62
     7
 10
33.782499999999999
 20
97.28670000000001
 30
0.0
 11
33.782800000000002
 21
97.28670000000001
 31
0.0
  0
LINE
  5
2F8
  8
0
 62
     7
 10
33.782800000000002
 20
97.28670000000001
 30
0.0
 11
33.783499999999997
 21
97.28670000000001
 31
0.0
  0
LINE
  5
2F9
  8
0
 62
     7
 10
33.783499999999997
 20
97.28670000000001
 30
0.0
 11
33.783900000000003
 21
97.28670000000001
 31
0.0
  0
ARC
  5
2FA
  8
0
 62
     7
 10
32.700988000000002
 20
222.52136300000001
 30
0.0
 40
125.23909399999999
 50
270.17845599999998
 51
270.48012899999998
  0
LINE
  5
2FB
  8
0
 62
     7
 10
33.091000000000001
 20
97.282900000000012
 30
0.0
 11
32.3245
 21
97.280100000000004
 31
0.0
  0
ARC
  5
2FC
  8
0
 62
     7
 10
31.381855000000002
 20
339.777017
 30
0.0
 40
242.498729
 50
270.0544799999999
 51
270.22273200000001
  0
ARC
  5
2FD
  8
0
 62
     7
 10
31.043316000000001
 20
243.813501
 30
0.0
 40
146.53620699999999
 50
269.94341300000002
 51
270.22252099999997
  0
ARC
  5
2FE
  8
0
 62
     7
 10
30.199725999999998
 20
800.83508999999992
 30
0.0
 40
703.55807300000004
 50
269.94309800000002
 51
270.0569220000001
  0
LINE
  5
2FF
  8
0
 62
     7
 10
29.500900000000001
 20
97.2774
 30
0.0
 11
28.046700000000001
 21
97.281199999999998
 31
0.0
  0
ARC
  5
300
  8
0
 62
     7
 10
33.827922999999998
 20
97.532743000000011
 30
0.0
 40
0.204113
 50
350.94176199999998
 51
353.86895299999998
  0
ARC
  5
301
  8
0
 62
     7
 10
33.979528000000002
 20
97.504078000000007
 30
0.0
 40
0.050082
 50
344.40842700000002
 51
356.02676100000002
  0
LINE
  5
302
  8
0
 62
     7
 10
34.027799999999999
 20
97.490600000000001
 30
0.0
 11
34.026000000000003
 21
97.479600000000005
 31
0.0
  0
ARC
  5
303
  8
0
 62
     7
 10
34.189990999999999
 20
97.432749999999999
 30
0.0
 40
0.170507
 50
164.05410499999999
 51
167.87337099999999
  0
ARC
  5
304
  8
0
 62
     7
 10
34.182994999999998
 20
97.407907999999992
 30
0.0
 40
0.170838
 50
159.20191700000001
 51
162.746836
  0
ARC
  5
305
  8
0
 62
     7
 10
33.570647999999998
 20
97.620739
 30
0.0
 40
0.47757
 50
338.73765300000002
 51
340.150261
  0
ARC
  5
306
  8
0
 62
     7
 10
33.974939999999997
 20
97.457867000000007
 30
0.0
 40
0.042054
 50
330.59337099999999
 51
345.80381499999999
  0
ARC
  5
307
  8
0
 62
     7
 10
34.804338999999999
 20
97.108735999999993
 30
0.0
 40
0.8581220000000001
 50
157.493278
 51
158.287791
  0
ARC
  5
308
  8
0
 62
     7
 10
34.031584000000009
 20
97.408036999999993
 30
0.0
 40
0.030484
 50
143.444365
 51
153.340598
  0
LINE
  5
309
  8
0
 62
     7
 10
34.004300000000001
 20
97.421700000000016
 30
0.0
 11
34.001600000000003
 21
97.416200000000003
 31
0.0
  0
ARC
  5
30A
  8
0
 62
     7
 10
33.989021999999999
 20
97.420845999999997
 30
0.0
 40
0.013393
 50
317.07060799999999
 51
339.71439400000003
  0
ARC
  5
30B
  8
0
 62
     7
 10
33.974090000000011
 20
97.422010999999998
 30
0.0
 40
0.026792
 50
323.863969
 51
337.42053099999998
  0
ARC
  5
30C
  8
0
 62
     7
 10
34.014780999999999
 20
97.392126000000005
 30
0.0
 40
0.023695
 50
143.52331100000001
 51
156.98689400000001
  0
ARC
  5
30D
  8
0
 62
     7
 10
34.016855
 20
97.382629000000023
 30
0.0
 40
0.030369
 50
141.85106300000001
 51
154.138138
  0
ARC
  5
30E
  8
0
 62
     7
 10
34.010798000000001
 20
97.375950000000003
 30
0.0
 40
0.029147
 50
136.869022
 51
147.993763
  0
LINE
  5
30F
  8
0
 62
     7
 10
33.9861
 20
97.391400000000004
 30
0.0
 11
33.982599999999998
 21
97.386899999999997
 31
0.0
  0
LINE
  5
310
  8
0
 62
     7
 10
33.982599999999998
 20
97.386899999999997
 30
0.0
 11
33.979199999999999
 21
97.382099999999994
 31
0.0
  0
ARC
  5
311
  8
0
 62
     7
 10
33.933209000000012
 20
97.417162000000005
 30
0.0
 40
0.057828
 50
316.8559800000001
 51
322.671313
  0
ARC
  5
312
  8
0
 62
     7
 10
33.961114999999999
 20
97.386657999999997
 30
0.0
 40
0.016907
 50
306.90629000000001
 51
327.67493999999999
  0
ARC
  5
313
  8
0
 62
     7
 10
33.954661999999999
 20
97.382285999999993
 30
0.0
 40
0.018958
 50
312.53286300000002
 51
331.152693
  0
LINE
  5
314
  8
0
 62
     7
 10
33.967500000000001
 20
97.368300000000005
 30
0.0
 11
33.963299999999997
 21
97.363799999999998
 31
0.0
  0
ARC
  5
315
  8
0
 62
     7
 10
33.982747000000003
 20
97.341779000000002
 30
0.0
 40
0.029378
 50
131.33626699999999
 51
143.244923
  0
LINE
  5
316
  8
0
 62
     7
 10
33.959200000000003
 20
97.359399999999994
 30
0.0
 11
33.955100000000002
 21
97.355599999999995
 31
0.0
  0
ARC
  5
317
  8
0
 62
     7
 10
33.989688000000001
 20
97.316478000000004
 30
0.0
 40
0.052212
 50
131.522592
 51
138.47737799999999
  0
ARC
  5
318
  8
0
 62
     7
 10
33.971057000000002
 20
97.322368999999995
 30
0.0
 40
0.035263
 50
125.46463900000001
 51
135.008049
  0
ARC
  5
319
  8
0
 62
     7
 10
33.928801
 20
97.364377000000005
 30
0.0
 40
0.024321
 50
300.91280899999998
 51
315.401656
  0
ARC
  5
31A
  8
0
 62
     7
 10
33.932932999999998
 20
97.349747999999991
 30
0.0
 40
0.010432
 50
291.85524199999998
 51
323.28195399999998
  0
ARC
  5
31B
  8
0
 62
     7
 10
33.924798000000003
 20
97.349729000000025
 30
0.0
 40
0.015422
 50
299.27108299999998
 51
321.2016450000001
  0
ARC
  5
31C
  8
0
 62
     7
 10
33.978782000000002
 20
97.267525000000006
 30
0.0
 40
0.082968
 50
124.04057899999999
 51
128.46706900000001
  0
ARC
  5
31D
  8
0
 62
     7
 10
33.932434999999998
 20
97.321009000000004
 30
0.0
 40
0.012627
 50
114.63988000000001
 51
140.497276
  0
LINE
  5
31E
  8
0
 62
     7
 10
33.922699999999999
 20
97.328999999999994
 30
0.0
 11
33.917499999999997
 21
97.326300000000003
 31
0.0
  0
ARC
  5
31F
  8
0
 62
     7
 10
33.957326999999999
 20
97.266590000000008
 30
0.0
 40
0.071749
 50
123.694259
 51
128.813388
  0
LINE
  5
320
  8
0
 62
     7
 10
33.912399999999998
 20
97.322500000000005
 30
0.0
 11
33.907499999999999
 21
97.319699999999997
 31
0.0
  0
ARC
  5
321
  8
0
 62
     7
 10
33.936757
 20
97.254401000000001
 30
0.0
 40
0.071577
 50
114.097667
 51
119.03241
  0
ARC
  5
322
  8
0
 62
     7
 10
33.823056000000001
 20
97.458819000000005
 30
0.0
 40
0.162336
 50
297.03888699999999
 51
299.10610100000002
  0
ARC
  5
323
  8
0
 62
     7
 10
33.856994999999998
 20
97.382739000000015
 30
0.0
 40
0.079263
 50
295.95523200000002
 51
300.18975599999999
  0
ARC
  5
324
  8
0
 62
     7
 10
33.847662999999997
 20
97.392627000000005
 30
0.0
 40
0.092327
 50
294.6524609999999
 51
298.47765500000003
  0
ARC
  5
325
  8
0
 62
     7
 10
33.752003999999999
 20
97.676777000000001
 30
0.0
 40
0.391754
 50
289.27930500000002
 51
290.02835900000002
  0
ARC
  5
326
  8
0
 62
     7
 10
33.843947
 20
97.374909000000002
 30
0.0
 40
0.077534
 50
294.28738099999998
 51
298.842736
  0
ARC
  5
327
  8
0
 62
     7
 10
33.890982999999999
 20
97.255468000000008
 30
0.0
 40
0.051066
 50
107.251587
 51
113.860479
  0
ARC
  5
328
  8
0
 62
     7
 10
33.851180999999997
 20
97.343242000000004
 30
0.0
 40
0.045315
 50
280.76612899999998
 51
294.9912799999999
  0
LINE
  5
329
  8
0
 62
     7
 10
33.8596
 20
97.298699999999997
 30
0.0
 11
33.848599999999998
 21
97.294899999999998
 31
0.0
  0
LINE
  5
32A
  8
0
 62
     7
 10
33.848599999999998
 20
97.294899999999998
 30
0.0
 11
33.837600000000002
 21
97.292199999999994
 31
0.0
  0
ARC
  5
32B
  8
0
 62
     7
 10
33.820638000000002
 20
97.364578000000009
 30
0.0
 40
0.074359
 50
274.57780600000001
 51
283.18353000000002
  0
LINE
  5
32C
  8
0
 62
     7
 10
33.826599999999999
 20
97.290499999999994
 30
0.0
 11
33.815899999999999
 21
97.288399999999996
 31
0.0
  0
ARC
  5
32D
  8
0
 62
     7
 10
33.807282999999998
 20
97.337609
 30
0.0
 40
0.049968
 50
267.2304759999999
 51
279.922212
  0
ARC
  5
32E
  8
0
 62
     7
 10
33.796743999999997
 20
97.316754000000003
 30
0.0
 40
0.030169
 50
265.79791999999998
 51
285.62328500000001
  0
LINE
  5
32F
  8
0
 62
     7
 10
33.794499999999999
 20
97.28670000000001
 30
0.0
 11
33.783900000000003
 21
97.28670000000001
 31
0.0
  0
ARC
  5
330
  8
0
 62
     7
 10
34.263246000000002
 20
96.265281999999999
 30
0.0
 40
1.0232110000000001
 50
106.902383
 51
107.93353500000001
  0
ARC
  5
331
  8
0
 62
     7
 10
33.589661
 20
98.104545999999985
 30
0.0
 40
0.938874
 50
293.61447800000002
 51
294.74375099999997
  0
ARC
  5
332
  8
0
 62
     7
 10
33.915149
 20
97.405962000000002
 30
0.0
 40
0.168222
 50
293.65219300000001
 51
300.373152
  0
ARC
  5
333
  8
0
 62
     7
 10
33.884759000000003
 20
97.46113600000001
 30
0.0
 40
0.231196
 50
299.95699100000002
 51
304.29301800000002
  0
ARC
  5
334
  8
0
 62
     7
 10
33.899914000000003
 20
97.446732000000011
 30
0.0
 40
0.210803
 50
303.095685
 51
312.847534
  0
ARC
  5
335
  8
0
 62
     7
 10
33.864598999999998
 20
97.492056999999988
 30
0.0
 40
0.268095
 50
311.79362200000003
 51
319.71408500000001
  0
ARC
  5
336
  8
0
 62
     7
 10
33.926260999999997
 20
97.440168
 30
0.0
 40
0.187506
 50
319.62592699999999
 51
330.916089
  0
ARC
  5
337
  8
0
 62
     7
 10
33.921066000000003
 20
97.455765
 30
0.0
 40
0.199937
 50
327.73209300000002
 51
338.166719
  0
ARC
  5
338
  8
0
 62
     7
 10
33.917479999999998
 20
97.464461
 30
0.0
 40
0.206609
 50
336.297597
 51
346.49247600000001
  0
ARC
  5
339
  8
0
 62
     7
 10
33.89714
 20
97.472944999999996
 30
0.0
 40
0.228395
 50
345.6149400000001
 51
354.74646100000001
  0
ARC
  5
33A
  8
0
 62
     7
 10
26.710809000000001
 20
96.945990000000009
 30
0.0
 40
0.309886
 50
70.879415000000009
 51
74.284627
  0
ARC
  5
33B
  8
0
 62
     7
 10
26.400274
 20
96.388289
 30
0.0
 40
0.9425209999999999
 50
65.258433999999994
 51
66.383336999999997
  0
LINE
  5
33C
  8
0
 62
     7
 10
26.777899999999999
 20
97.251900000000006
 30
0.0
 11
26.762699999999999
 21
97.260099999999994
 31
0.0
  0
ARC
  5
33D
  8
0
 62
     7
 10
26.810047000000001
 20
97.359388999999993
 30
0.0
 40
0.109963
 50
234.26420899999999
 51
244.49860699999999
  0
ARC
  5
33E
  8
0
 62
     7
 10
26.859366999999999
 20
97.44917199999999
 30
0.0
 40
0.21201
 50
227.773966
 51
237.618166
  0
ARC
  5
33F
  8
0
 62
     7
 10
26.93037
 20
97.522860999999992
 30
0.0
 40
0.31431
 50
220.50651099999999
 51
227.21716499999999
  0
ARC
  5
340
  8
0
 62
     7
 10
26.822375000000001
 20
97.427773000000002
 30
0.0
 40
0.170448
 50
213.15524300000001
 51
219.78325699999999
  0
ARC
  5
341
  8
0
 62
     7
 10
26.753824000000002
 20
97.392443999999998
 30
0.0
 40
0.094069
 50
207.489384
 51
217.981101
  0
ARC
  5
342
  8
0
 62
     7
 10
26.788741999999999
 20
97.423617000000007
 30
0.0
 40
0.13991
 50
204.82738699999999
 51
212.21888300000001
  0
ARC
  5
343
  8
0
 62
     7
 10
27.09281
 20
97.581581000000014
 30
0.0
 40
0.482458
 50
204.51330799999999
 51
206.691101
  0
ARC
  5
344
  8
0
 62
     7
 10
26.775732000000001
 20
97.433882999999994
 30
0.0
 40
0.132709
 50
195.71268800000001
 51
203.29224500000001
  0
ARC
  5
345
  8
0
 62
     7
 10
26.726683999999999
 20
97.431663999999984
 30
0.0
 40
0.085621
 50
190.40351799999999
 51
203.193262
  0
ARC
  5
346
  8
0
 62
     7
 10
26.711096999999999
 20
97.440631999999994
 30
0.0
 40
0.072846
 50
186.22036900000001
 51
199.59448499999999
  0
ARC
  5
347
  8
0
 62
     7
 10
26.774387000000001
 20
97.461969000000011
 30
0.0
 40
0.138819
 50
184.10500200000001
 51
192.15524099999999
  0
ARC
  5
348
  8
0
 62
     7
 10
26.872073
 20
100.838476
 30
0.0
 40
0.181665
 50
90.158456999999984
 51
97.898049
  0
ARC
  5
349
  8
0
 62
     7
 10
26.848742000000001
 20
100.924474
 30
0.0
 40
0.093957
 50
90.995293999999987
 51
103.94780299999999
  0
ARC
  5
34A
  8
0
 62
     7
 10
26.731814
 20
101.39518700000001
 30
0.0
 40
0.391061
 50
280.90102300000001
 51
283.95087999999998
  0
ARC
  5
34B
  8
0
 62
     7
 10
26.340641999999999
 20
102.29172
 30
0.0
 40
1.3623940000000001
 50
288.91764499999999
 51
289.96244100000001
  0
ARC
  5
34C
  8
0
 62
     7
 10
26.843450000000001
 20
100.843863
 30
0.0
 40
0.170386
 50
111.0170899999999
 51
119.212554
  0
ARC
  5
34D
  8
0
 62
     7
 10
26.848165999999999
 20
100.82640600000001
 30
0.0
 40
0.187977
 50
117.870127
 51
124.374787
  0
ARC
  5
34E
  8
0
 62
     7
 10
26.800307
 20
100.874476
 30
0.0
 40
0.121908
 50
118.555364
 51
129.304204
  0
ARC
  5
34F
  8
0
 62
     7
 10
26.833928
 20
100.82249899999999
 30
0.0
 40
0.183555
 50
127.147352
 51
134.24368200000001
  0
ARC
  5
350
  8
0
 62
     7
 10
26.802947
 20
100.839777
 30
0.0
 40
0.149904
 50
130.36532600000001
 51
138.28657100000001
  0
ARC
  5
351
  8
0
 62
     7
 10
26.786956
 20
100.84383800000001
 30
0.0
 40
0.13548
 50
135.06685999999999
 51
145.321967
  0
ARC
  5
352
  8
0
 62
     7
 10
26.854033000000001
 20
100.783145
 30
0.0
 40
0.225479
 50
142.335509
 51
147.680419
  0
ARC
  5
353
  8
0
 62
     7
 10
27.156990000000011
 20
100.611586
 30
0.0
 40
0.573476
 50
149.37839099999999
 51
151.906069
  0
ARC
  5
354
  8
0
 62
     7
 10
25.922778000000001
 20
101.187145
 30
0.0
 40
0.789783
 50
335.49762200000009
 51
337.243628
  0
ARC
  5
355
  8
0
 62
     7
 10
26.938320999999998
 20
100.752774
 30
0.0
 40
0.315518
 50
160.21041600000001
 51
164.08891199999999
  0
ARC
  5
356
  8
0
 62
     7
 10
26.913606000000001
 20
100.75799499999999
 30
0.0
 40
0.290324
 50
163.74277699999999
 51
168.575795
  0
LINE
  5
357
  8
0
 62
     7
 10
26.629000000000001
 20
100.816
 30
0.0
 11
26.626300000000001
 21
100.795
 31
0.0
  0
ARC
  5
358
  8
0
 62
     7
 10
26.790279999999999
 20
100.698049
 30
0.0
 40
0.081897
 50
168.61651000000001
 51
175.67682500000001
  0
ARC
  5
359
  8
0
 62
     7
 10
26.838574000000001
 20
100.703739
 30
0.0
 40
0.129005
 50
170.40699599999999
 51
175.34293299999999
  0
ARC
  5
35A
  8
0
 62
     7
 10
27.457187000000001
 20
100.591104
 30
0.0
 40
0.7577810000000002
 50
168.95628300000001
 51
169.80436900000001
  0
ARC
  5
35B
  8
0
 62
     7
 10
26.655218999999999
 20
100.757323
 30
0.0
 40
0.061912
 50
340.11295899999999
 51
350.02420999999998
  0
ARC
  5
35C
  8
0
 62
     7
 10
26.965412000000001
 20
100.674768
 30
0.0
 40
0.259361
 50
161.37007500000001
 51
163.92184
  0
ARC
  5
35D
  8
0
 62
     7
 10
26.760774999999999
 20
100.749027
 30
0.0
 40
0.042022
 50
153.75063700000001
 51
168.198115
  0
ARC
  5
35E
  8
0
 62
     7
 10
26.81363
 20
100.739946
 30
0.0
 40
0.094677
 50
155.87896900000001
 51
163.008905
  0
ARC
  5
35F
  8
0
 62
     7
 10
26.769621999999998
 20
100.76432699999999
 30
0.0
 40
0.044751
 50
147.110378
 51
161.350933
  0
ARC
  5
360
  8
0
 62
     7
 10
26.691825999999999
 20
100.806853
 30
0.0
 40
0.044153
 50
335.62146200000001
 51
343.26645200000002
  0
ARC
  5
361
  8
0
 62
     7
 10
26.668903
 20
100.830189
 30
0.0
 40
0.074508
 50
331.064705
 51
335.80519800000002
  0
ARC
  5
362
  8
0
 62
     7
 10
26.726948
 20
100.808519
 30
0.0
 40
0.013304
 50
318.20415000000003
 51
342.30609399999997
  0
ARC
  5
363
  8
0
 62
     7
 10
26.715530999999999
 20
100.823365
 30
0.0
 40
0.030613
 50
321.90024799999998
 51
334.08899300000007
  0
ARC
  5
364
  8
0
 62
     7
 10
26.809059999999999
 20
100.767613
 30
0.0
 40
0.078426
 50
143.31464600000001
 51
147.29501499999989
  0
ARC
  5
365
  8
0
 62
     7
 10
26.755599
 20
100.81125
 30
0.0
 40
0.009965
 50
129.44291000000001
 51
161.166751
  0
ARC
  5
366
  8
0
 62
     7
 10
26.820395999999999
 20
100.778323
 30
0.0
 40
0.081911
 50
145.720572
 51
150.268629
  0
ARC
  5
367
  8
0
 62
     7
 10
26.960839
 20
100.69407099999999
 30
0.0
 40
0.245595
 50
146.59590900000001
 51
147.933606
  0
ARC
  5
368
  8
0
 62
     7
 10
26.738738999999999
 20
100.847571
 30
0.0
 40
0.025022
 50
313.03131300000001
 51
326.49597899999998
  0
ARC
  5
369
  8
0
 62
     7
 10
26.771756
 20
100.82797600000001
 30
0.0
 40
0.013458
 50
130.31322599999999
 51
154.54955799999999
  0
ARC
  5
36A
  8
0
 62
     7
 10
26.779623999999998
 20
100.828214
 30
0.0
 40
0.019371
 50
129.96118100000001
 51
148.83619899999999
  0
ARC
  5
36B
  8
0
 62
     7
 10
26.780638
 20
100.83551799999999
 30
0.0
 40
0.015425
 50
128.80091999999999
 51
150.72633300000001
  0
LINE
  5
36C
  8
0
 62
     7
 10
26.771000000000001
 20
100.848
 30
0.0
 11
26.775099999999998
 21
100.852
 31
0.0
  0
LINE
  5
36D
  8
0
 62
     7
 10
26.775099999999998
 20
100.852
 30
0.0
 11
26.779199999999999
 21
100.857
 31
0.0
  0
LINE
  5
36E
  8
0
 62
     7
 10
26.779199999999999
 20
100.857
 30
0.0
 11
26.7834
 21
100.86
 31
0.0
  0
ARC
  5
36F
  8
0
 62
     7
 10
26.988712
 20
100.67410700000001
 30
0.0
 40
0.277175
 50
136.44078400000001
 51
137.801379
  0
LINE
  5
370
  8
0
 62
     7
 10
26.7879
 20
100.86499999999999
 30
0.0
 11
26.792000000000002
 21
100.869
 31
0.0
  0
ARC
  5
371
  8
0
 62
     7
 10
26.831738999999999
 20
100.822926
 30
0.0
 40
0.060516
 50
125.25222599999999
 51
131.06219899999999
  0
ARC
  5
372
  8
0
 62
     7
 10
26.826832
 20
100.84140600000001
 30
0.0
 40
0.04311
 50
126.334605
 51
134.138082
  0
ARC
  5
373
  8
0
 62
     7
 10
26.812951000000002
 20
100.86560900000001
 30
0.0
 40
0.015709
 50
117.207584
 51
137.92957200000001
  0
ARC
  5
374
  8
0
 62
     7
 10
26.873822000000001
 20
100.792197
 30
0.0
 40
0.110757
 50
124.596051
 51
127.911597
  0
ARC
  5
375
  8
0
 62
     7
 10
26.823594
 20
100.871526
 30
0.0
 40
0.017334
 50
115.601769
 51
136.905879
  0
LINE
  5
376
  8
0
 62
     7
 10
26.816099999999999
 20
100.887
 30
0.0
 11
26.820599999999999
 21
100.89100000000001
 31
0.0
  0
LINE
  5
377
  8
0
 62
     7
 10
26.820599999999999
 20
100.89100000000001
 30
0.0
 11
26.825800000000001
 21
100.893
 31
0.0
  0
ARC
  5
378
  8
0
 62
     7
 10
26.819766000000001
 20
100.90594
 30
0.0
 40
0.013931
 50
295.43886199999997
 51
320.87560200000001
  0
LINE
  5
379
  8
0
 62
     7
 10
26.8306
 20
100.89700000000001
 30
0.0
 11
26.836099999999998
 21
100.90000000000001
 31
0.0
  0
LINE
  5
37A
  8
0
 62
     7
 10
26.836099999999998
 20
100.90000000000001
 30
0.0
 11
26.8413
 21
100.90300000000001
 31
0.0
  0
LINE
  5
37B
  8
0
 62
     7
 10
26.8413
 20
100.90300000000001
 30
0.0
 11
26.846399999999999
 21
100.905
 31
0.0
  0
LINE
  5
37C
  8
0
 62
     7
 10
26.846399999999999
 20
100.905
 30
0.0
 11
26.851900000000001
 21
100.907
 31
0.0
  0
LINE
  5
37D
  8
0
 62
     7
 10
26.851900000000001
 20
100.907
 30
0.0
 11
26.8568
 21
100.91
 31
0.0
  0
LINE
  5
37E
  8
0
 62
     7
 10
26.8568
 20
100.91
 30
0.0
 11
26.862300000000001
 21
100.913
 31
0.0
  0
LINE
  5
37F
  8
0
 62
     7
 10
26.862300000000001
 20
100.913
 30
0.0
 11
26.867799999999999
 21
100.91500000000001
 31
0.0
  0
LINE
  5
380
  8
0
 62
     7
 10
26.867799999999999
 20
100.91500000000001
 30
0.0
 11
26.878499999999999
 21
100.91800000000001
 31
0.0
  0
LINE
  5
381
  8
0
 62
     7
 10
26.878499999999999
 20
100.91800000000001
 30
0.0
 11
26.889500000000002
 21
100.922
 31
0.0
  0
LINE
  5
382
  8
0
 62
     7
 10
26.889500000000002
 20
100.922
 30
0.0
 11
26.900500000000001
 21
100.925
 31
0.0
  0
LINE
  5
383
  8
0
 62
     7
 10
26.900500000000001
 20
100.925
 30
0.0
 11
26.911200000000001
 21
100.926
 31
0.0
  0
LINE
  5
384
  8
0
 62
     7
 10
26.911200000000001
 20
100.926
 30
0.0
 11
26.9222
 21
100.928
 31
0.0
  0
LINE
  5
385
  8
0
 62
     7
 10
26.9222
 20
100.928
 30
0.0
 11
26.932500000000001
 21
100.93000000000001
 31
0.0
  0
LINE
  5
386
  8
0
 62
     7
 10
26.932500000000001
 20
100.93000000000001
 30
0.0
 11
26.9436
 21
100.931
 31
0.0
  0
LINE
  5
387
  8
0
 62
     7
 10
26.9436
 20
100.931
 30
0.0
 11
26.953900000000001
 21
100.931
 31
0.0
  0
LINE
  5
388
  8
0
 62
     7
 10
26.953900000000001
 20
100.931
 30
0.0
 11
26.956
 21
100.93000000000001
 31
0.0
  0
LINE
  5
389
  8
0
 62
     7
 10
26.956
 20
100.93000000000001
 30
0.0
 11
26.960799999999999
 21
100.93000000000001
 31
0.0
  0
LINE
  5
38A
  8
0
 62
     7
 10
26.960799999999999
 20
100.93000000000001
 30
0.0
 11
26.967700000000001
 21
100.93000000000001
 31
0.0
  0
LINE
  5
38B
  8
0
 62
     7
 10
26.967700000000001
 20
100.93000000000001
 30
0.0
 11
26.976299999999998
 21
100.929
 31
0.0
  0
LINE
  5
38C
  8
0
 62
     7
 10
26.976299999999998
 20
100.929
 30
0.0
 11
26.988700000000001
 21
100.929
 31
0.0
  0
LINE
  5
38D
  8
0
 62
     7
 10
26.988700000000001
 20
100.929
 30
0.0
 11
27.003900000000002
 21
100.929
 31
0.0
  0
LINE
  5
38E
  8
0
 62
     7
 10
27.003900000000002
 20
100.929
 30
0.0
 11
27.020399999999999
 21
100.929
 31
0.0
  0
LINE
  5
38F
  8
0
 62
     7
 10
27.020399999999999
 20
100.929
 30
0.0
 11
27.0383
 21
100.928
 31
0.0
  0
LINE
  5
390
  8
0
 62
     7
 10
27.0383
 20
100.928
 30
0.0
 11
27.0655
 21
100.928
 31
0.0
  0
LINE
  5
391
  8
0
 62
     7
 10
27.0655
 20
100.928
 30
0.0
 11
27.094799999999999
 21
100.928
 31
0.0
  0
LINE
  5
392
  8
0
 62
     7
 10
27.094799999999999
 20
100.928
 30
0.0
 11
27.126899999999999
 21
100.928
 31
0.0
  0
LINE
  5
393
  8
0
 62
     7
 10
27.126899999999999
 20
100.928
 30
0.0
 11
27.161300000000001
 21
100.928
 31
0.0
  0
LINE
  5
394
  8
0
 62
     7
 10
27.161300000000001
 20
100.928
 30
0.0
 11
27.197099999999999
 21
100.928
 31
0.0
  0
LINE
  5
395
  8
0
 62
     7
 10
27.197099999999999
 20
100.928
 30
0.0
 11
27.234300000000001
 21
100.928
 31
0.0
  0
LINE
  5
396
  8
0
 62
     7
 10
27.234300000000001
 20
100.928
 30
0.0
 11
27.2729
 21
100.928
 31
0.0
  0
LINE
  5
397
  8
0
 62
     7
 10
27.2729
 20
100.928
 30
0.0
 11
27.295999999999999
 21
100.928
 31
0.0
  0
LINE
  5
398
  8
0
 62
     7
 10
27.295999999999999
 20
100.928
 30
0.0
 11
27.321200000000001
 21
100.929
 31
0.0
  0
LINE
  5
399
  8
0
 62
     7
 10
27.321200000000001
 20
100.929
 30
0.0
 11
27.348700000000001
 21
100.929
 31
0.0
  0
LINE
  5
39A
  8
0
 62
     7
 10
27.348700000000001
 20
100.929
 30
0.0
 11
27.379000000000001
 21
100.929
 31
0.0
  0
LINE
  5
39B
  8
0
 62
     7
 10
27.379000000000001
 20
100.929
 30
0.0
 11
27.412099999999999
 21
100.929
 31
0.0
  0
LINE
  5
39C
  8
0
 62
     7
 10
27.412099999999999
 20
100.929
 30
0.0
 11
27.447900000000001
 21
100.929
 31
0.0
  0
LINE
  5
39D
  8
0
 62
     7
 10
27.447900000000001
 20
100.929
 30
0.0
 11
27.487200000000001
 21
100.93000000000001
 31
0.0
  0
LINE
  5
39E
  8
0
 62
     7
 10
27.487200000000001
 20
100.93000000000001
 30
0.0
 11
27.5289
 21
100.93000000000001
 31
0.0
  0
LINE
  5
39F
  8
0
 62
     7
 10
27.5289
 20
100.93000000000001
 30
0.0
 11
27.574000000000002
 21
100.93000000000001
 31
0.0
  0
LINE
  5
3A0
  8
0
 62
     7
 10
27.574000000000002
 20
100.93000000000001
 30
0.0
 11
27.622599999999998
 21
100.931
 31
0.0
  0
LINE
  5
3A1
  8
0
 62
     7
 10
27.622599999999998
 20
100.931
 30
0.0
 11
27.6402
 21
100.931
 31
0.0
  0
LINE
  5
3A2
  8
0
 62
     7
 10
27.6402
 20
100.931
 30
0.0
 11
27.661200000000001
 21
100.931
 31
0.0
  0
LINE
  5
3A3
  8
0
 62
     7
 10
27.661200000000001
 20
100.931
 30
0.0
 11
27.684999999999999
 21
100.931
 31
0.0
  0
LINE
  5
3A4
  8
0
 62
     7
 10
27.684999999999999
 20
100.931
 30
0.0
 11
27.712499999999999
 21
100.931
 31
0.0
  0
LINE
  5
3A5
  8
0
 62
     7
 10
27.712499999999999
 20
100.931
 30
0.0
 11
27.742799999999999
 21
100.932
 31
0.0
  0
LINE
  5
3A6
  8
0
 62
     7
 10
27.742799999999999
 20
100.932
 30
0.0
 11
27.7759
 21
100.932
 31
0.0
  0
LINE
  5
3A7
  8
0
 62
     7
 10
27.7759
 20
100.932
 30
0.0
 11
27.8124
 21
100.932
 31
0.0
  0
LINE
  5
3A8
  8
0
 62
     7
 10
27.8124
 20
100.932
 30
0.0
 11
27.851400000000002
 21
100.93300000000001
 31
0.0
  0
LINE
  5
3A9
  8
0
 62
     7
 10
27.851400000000002
 20
100.93300000000001
 30
0.0
 11
27.893000000000001
 21
100.93300000000001
 31
0.0
  0
LINE
  5
3AA
  8
0
 62
     7
 10
27.893000000000001
 20
100.93300000000001
 30
0.0
 11
27.937799999999999
 21
100.93300000000001
 31
0.0
  0
LINE
  5
3AB
  8
0
 62
     7
 10
27.937799999999999
 20
100.93300000000001
 30
0.0
 11
27.9847
 21
100.934
 31
0.0
  0
LINE
  5
3AC
  8
0
 62
     7
 10
27.9847
 20
100.934
 30
0.0
 11
28.034300000000002
 21
100.934
 31
0.0
  0
ARC
  5
3AD
  8
0
 62
     7
 10
30.117270000000001
 20
-171.061418
 30
0.0
 40
272.0078299999999
 50
89.231628999999984
 51
89.535053000000005
  0
ARC
  5
3AE
  8
0
 62
     7
 10
30.056730999999999
 20
-191.45899
 30
0.0
 40
292.40524099999999
 50
89.555623999999995
 51
89.834832000000006
  0
ARC
  5
3AF
  8
0
 62
     7
 10
30.489083999999998
 20
-319.04729200000003
 30
0.0
 40
419.99252899999999
 50
89.943986999999993
 51
90.138890000000004
  0
ARC
  5
3B0
  8
0
 62
     7
 10
32.886994999999999
 20
-493.55787500000002
 30
0.0
 40
594.51169200000004
 50
90.329215000000005
 51
90.467671999999993
  0
LINE
  5
3B1
  8
0
 62
     7
 10
33.8889
 20
101.02
 30
0.0
 11
33.909599999999998
 21
101.01900000000001
 31
0.0
  0
ARC
  5
3B2
  8
0
 62
     7
 10
33.890920999999999
 20
100.81805
 30
0.0
 40
0.202265
 50
77.685229000000007
 51
84.701166999999998
  0
LINE
  5
3B3
  8
0
 62
     7
 10
33.934100000000001
 20
101.01600000000001
 30
0.0
 11
33.954700000000003
 21
101.011
 31
0.0
  0
LINE
  5
3B4
  8
0
 62
     7
 10
33.954700000000003
 20
101.011
 30
0.0
 11
33.978200000000001
 21
101.003
 31
0.0
  0
ARC
  5
3B5
  8
0
 62
     7
 10
33.894871000000002
 20
100.797032
 30
0.0
 40
0.22209
 50
56.18553399999999
 51
67.974919
  0
ARC
  5
3B6
  8
0
 62
     7
 10
33.933098999999999
 20
100.83046899999999
 30
0.0
 40
0.173535
 50
45.382630999999989
 51
60.53240799999999
  0
ARC
  5
3B7
  8
0
 62
     7
 10
33.92745
 20
100.81198999999999
 30
0.0
 40
0.190867
 50
41.927164000000012
 51
48.072825999999999
  0
ARC
  5
3B8
  8
0
 62
     7
 10
33.948919000000011
 20
100.820795
 30
0.0
 40
0.16919
 50
36.284440999999987
 51
44.567708000000003
  0
ARC
  5
3B9
  8
0
 62
     7
 10
33.419117
 20
100.469053
 30
0.0
 40
0.8049749999999999
 50
32.359970000000011
 51
34.148755999999999
  0
ARC
  5
3BA
  8
0
 62
     7
 10
33.891910000000003
 20
100.770584
 30
0.0
 40
0.244221
 50
27.049569000000002
 51
31.973421000000009
  0
ARC
  5
3BB
  8
0
 62
     7
 10
33.919814000000009
 20
100.78258700000001
 30
0.0
 40
0.21392
 50
21.595208
 51
27.585021000000001
  0
ARC
  5
3BC
  8
0
 62
     7
 10
33.946553999999999
 20
100.795418
 30
0.0
 40
0.184347
 50
13.761844999999999
 51
20.946200000000001
  0
ARC
  5
3BD
  8
0
 62
     7
 10
33.977940000000011
 20
100.79064099999999
 30
0.0
 40
0.155471
 50
9.8446449999999999
 51
18.227837999999998
  0
ARC
  5
3BE
  8
0
 62
     7
 10
33.907201999999998
 20
100.774492
 30
0.0
 40
0.22796
 50
5.2054640000000001
 51
10.803991999999999
  0
ARC
  5
3BF
  8
0
 62
     7
 10
34.162407000000002
 20
100.71532500000001
 30
0.0
 40
0.120192
 50
184.4759619999999
 51
189.77410900000001
  0
ARC
  5
3C0
  8
0
 62
     7
 10
34.108173999999998
 20
100.71995
 30
0.0
 40
0.067071
 50
183.13656700000001
 51
192.05275700000001
  0
ARC
  5
3C1
  8
0
 62
     7
 10
34.211548000000001
 20
100.759319
 30
0.0
 40
0.175697
 50
190.49873299999999
 51
194.17947899999999
  0
ARC
  5
3C2
  8
0
 62
     7
 10
34.368332000000009
 20
100.823588
 30
0.0
 40
0.343318
 50
194.55733000000001
 51
196.28702899999999
  0
ARC
  5
3C3
  8
0
 62
     7
 10
33.852224999999997
 20
100.691547
 30
0.0
 40
0.189419
 50
13.976343999999999
 51
17.440929000000001
  0
ARC
  5
3C4
  8
0
 62
     7
 10
33.926113999999998
 20
100.717764
 30
0.0
 40
0.111106
 50
15.96322
 51
21.977591
  0
ARC
  5
3C5
  8
0
 62
     7
 10
33.921204000000003
 20
100.72053
 30
0.0
 40
0.114708
 50
19.778079999999999
 51
25.180783999999999
  0
ARC
  5
3C6
  8
0
 62
     7
 10
33.959386000000002
 20
100.74703599999999
 30
0.0
 40
0.069311
 50
18.767897999999999
 51
28.089482000000011
  0
ARC
  5
3C7
  8
0
 62
     7
 10
34.043138999999996
 20
100.794419
 30
0.0
 40
0.026992
 50
200.00984
 51
213.120296
  0
ARC
  5
3C8
  8
0
 62
     7
 10
34.221398999999998
 20
100.877551
 30
0.0
 40
0.223593
 50
202.85848999999999
 51
204.40029999999999
  0
ARC
  5
3C9
  8
0
 62
     7
 10
34.032764999999998
 20
100.806054
 30
0.0
 40
0.023209
 50
207.95586
 51
221.43447900000001
  0
ARC
  5
3CA
  8
0
 62
     7
 10
34.048538999999998
 20
100.816756
 30
0.0
 40
0.042209
 50
202.37858600000001
 51
210.75155100000001
  0
ARC
  5
3CB
  8
0
 62
     7
 10
33.966886000000002
 20
100.77146399999999
 30
0.0
 40
0.051678
 50
34.434710000000003
 51
40.702464999999997
  0
ARC
  5
3CC
  8
0
 62
     7
 10
33.989243999999999
 20
100.79933200000001
 30
0.0
 40
0.017802
 50
19.125806999999998
 51
39.589694000000001
  0
ARC
  5
3CD
  8
0
 62
     7
 10
34.068424
 20
100.856167
 30
0.0
 40
0.079715
 50
210.67418799999999
 51
214.79629700000001
  0
ARC
  5
3CE
  8
0
 62
     7
 10
33.978465999999997
 20
100.802606
 30
0.0
 40
0.024981
 50
31.074987
 51
44.062188999999996
  0
ARC
  5
3CF
  8
0
 62
     7
 10
33.906129999999997
 20
100.754092
 30
0.0
 40
0.111771
 50
36.120187999999999
 51
39.016988000000012
  0
ARC
  5
3D0
  8
0
 62
     7
 10
33.965828999999999
 20
100.80703099999999
 30
0.0
 40
0.032256
 50
32.701246000000012
 51
43.613199000000002
  0
ARC
  5
3D1
  8
0
 62
     7
 10
33.943199
 20
100.794214
 30
0.0
 40
0.057828
 50
37.328687000000002
 51
43.144019999999998
  0
ARC
  5
3D2
  8
0
 62
     7
 10
33.971105999999999
 20
100.824719
 30
0.0
 40
0.016907
 50
32.325060000000001
 51
53.093709999999987
  0
ARC
  5
3D3
  8
0
 62
     7
 10
33.964201000000003
 20
100.82780099999999
 30
0.0
 40
0.019997
 50
31.462078999999999
 51
49.740501999999999
  0
LINE
  5
3D4
  8
0
 62
     7
 10
33.9771
 20
100.843
 30
0.0
 11
33.972999999999999
 21
100.848
 31
0.0
  0
LINE
  5
3D5
  8
0
 62
     7
 10
33.972999999999999
 20
100.848
 30
0.0
 11
33.968899999999998
 21
100.851
 31
0.0
  0
ARC
  5
3D6
  8
0
 62
     7
 10
33.954241000000003
 20
100.841193
 30
0.0
 40
0.017786
 50
34.743440999999997
 51
55.256549000000007
  0
LINE
  5
3D7
  8
0
 62
     7
 10
33.964399999999998
 20
100.85599999999999
 30
0.0
 11
33.9602
 21
100.86
 31
0.0
  0
LINE
  5
3D8
  8
0
 62
     7
 10
33.9602
 20
100.86
 30
0.0
 11
33.955800000000011
 21
100.864
 31
0.0
  0
ARC
  5
3D9
  8
0
 62
     7
 10
33.961511000000002
 20
100.87635299999999
 30
0.0
 40
0.013555
 50
218.76620500000001
 51
244.91936999999999
  0
ARC
  5
3DA
  8
0
 62
     7
 10
33.956901999999999
 20
100.881308
 30
0.0
 40
0.014705
 50
222.83515800000001
 51
246.08951400000001
  0
ARC
  5
3DB
  8
0
 62
     7
 10
34.004804
 20
100.950965
 30
0.0
 40
0.098938
 50
230.066427
 51
233.61914899999999
  0
LINE
  5
3DC
  8
0
 62
     7
 10
33.941299999999998
 20
100.875
 30
0.0
 11
33.936500000000002
 21
100.878
 31
0.0
  0
ARC
  5
3DD
  8
0
 62
     7
 10
33.919084000000012
 20
100.86069000000001
 30
0.0
 40
0.024435
 50
44.632221000000001
 51
59.053314
  0
ARC
  5
3DE
  8
0
 62
     7
 10
33.940564999999999
 20
100.90284699999999
 30
0.0
 40
0.022999
 50
233.318815
 51
247.19144900000001
  0
ARC
  5
3DF
  8
0
 62
     7
 10
33.910046999999999
 20
100.864833
 30
0.0
 40
0.025777
 50
49.390701
 51
63.229151999999999
  0
ARC
  5
3E0
  8
0
 62
     7
 10
33.877825000000001
 20
100.81188299999999
 30
0.0
 40
0.087704
 50
60.014099999999992
 51
63.840912000000003
  0
ARC
  5
3E1
  8
0
 62
     7
 10
33.901902
 20
100.868317
 30
0.0
 40
0.026637
 50
56.791955000000009
 51
70.077928
  0
ARC
  5
3E2
  8
0
 62
     7
 10
33.894112999999997
 20
100.869444
 30
0.0
 40
0.029264
 50
54.808729999999997
 51
65.701493999999997
  0
ARC
  5
3E3
  8
0
 62
     7
 10
33.868752000000001
 20
100.8282
 30
0.0
 40
0.077534
 50
61.157263999999991
 51
65.712618999999989
  0
ARC
  5
3E4
  8
0
 62
     7
 10
33.937516000000002
 20
100.998547
 30
0.0
 40
0.106276
 50
246.698126
 51
249.6990799999999
  0
ARC
  5
3E5
  8
0
 62
     7
 10
33.911487999999999
 20
100.93985499999999
 30
0.0
 40
0.042082
 50
239.23574099999999
 51
247.63418300000001
  0
ARC
  5
3E6
  8
0
 62
     7
 10
33.894445000000012
 20
100.927717
 30
0.0
 40
0.024437
 50
245.85980799999999
 51
259.43216699999999
  0
ARC
  5
3E7
  8
0
 62
     7
 10
33.864944999999999
 20
100.867389
 30
0.0
 40
0.04274
 50
62.845010999999992
 51
78.081663000000006
  0
ARC
  5
3E8
  8
0
 62
     7
 10
33.856634999999997
 20
100.873734
 30
0.0
 40
0.039396
 50
64.216498000000001
 51
81.075436999999994
  0
ARC
  5
3E9
  8
0
 62
     7
 10
33.830528999999999
 20
100.80721
 30
0.0
 40
0.110254
 50
73.009767000000011
 51
78.917729000000008
  0
ARC
  5
3EA
  8
0
 62
     7
 10
33.824168999999998
 20
100.832841
 30
0.0
 40
0.087044
 50
71.545901999999998
 51
78.591246999999996
  0
ARC
  5
3EB
  8
0
 62
     7
 10
33.842306000000001
 20
100.95350000000001
 30
0.0
 40
0.035347
 50
250.25118800000001
 51
268.509524
  0
LINE
  5
3EC
  8
0
 62
     7
 10
33.830399999999997
 20
100.92
 30
0.0
 11
33.819299999999998
 21
100.92100000000001
 31
0.0
  0
LINE
  5
3ED
  8
0
 62
     7
 10
33.819299999999998
 20
100.92100000000001
 30
0.0
 11
33.808700000000002
 21
100.922
 31
0.0
  0
LINE
  5
3EE
  8
0
 62
     7
 10
33.808700000000002
 20
100.922
 30
0.0
 11
33.798000000000002
 21
100.922
 31
0.0
  0
LINE
  5
3EF
  8
0
 62
     7
 10
33.798000000000002
 20
100.922
 30
0.0
 11
33.797600000000003
 21
100.922
 31
0.0
  0
LINE
  5
3F0
  8
0
 62
     7
 10
33.797600000000003
 20
100.922
 30
0.0
 11
33.7973
 21
100.922
 31
0.0
  0
LINE
  5
3F1
  8
0
 62
     7
 10
33.7973
 20
100.922
 30
0.0
 11
33.796599999999998
 21
100.922
 31
0.0
  0
LINE
  5
3F2
  8
0
 62
     7
 10
33.796599999999998
 20
100.922
 30
0.0
 11
33.796300000000009
 21
100.922
 31
0.0
  0
LINE
  5
3F3
  8
0
 62
     7
 10
33.796300000000009
 20
100.922
 30
0.0
 11
33.795900000000003
 21
100.922
 31
0.0
  0
LINE
  5
3F4
  8
0
 62
     7
 10
33.795900000000003
 20
100.922
 30
0.0
 11
33.794499999999999
 21
100.922
 31
0.0
  0
LINE
  5
3F5
  8
0
 62
     7
 10
33.794499999999999
 20
100.922
 30
0.0
 11
33.793500000000002
 21
100.922
 31
0.0
  0
LINE
  5
3F6
  8
0
 62
     7
 10
33.793500000000002
 20
100.922
 30
0.0
 11
33.792099999999998
 21
100.922
 31
0.0
  0
LINE
  5
3F7
  8
0
 62
     7
 10
33.792099999999998
 20
100.922
 30
0.0
 11
33.790700000000001
 21
100.922
 31
0.0
  0
LINE
  5
3F8
  8
0
 62
     7
 10
33.790700000000001
 20
100.922
 30
0.0
 11
33.789400000000001
 21
100.922
 31
0.0
  0
LINE
  5
3F9
  8
0
 62
     7
 10
33.789400000000001
 20
100.922
 30
0.0
 11
33.7883
 21
100.922
 31
0.0
  0
LINE
  5
3FA
  8
0
 62
     7
 10
33.7883
 20
100.922
 30
0.0
 11
33.7866
 21
100.922
 31
0.0
  0
LINE
  5
3FB
  8
0
 62
     7
 10
33.7866
 20
100.922
 30
0.0
 11
33.7849
 21
100.922
 31
0.0
  0
LINE
  5
3FC
  8
0
 62
     7
 10
33.7849
 20
100.922
 30
0.0
 11
33.783499999999997
 21
100.922
 31
0.0
  0
LINE
  5
3FD
  8
0
 62
     7
 10
33.783499999999997
 20
100.922
 30
0.0
 11
33.781399999999998
 21
100.922
 31
0.0
  0
LINE
  5
3FE
  8
0
 62
     7
 10
33.781399999999998
 20
100.922
 30
0.0
 11
33.780099999999997
 21
100.922
 31
0.0
  0
LINE
  5
3FF
  8
0
 62
     7
 10
33.780099999999997
 20
100.922
 30
0.0
 11
33.778700000000001
 21
100.922
 31
0.0
  0
LINE
  5
400
  8
0
 62
     7
 10
33.778700000000001
 20
100.922
 30
0.0
 11
33.777999999999999
 21
100.922
 31
0.0
  0
LINE
  5
401
  8
0
 62
     7
 10
33.777999999999999
 20
100.922
 30
0.0
 11
33.773200000000003
 21
100.922
 31
0.0
  0
LINE
  5
402
  8
0
 62
     7
 10
33.773200000000003
 20
100.922
 30
0.0
 11
33.768999999999998
 21
100.922
 31
0.0
  0
LINE
  5
403
  8
0
 62
     7
 10
33.768999999999998
 20
100.922
 30
0.0
 11
33.764899999999997
 21
100.922
 31
0.0
  0
LINE
  5
404
  8
0
 62
     7
 10
34.057099999999998
 20
100.685
 30
0.0
 11
34.057099999999998
 21
100.684
 31
0.0
  0
LINE
  5
405
  8
0
 62
     7
 10
34.057099999999998
 20
100.684
 30
0.0
 11
34.057099999999998
 21
100.68300000000001
 31
0.0
  0
LINE
  5
406
  8
0
 62
     7
 10
34.057099999999998
 20
100.68300000000001
 30
0.0
 11
34.057099999999998
 21
100.682
 31
0.0
  0
LINE
  5
407
  8
0
 62
     7
 10
34.057099999999998
 20
100.682
 30
0.0
 11
34.057099999999998
 21
100.681
 31
0.0
  0
LINE
  5
408
  8
0
 62
     7
 10
34.057099999999998
 20
100.681
 30
0.0
 11
34.057099999999998
 21
100.68000000000001
 31
0.0
  0
LINE
  5
409
  8
0
 62
     7
 10
34.057099999999998
 20
100.68000000000001
 30
0.0
 11
34.057099999999998
 21
100.679
 31
0.0
  0
LINE
  5
40A
  8
0
 62
     7
 10
34.057099999999998
 20
100.679
 30
0.0
 11
34.057099999999998
 21
100.678
 31
0.0
  0
LINE
  5
40B
  8
0
 62
     7
 10
34.057099999999998
 20
100.678
 30
0.0
 11
34.057099999999998
 21
100.676
 31
0.0
  0
LINE
  5
40C
  8
0
 62
     7
 10
34.057099999999998
 20
100.676
 30
0.0
 11
34.057099999999998
 21
100.67400000000001
 31
0.0
  0
LINE
  5
40D
  8
0
 62
     7
 10
34.057099999999998
 20
100.67400000000001
 30
0.0
 11
34.057699999999997
 21
100.672
 31
0.0
  0
LINE
  5
40E
  8
0
 62
     7
 10
34.057699999999997
 20
100.672
 30
0.0
 11
34.057699999999997
 21
100.67
 31
0.0
  0
LINE
  5
40F
  8
0
 62
     7
 10
34.057699999999997
 20
100.67
 30
0.0
 11
34.057699999999997
 21
100.66800000000001
 31
0.0
  0
LINE
  5
410
  8
0
 62
     7
 10
34.057699999999997
 20
100.66800000000001
 30
0.0
 11
34.057699999999997
 21
100.667
 31
0.0
  0
LINE
  5
411
  8
0
 62
     7
 10
34.057699999999997
 20
100.667
 30
0.0
 11
34.057699999999997
 21
100.66500000000001
 31
0.0
  0
ARC
  5
412
  8
0
 62
     7
 10
43.225819999999992
 20
99.171485000000004
 30
0.0
 40
16.678764000000001
 50
174.413352
 51
185.91728999999989
  0
ARC
  5
413
  8
0
 62
     7
 10
43.315005999999997
 20
99.16919
 30
0.0
 40
16.677185000000001
 50
174.71877900000001
 51
185.725516
  0
ARC
  5
414
  8
0
 62
     7
 10
-2.7592300000000001
 20
101.268854
 30
0.0
 40
37.080765999999997
 50
354.09192899999999
 51
354.340193
  0
ARC
  5
415
  8
0
 62
     7
 10
17.38813
 20
99.171389000000005
 30
0.0
 40
16.725363999999999
 50
354.302459
 51
5.2263820000000001
  0
ARC
  5
416
  8
0
 62
     7
 10
30.38025
 20
-148.633104
 30
0.0
 40
249.677898
 50
89.194795999999997
 51
90.805183999999997
  0
ARC
  5
417
  8
0
 62
     7
 10
10.898244999999999
 20
98.522818000000001
 30
0.0
 40
23.346824000000002
 50
5.132846999999999
 51
5.5854619999999997
  0
ARC
  5
418
  8
0
 62
     7
 10
30.38025
 20
109.13954200000001
 30
0.0
 40
12.424102
 50
253.31089600000001
 51
286.68912400000011
  0
LINE
  5
419
  8
0
 62
     7
 10
166.64400000000001
 20
99.378200000000021
 30
0.0
 11
171.17099999999999
 21
99.378200000000021
 31
0.0
  0
LINE
  5
41A
  8
0
 62
     7
 10
170.47099999999989
 20
106.008
 30
0.0
 11
170.47099999999989
 21
95.527199999999979
 31
0.0
  0
LINE
  5
41B
  8
0
 62
     7
 10
169.87899999999999
 20
103.256
 30
0.0
 11
170.47099999999989
 21
101.045
 31
0.0
  0
LINE
  5
41C
  8
0
 62
     7
 10
170.47099999999989
 20
101.045
 30
0.0
 11
171.06399999999999
 21
103.256
 31
0.0
  0
LINE
  5
41D
  8
0
 62
     7
 10
171.06399999999999
 20
103.256
 30
0.0
 11
169.87899999999999
 21
103.256
 31
0.0
  0
LINE
  5
41E
  8
0
 62
     7
 10
171.06399999999999
 20
97.167799999999986
 30
0.0
 11
170.47099999999989
 21
99.378200000000021
 31
0.0
  0
LINE
  5
41F
  8
0
 62
     7
 10
170.47099999999989
 20
99.378200000000021
 30
0.0
 11
169.87899999999999
 21
97.167799999999986
 31
0.0
  0
LINE
  5
420
  8
0
 62
     7
 10
169.87899999999999
 20
97.167799999999986
 30
0.0
 11
171.06399999999999
 21
97.167799999999986
 31
0.0
  0
LINE
  5
421
  8
0
 62
     7
 10
158.13499999999999
 20
101.045
 30
0.0
 11
176.94399999999999
 21
101.045
 31
0.0
  0
LINE
  5
422
  8
0
 62
     7
 10
158.13499999999999
 20
96.711699999999993
 30
0.0
 11
176.94399999999999
 21
96.711699999999993
 31
0.0
  0
LINE
  5
423
  8
0
 62
     7
 10
176.244
 20
104.874
 30
0.0
 11
176.244
 21
92.860699999999994
 31
0.0
  0
LINE
  5
424
  8
0
 62
     7
 10
145.77199999999999
 20
97.2774
 30
0.0
 11
147.93600000000001
 21
97.169899999999998
 31
0.0
  0
ARC
  5
425
  8
0
 62
     7
 10
259.87921799999998
 20
2350.2280000000001
 30
0.0
 40
2255.8380000000002
 50
267.15560199999999
 51
267.21062000000001
  0
LINE
  5
426
  8
0
 62
     7
 10
150.09899999999999
 20
97.063400000000001
 30
0.0
 11
152.26300000000001
 21
96.955900000000014
 31
0.0
  0
ARC
  5
427
  8
0
 62
     7
 10
264.20663000000002
 20
2350.0140000000001
 30
0.0
 40
2255.8380000000002
 50
267.15560199999999
 51
267.21062000000001
  0
LINE
  5
428
  8
0
 62
     7
 10
155.31
 20
96.805400000000006
 30
0.0
 11
155.30099999999999
 21
96.806100000000015
 31
0.0
  0
ARC
  5
429
  8
0
 62
     7
 10
155.299711
 20
96.838984999999994
 30
0.0
 40
0.03294
 50
255.416291
 51
272.35272300000003
  0
ARC
  5
42A
  8
0
 62
     7
 10
155.292653
 20
97.048228000000023
 30
0.0
 40
0.241125
 50
263.14099099999999
 51
269.70636100000002
  0
ARC
  5
42B
  8
0
 62
     7
 10
155.21181899999999
 20
96.299782999999991
 30
0.0
 40
0.5116990000000001
 50
84.16329300000001
 51
87.258381999999997
  0
ARC
  5
42C
  8
0
 62
     7
 10
156.11500899999999
 20
110.014681
 30
0.0
 40
13.232991999999999
 50
265.84867300000002
 51
266.19258300000013
  0
ARC
  5
42D
  8
0
 62
     7
 10
155.81357499999999
 20
106.826133
 30
0.0
 40
10.031231999999999
 50
265.79378800000001
 51
266.24746800000003
  0
ARC
  5
42E
  8
0
 62
     7
 10
155.315586
 20
101.706018
 30
0.0
 40
4.8898820000000001
 50
265.98764399999999
 51
267.21294799999998
  0
ARC
  5
42F
  8
0
 62
     7
 10
154.52565799999999
 20
89.318113999999994
 30
0.0
 40
7.5233449999999991
 50
86.587844000000004
 51
87.386561999999984
  0
LINE
  5
430
  8
0
 62
     7
 10
154.869
 20
96.833600000000004
 30
0.0
 11
154.76400000000001
 21
96.838499999999996
 31
0.0
  0
ARC
  5
431
  8
0
 62
     7
 10
154.61340200000001
 20
93.859453000000016
 30
0.0
 40
2.9828069999999989
 50
87.106560999999985
 51
89.112892000000002
  0
ARC
  5
432
  8
0
 62
     7
 10
154.21573100000001
 20
85.221599999999995
 30
0.0
 40
11.628776
 50
87.812573999999984
 51
88.203220000000002
  0
ARC
  5
433
  8
0
 62
     7
 10
154.19291299999989
 20
86.846431999999993
 30
0.0
 40
10.005729000000001
 50
87.780889999999985
 51
88.234904
  0
LINE
  5
434
  8
0
 62
     7
 10
154.501
 20
96.847399999999993
 30
0.0
 11
154.47399999999999
 21
96.847399999999993
 31
0.0
  0
ARC
  5
435
  8
0
 62
     7
 10
154.45273499999999
 20
96.660457999999991
 30
0.0
 40
0.188111
 50
83.648349999999994
 51
92.056460000000015
  0
LINE
  5
436
  8
0
 62
     7
 10
154.446
 20
96.848400000000012
 30
0.0
 11
154.43600000000001
 21
96.848400000000012
 31
0.0
  0
LINE
  5
437
  8
0
 62
     7
 10
154.43600000000001
 20
96.848400000000012
 30
0.0
 11
154.42699999999999
 21
96.849500000000006
 31
0.0
  0
ARC
  5
438
  8
0
 62
     7
 10
173.052435
 20
455.792055
 30
0.0
 40
359.42485099999999
 50
267.17054899999999
 51
267.24609600000002
  0
ARC
  5
439
  8
0
 62
     7
 10
161.42761100000001
 20
204.30135100000001
 30
0.0
 40
107.667095
 50
266.99501600000002
 51
267.246869
  0
ARC
  5
43A
  8
0
 62
     7
 10
171.51200900000001
 20
404.53367300000002
 30
0.0
 40
308.15301899999997
 50
267.16226599999999
 51
267.25031899999999
  0
LINE
  5
43B
  8
0
 62
     7
 10
156.72900000000001
 20
96.735399999999998
 30
0.0
 11
157.202
 21
96.711699999999993
 31
0.0
  0
ARC
  5
43C
  8
0
 62
     7
 10
145.79102599999999
 20
97.534363999999997
 30
0.0
 40
0.257712
 50
187.526353
 51
265.73702100000003
  0
ARC
  5
43D
  8
0
 62
     7
 10
145.38535999999999
 20
100.71268499999999
 30
0.0
 40
0.137545
 50
352.57946299999998
 51
357.62235299999998
  0
ARC
  5
43E
  8
0
 62
     7
 10
145.78061600000001
 20
100.686645
 30
0.0
 40
0.258576
 50
92.167846999999995
 51
172.649765
  0
ARC
  5
43F
  8
0
 62
     7
 10
162.1213149999999
 20
99.171515999999997
 30
0.0
 40
16.669319999999999
 50
174.75641899999999
 51
185.714842
  0
ARC
  5
440
  8
0
 62
     7
 10
145.282286
 20
100.733666
 30
0.0
 40
0.241977
 50
353.66797800000001
 51
356.533838
  0
LINE
  5
441
  8
0
 62
     7
 10
157.202
 20
96.711699999999993
 30
0.0
 11
157.202
 21
101.045
 31
0.0
  0
LINE
  5
442
  8
0
 62
     7
 10
145.77099999999999
 20
100.94499999999999
 30
0.0
 11
157.202
 21
101.045
 31
0.0
  0
LINE
  5
443
  8
0
 62
     7
 10
145.77199999999999
 20
97.2774
 30
0.0
 11
147.93600000000001
 21
97.169899999999998
 31
0.0
  0
ARC
  5
444
  8
0
 62
     7
 10
259.87921799999998
 20
2350.2280000000001
 30
0.0
 40
2255.8380000000002
 50
267.15560199999999
 51
267.21062000000001
  0
LINE
  5
445
  8
0
 62
     7
 10
150.09899999999999
 20
97.063400000000001
 30
0.0
 11
152.26300000000001
 21
96.955900000000014
 31
0.0
  0
ARC
  5
446
  8
0
 62
     7
 10
264.20663000000002
 20
2350.0140000000001
 30
0.0
 40
2255.8380000000002
 50
267.15560199999999
 51
267.21062000000001
  0
LINE
  5
447
  8
0
 62
     7
 10
155.31
 20
96.805400000000006
 30
0.0
 11
155.30099999999999
 21
96.806100000000015
 31
0.0
  0
ARC
  5
448
  8
0
 62
     7
 10
155.299711
 20
96.838984999999994
 30
0.0
 40
0.03294
 50
255.416291
 51
272.35272300000003
  0
ARC
  5
449
  8
0
 62
     7
 10
155.292653
 20
97.048228000000023
 30
0.0
 40
0.241125
 50
263.14099099999999
 51
269.70636100000002
  0
ARC
  5
44A
  8
0
 62
     7
 10
155.21181899999999
 20
96.299782999999991
 30
0.0
 40
0.5116990000000001
 50
84.16329300000001
 51
87.258381999999997
  0
ARC
  5
44B
  8
0
 62
     7
 10
156.11500899999999
 20
110.014681
 30
0.0
 40
13.232991999999999
 50
265.84867300000002
 51
266.19258300000013
  0
ARC
  5
44C
  8
0
 62
     7
 10
155.81357499999999
 20
106.826133
 30
0.0
 40
10.031231999999999
 50
265.79378800000001
 51
266.24746800000003
  0
ARC
  5
44D
  8
0
 62
     7
 10
155.315586
 20
101.706018
 30
0.0
 40
4.8898820000000001
 50
265.98764399999999
 51
267.21294799999998
  0
ARC
  5
44E
  8
0
 62
     7
 10
154.52565799999999
 20
89.318113999999994
 30
0.0
 40
7.5233449999999991
 50
86.587844000000004
 51
87.386561999999984
  0
LINE
  5
44F
  8
0
 62
     7
 10
154.869
 20
96.833600000000004
 30
0.0
 11
154.76400000000001
 21
96.838499999999996
 31
0.0
  0
ARC
  5
450
  8
0
 62
     7
 10
154.61340200000001
 20
93.859453000000016
 30
0.0
 40
2.9828069999999989
 50
87.106560999999985
 51
89.112892000000002
  0
ARC
  5
451
  8
0
 62
     7
 10
154.21573100000001
 20
85.221599999999995
 30
0.0
 40
11.628776
 50
87.812573999999984
 51
88.203220000000002
  0
ARC
  5
452
  8
0
 62
     7
 10
154.19291299999989
 20
86.846431999999993
 30
0.0
 40
10.005729000000001
 50
87.780889999999985
 51
88.234904
  0
LINE
  5
453
  8
0
 62
     7
 10
154.501
 20
96.847399999999993
 30
0.0
 11
154.47399999999999
 21
96.847399999999993
 31
0.0
  0
ARC
  5
454
  8
0
 62
     7
 10
154.45273499999999
 20
96.660457999999991
 30
0.0
 40
0.188111
 50
83.648349999999994
 51
92.056460000000015
  0
LINE
  5
455
  8
0
 62
     7
 10
154.446
 20
96.848400000000012
 30
0.0
 11
154.43600000000001
 21
96.848400000000012
 31
0.0
  0
LINE
  5
456
  8
0
 62
     7
 10
154.43600000000001
 20
96.848400000000012
 30
0.0
 11
154.42699999999999
 21
96.849500000000006
 31
0.0
  0
ARC
  5
457
  8
0
 62
     7
 10
173.052435
 20
455.792055
 30
0.0
 40
359.42485099999999
 50
267.17054899999999
 51
267.24609600000002
  0
ARC
  5
458
  8
0
 62
     7
 10
161.42761100000001
 20
204.30135100000001
 30
0.0
 40
107.667095
 50
266.99501600000002
 51
267.246869
  0
ARC
  5
459
  8
0
 62
     7
 10
171.51200900000001
 20
404.53367300000002
 30
0.0
 40
308.15301899999997
 50
267.16226599999999
 51
267.25031899999999
  0
LINE
  5
45A
  8
0
 62
     7
 10
156.72900000000001
 20
96.735399999999998
 30
0.0
 11
157.202
 21
96.711699999999993
 31
0.0
  0
ARC
  5
45B
  8
0
 62
     7
 10
145.79102599999999
 20
97.534363999999997
 30
0.0
 40
0.257712
 50
187.526353
 51
265.73702100000003
  0
ARC
  5
45C
  8
0
 62
     7
 10
145.38535999999999
 20
100.71268499999999
 30
0.0
 40
0.137545
 50
352.57946299999998
 51
357.62235299999998
  0
ARC
  5
45D
  8
0
 62
     7
 10
145.78061600000001
 20
100.686645
 30
0.0
 40
0.258576
 50
92.167846999999995
 51
172.649765
  0
ARC
  5
45E
  8
0
 62
     7
 10
162.1213149999999
 20
99.171515999999997
 30
0.0
 40
16.669319999999999
 50
174.75641899999999
 51
185.714842
  0
ARC
  5
45F
  8
0
 62
     7
 10
145.282286
 20
100.733666
 30
0.0
 40
0.241977
 50
353.66797800000001
 51
356.533838
  0
LINE
  5
460
  8
0
 62
     7
 10
157.202
 20
101.02
 30
0.0
 11
157.202
 21
101.045
 31
0.0
  0
LINE
  5
461
  8
0
 62
     7
 10
145.77099999999999
 20
100.94499999999999
 30
0.0
 11
157.202
 21
101.045
 31
0.0
  0
LINE
  5
462
  8
0
 62
     7
 10
134.65700000000001
 20
152.83600000000001
 30
0.0
 11
146.452
 21
152.83600000000001
 31
0.0
  0
LINE
  5
463
  8
0
 62
     7
 10
134.91399999999999
 20
164.58600000000001
 30
0.0
 11
146.452
 21
164.58600000000001
 31
0.0
  0
LINE
  5
464
  8
0
 62
     7
 10
146.34399999999999
 20
162.375
 30
0.0
 11
145.75200000000001
 21
164.58600000000001
 31
0.0
  0
LINE
  5
465
  8
0
 62
     7
 10
145.75200000000001
 20
164.58600000000001
 30
0.0
 11
145.15899999999999
 21
162.375
 31
0.0
  0
LINE
  5
466
  8
0
 62
     7
 10
145.15899999999999
 20
162.375
 30
0.0
 11
146.34399999999999
 21
162.375
 31
0.0
  0
LINE
  5
467
  8
0
 62
     7
 10
145.15899999999999
 20
155.048
 30
0.0
 11
145.75200000000001
 21
152.83600000000001
 31
0.0
  0
LINE
  5
468
  8
0
 62
     7
 10
145.75200000000001
 20
152.83600000000001
 30
0.0
 11
146.34399999999999
 21
155.048
 31
0.0
  0
LINE
  5
469
  8
0
 62
     7
 10
146.34399999999999
 20
155.048
 30
0.0
 11
145.15899999999999
 21
155.048
 31
0.0
  0
LINE
  5
46A
  8
0
 62
     7
 10
145.75200000000001
 20
164.58600000000001
 30
0.0
 11
145.75200000000001
 21
152.83600000000001
 31
0.0
  0
LINE
  5
46B
  8
0
 62
     7
 10
132.69800000000001
 20
164.58600000000001
 30
0.0
 11
132.69800000000001
 21
171.542
 31
0.0
  0
LINE
  5
46C
  8
0
 62
     7
 10
132.06399999999999
 20
164.58600000000001
 30
0.0
 11
132.06399999999999
 21
171.542
 31
0.0
  0
LINE
  5
46D
  8
0
 62
     7
 10
131.898
 20
171.66
 30
0.0
 11
132.863
 21
171.96199999999999
 31
0.0
  0
LINE
  5
46E
  8
0
 62
     7
 10
131.898
 20
171.13399999999999
 30
0.0
 11
132.863
 21
171.43600000000001
 31
0.0
  0
LINE
  5
46F
  8
0
 62
     7
 10
131.898
 20
170.608
 30
0.0
 11
132.863
 21
170.91
 31
0.0
  0
LINE
  5
470
  8
0
 62
     7
 10
131.898
 20
170.08099999999999
 30
0.0
 11
132.863
 21
170.38300000000001
 31
0.0
  0
LINE
  5
471
  8
0
 62
     7
 10
131.898
 20
169.55500000000001
 30
0.0
 11
132.863
 21
169.857
 31
0.0
  0
LINE
  5
472
  8
0
 62
     7
 10
131.898
 20
169.029
 30
0.0
 11
132.863
 21
169.33000000000001
 31
0.0
  0
LINE
  5
473
  8
0
 62
     7
 10
131.898
 20
168.50200000000001
 30
0.0
 11
132.863
 21
168.804
 31
0.0
  0
LINE
  5
474
  8
0
 62
     7
 10
131.898
 20
167.976
 30
0.0
 11
132.863
 21
168.27799999999999
 31
0.0
  0
LINE
  5
475
  8
0
  6
AIGENLINE001
 62
     7
 10
132.381
 20
164.041
 30
0.0
 11
132.381
 21
173.08500000000001
 31
0.0
  0
LINE
  5
476
  8
0
 62
     7
 10
132.69800000000001
 20
171.542
 30
0.0
 11
132.381
 21
172.41999999999999
 31
0.0
  0
LINE
  5
477
  8
0
 62
     7
 10
132.06399999999999
 20
171.542
 30
0.0
 11
132.381
 21
172.41999999999999
 31
0.0
  0
LINE
  5
478
  8
0
 62
     7
 10
131.898
 20
166.92400000000001
 30
0.0
 11
132.863
 21
167.22499999999999
 31
0.0
  0
LINE
  5
479
  8
0
 62
     7
 10
131.898
 20
167.44999999999999
 30
0.0
 11
132.863
 21
167.751
 31
0.0
  0
LINE
  5
47A
  8
0
 62
     7
 10
132.06399999999999
 20
166.58600000000001
 30
0.0
 11
132.69800000000001
 21
166.58600000000001
 31
0.0
  0
LINE
  5
47B
  8
0
 62
     7
 10
128.69800000000001
 20
164.58600000000001
 30
0.0
 11
128.69800000000001
 21
171.542
 31
0.0
  0
LINE
  5
47C
  8
0
 62
     7
 10
128.06399999999999
 20
164.58600000000001
 30
0.0
 11
128.06399999999999
 21
171.542
 31
0.0
  0
LINE
  5
47D
  8
0
 62
     7
 10
127.899
 20
171.66
 30
0.0
 11
128.863
 21
171.96199999999999
 31
0.0
  0
LINE
  5
47E
  8
0
 62
     7
 10
127.899
 20
171.13399999999999
 30
0.0
 11
128.863
 21
171.43600000000001
 31
0.0
  0
LINE
  5
47F
  8
0
 62
     7
 10
127.899
 20
170.608
 30
0.0
 11
128.863
 21
170.91
 31
0.0
  0
LINE
  5
480
  8
0
 62
     7
 10
127.899
 20
170.08099999999999
 30
0.0
 11
128.863
 21
170.38300000000001
 31
0.0
  0
LINE
  5
481
  8
0
 62
     7
 10
127.899
 20
169.55500000000001
 30
0.0
 11
128.863
 21
169.857
 31
0.0
  0
LINE
  5
482
  8
0
 62
     7
 10
127.899
 20
169.029
 30
0.0
 11
128.863
 21
169.33000000000001
 31
0.0
  0
LINE
  5
483
  8
0
 62
     7
 10
127.899
 20
168.50200000000001
 30
0.0
 11
128.863
 21
168.804
 31
0.0
  0
LINE
  5
484
  8
0
 62
     7
 10
127.899
 20
167.976
 30
0.0
 11
128.863
 21
168.27799999999999
 31
0.0
  0
LINE
  5
485
  8
0
  6
AIGENLINE001
 62
     7
 10
130.381
 20
94.025199999999998
 30
0.0
 11
130.381
 21
102.91800000000001
 31
0.0
  0
LINE
  5
486
  8
0
  6
AIGENLINE001
 62
     7
 10
30.380600000000001
 20
94.025199999999998
 30
0.0
 11
30.380600000000001
 21
102.91800000000001
 31
0.0
  0
LINE
  5
487
  8
0
  6
AIGENLINE001
 62
     7
 10
130.381
 20
150.78200000000001
 30
0.0
 11
130.381
 21
166.50800000000001
 31
0.0
  0
LINE
  5
488
  8
0
  6
AIGENLINE001
 62
     7
 10
30.380600000000001
 20
150.78200000000001
 30
0.0
 11
30.380600000000001
 21
166.50800000000001
 31
0.0
  0
LINE
  5
489
  8
0
  6
AIGENLINE001
 62
     7
 10
128.381
 20
164.041
 30
0.0
 11
128.381
 21
173.08500000000001
 31
0.0
  0
LINE
  5
48A
  8
0
 62
     7
 10
128.69800000000001
 20
171.542
 30
0.0
 11
128.381
 21
172.41999999999999
 31
0.0
  0
LINE
  5
48B
  8
0
 62
     7
 10
128.06399999999999
 20
171.542
 30
0.0
 11
128.381
 21
172.41999999999999
 31
0.0
  0
LINE
  5
48C
  8
0
 62
     7
 10
127.899
 20
166.92400000000001
 30
0.0
 11
128.863
 21
167.22499999999999
 31
0.0
  0
LINE
  5
48D
  8
0
 62
     7
 10
127.899
 20
167.44999999999999
 30
0.0
 11
128.863
 21
167.751
 31
0.0
  0
LINE
  5
48E
  8
0
 62
     7
 10
128.06399999999999
 20
166.58600000000001
 30
0.0
 11
128.69800000000001
 21
166.58600000000001
 31
0.0
  0
LINE
  5
48F
  8
0
 62
     7
 10
128.381
 20
173.738
 30
0.0
 11
128.381
 21
182.07400000000001
 31
0.0
  0
LINE
  5
490
  8
0
 62
     7
 10
132.381
 20
182.07400000000001
 30
0.0
 11
132.381
 21
173.738
 31
0.0
  0
LINE
  5
491
  8
0
 62
     7
 10
36.425199999999997
 20
191.21000000000001
 30
0.0
 11
34.213500000000003
 21
190.61799999999999
 31
0.0
  0
LINE
  5
492
  8
0
 62
     7
 10
34.213500000000003
 20
190.61799999999999
 30
0.0
 11
36.425199999999997
 21
190.02500000000001
 31
0.0
  0
LINE
  5
493
  8
0
 62
     7
 10
36.425199999999997
 20
190.02500000000001
 30
0.0
 11
36.425199999999997
 21
191.21000000000001
 31
0.0
  0
LINE
  5
494
  8
0
 62
     7
 10
128.75899999999999
 20
191.21000000000001
 30
0.0
 11
126.547
 21
190.61799999999999
 31
0.0
  0
LINE
  5
495
  8
0
 62
     7
 10
126.547
 20
190.61799999999999
 30
0.0
 11
128.75899999999999
 21
190.02500000000001
 31
0.0
  0
LINE
  5
496
  8
0
 62
     7
 10
128.75899999999999
 20
190.02500000000001
 30
0.0
 11
128.75899999999999
 21
191.21000000000001
 31
0.0
  0
LINE
  5
497
  8
0
 62
     7
 10
124.336
 20
190.02500000000001
 30
0.0
 11
126.547
 21
190.61799999999999
 31
0.0
  0
LINE
  5
498
  8
0
 62
     7
 10
126.547
 20
190.61799999999999
 30
0.0
 11
124.336
 21
191.21000000000001
 31
0.0
  0
LINE
  5
499
  8
0
 62
     7
 10
124.336
 20
191.21000000000001
 30
0.0
 11
124.336
 21
190.02500000000001
 31
0.0
  0
LINE
  5
49A
  8
0
 62
     7
 10
132.00299999999999
 20
190.02500000000001
 30
0.0
 11
134.214
 21
190.61799999999999
 31
0.0
  0
LINE
  5
49B
  8
0
 62
     7
 10
134.214
 20
190.61799999999999
 30
0.0
 11
132.00299999999999
 21
191.21000000000001
 31
0.0
  0
LINE
  5
49C
  8
0
 62
     7
 10
132.00299999999999
 20
191.21000000000001
 30
0.0
 11
132.00299999999999
 21
190.02500000000001
 31
0.0
  0
LINE
  5
49D
  8
0
 62
     7
 10
134.59200000000001
 20
181.96600000000001
 30
0.0
 11
132.381
 21
181.374
 31
0.0
  0
LINE
  5
49E
  8
0
 62
     7
 10
132.381
 20
181.374
 30
0.0
 11
134.59200000000001
 21
180.78100000000001
 31
0.0
  0
LINE
  5
49F
  8
0
 62
     7
 10
134.59200000000001
 20
180.78100000000001
 30
0.0
 11
134.59200000000001
 21
181.96600000000001
 31
0.0
  0
LINE
  5
4A0
  8
0
 62
     7
 10
126.169
 20
180.78100000000001
 30
0.0
 11
128.381
 21
181.374
 31
0.0
  0
LINE
  5
4A1
  8
0
 62
     7
 10
128.381
 20
181.374
 30
0.0
 11
126.169
 21
181.96600000000001
 31
0.0
  0
LINE
  5
4A2
  8
0
 62
     7
 10
126.169
 20
181.96600000000001
 30
0.0
 11
126.169
 21
180.78100000000001
 31
0.0
  0
LINE
  5
4A3
  8
0
 62
     7
 10
124.64
 20
181.374
 30
0.0
 11
136.03999999999999
 21
181.374
 31
0.0
  0
LINE
  5
4A4
  8
0
 62
     7
 10
126.547
 20
165.28599999999989
 30
0.0
 11
126.547
 21
191.31800000000001
 31
0.0
  0
LINE
  5
4A5
  8
0
 62
     7
 10
32.696899999999999
 20
164.58600000000001
 30
0.0
 11
32.696899999999999
 21
171.542
 31
0.0
  0
LINE
  5
4A6
  8
0
 62
     7
 10
32.063699999999997
 20
164.58600000000001
 30
0.0
 11
32.063699999999997
 21
171.542
 31
0.0
  0
LINE
  5
4A7
  8
0
 62
     7
 10
31.898299999999999
 20
171.66
 30
0.0
 11
32.863
 21
171.96199999999999
 31
0.0
  0
LINE
  5
4A8
  8
0
 62
     7
 10
31.898299999999999
 20
171.13399999999999
 30
0.0
 11
32.863
 21
171.43600000000001
 31
0.0
  0
LINE
  5
4A9
  8
0
 62
     7
 10
31.898299999999999
 20
170.608
 30
0.0
 11
32.863
 21
170.91
 31
0.0
  0
LINE
  5
4AA
  8
0
 62
     7
 10
31.898299999999999
 20
170.08099999999999
 30
0.0
 11
32.863
 21
170.38300000000001
 31
0.0
  0
LINE
  5
4AB
  8
0
 62
     7
 10
31.898299999999999
 20
169.55500000000001
 30
0.0
 11
32.863
 21
169.857
 31
0.0
  0
LINE
  5
4AC
  8
0
 62
     7
 10
31.898299999999999
 20
169.029
 30
0.0
 11
32.863
 21
169.33000000000001
 31
0.0
  0
LINE
  5
4AD
  8
0
 62
     7
 10
31.898299999999999
 20
168.50200000000001
 30
0.0
 11
32.863
 21
168.804
 31
0.0
  0
LINE
  5
4AE
  8
0
 62
     7
 10
31.898299999999999
 20
167.976
 30
0.0
 11
32.863
 21
168.27799999999999
 31
0.0
  0
LINE
  5
4AF
  8
0
  6
AIGENLINE001
 62
     7
 10
32.380699999999997
 20
164.041
 30
0.0
 11
32.380699999999997
 21
173.08500000000001
 31
0.0
  0
LINE
  5
4B0
  8
0
 62
     7
 10
32.696899999999999
 20
171.542
 30
0.0
 11
32.380699999999997
 21
172.41999999999999
 31
0.0
  0
LINE
  5
4B1
  8
0
 62
     7
 10
32.063699999999997
 20
171.542
 30
0.0
 11
32.380699999999997
 21
172.41999999999999
 31
0.0
  0
LINE
  5
4B2
  8
0
 62
     7
 10
31.898299999999999
 20
166.92400000000001
 30
0.0
 11
32.863
 21
167.22499999999999
 31
0.0
  0
LINE
  5
4B3
  8
0
 62
     7
 10
31.898299999999999
 20
167.44999999999999
 30
0.0
 11
32.863
 21
167.751
 31
0.0
  0
LINE
  5
4B4
  8
0
 62
     7
 10
32.063699999999997
 20
166.58600000000001
 30
0.0
 11
32.696899999999999
 21
166.58600000000001
 31
0.0
  0
LINE
  5
4B5
  8
0
 62
     7
 10
28.697099999999999
 20
164.58600000000001
 30
0.0
 11
28.697099999999999
 21
171.542
 31
0.0
  0
LINE
  5
4B6
  8
0
 62
     7
 10
28.063600000000001
 20
164.58600000000001
 30
0.0
 11
28.063600000000001
 21
171.542
 31
0.0
  0
LINE
  5
4B7
  8
0
 62
     7
 10
27.898199999999999
 20
171.66
 30
0.0
 11
28.8628
 21
171.96199999999999
 31
0.0
  0
LINE
  5
4B8
  8
0
 62
     7
 10
27.898199999999999
 20
171.13399999999999
 30
0.0
 11
28.8628
 21
171.43600000000001
 31
0.0
  0
LINE
  5
4B9
  8
0
 62
     7
 10
27.898199999999999
 20
170.608
 30
0.0
 11
28.8628
 21
170.91
 31
0.0
  0
LINE
  5
4BA
  8
0
 62
     7
 10
27.898199999999999
 20
170.08099999999999
 30
0.0
 11
28.8628
 21
170.38300000000001
 31
0.0
  0
LINE
  5
4BB
  8
0
 62
     7
 10
27.898199999999999
 20
169.55500000000001
 30
0.0
 11
28.8628
 21
169.857
 31
0.0
  0
LINE
  5
4BC
  8
0
 62
     7
 10
27.898199999999999
 20
169.029
 30
0.0
 11
28.8628
 21
169.33000000000001
 31
0.0
  0
LINE
  5
4BD
  8
0
 62
     7
 10
27.898199999999999
 20
168.50200000000001
 30
0.0
 11
28.8628
 21
168.804
 31
0.0
  0
LINE
  5
4BE
  8
0
 62
     7
 10
27.898199999999999
 20
167.976
 30
0.0
 11
28.8628
 21
168.27799999999999
 31
0.0
  0
LINE
  5
4BF
  8
0
  6
AIGENLINE001
 62
     7
 10
28.380500000000001
 20
164.041
 30
0.0
 11
28.380500000000001
 21
173.08500000000001
 31
0.0
  0
LINE
  5
4C0
  8
0
 62
     7
 10
28.697099999999999
 20
171.542
 30
0.0
 11
28.380500000000001
 21
172.41999999999999
 31
0.0
  0
LINE
  5
4C1
  8
0
 62
     7
 10
28.063600000000001
 20
171.542
 30
0.0
 11
28.380500000000001
 21
172.41999999999999
 31
0.0
  0
LINE
  5
4C2
  8
0
 62
     7
 10
27.898199999999999
 20
166.92400000000001
 30
0.0
 11
28.8628
 21
167.22499999999999
 31
0.0
  0
LINE
  5
4C3
  8
0
 62
     7
 10
27.898199999999999
 20
167.44999999999999
 30
0.0
 11
28.8628
 21
167.751
 31
0.0
  0
LINE
  5
4C4
  8
0
 62
     7
 10
28.063600000000001
 20
166.58600000000001
 30
0.0
 11
28.697099999999999
 21
166.58600000000001
 31
0.0
  0
LINE
  5
4C5
  8
0
 62
     7
 10
28.380500000000001
 20
173.738
 30
0.0
 11
28.380500000000001
 21
182.07400000000001
 31
0.0
  0
LINE
  5
4C6
  8
0
 62
     7
 10
32.380699999999997
 20
182.07400000000001
 30
0.0
 11
32.380699999999997
 21
173.738
 31
0.0
  0
LINE
  5
4C7
  8
0
 62
     7
 10
28.758500000000002
 20
191.21000000000001
 30
0.0
 11
26.546700000000001
 21
190.61799999999999
 31
0.0
  0
LINE
  5
4C8
  8
0
 62
     7
 10
26.546700000000001
 20
190.61799999999999
 30
0.0
 11
28.758500000000002
 21
190.02500000000001
 31
0.0
  0
LINE
  5
4C9
  8
0
 62
     7
 10
28.758500000000002
 20
190.02500000000001
 30
0.0
 11
28.758500000000002
 21
191.21000000000001
 31
0.0
  0
LINE
  5
4CA
  8
0
 62
     7
 10
32.002000000000002
 20
190.02500000000001
 30
0.0
 11
34.213500000000003
 21
190.61799999999999
 31
0.0
  0
LINE
  5
4CB
  8
0
 62
     7
 10
34.213500000000003
 20
190.61799999999999
 30
0.0
 11
32.002000000000002
 21
191.21000000000001
 31
0.0
  0
LINE
  5
4CC
  8
0
 62
     7
 10
32.002000000000002
 20
191.21000000000001
 30
0.0
 11
32.002000000000002
 21
190.02500000000001
 31
0.0
  0
LINE
  5
4CD
  8
0
 62
     7
 10
26.546700000000001
 20
190.61799999999999
 30
0.0
 11
134.214
 21
190.61799999999999
 31
0.0
  0
LINE
  5
4CE
  8
0
 62
     7
 10
34.592399999999998
 20
181.96600000000001
 30
0.0
 11
32.380699999999997
 21
181.374
 31
0.0
  0
LINE
  5
4CF
  8
0
 62
     7
 10
32.380699999999997
 20
181.374
 30
0.0
 11
34.592399999999998
 21
180.78100000000001
 31
0.0
  0
LINE
  5
4D0
  8
0
 62
     7
 10
34.592399999999998
 20
180.78100000000001
 30
0.0
 11
34.592399999999998
 21
181.96600000000001
 31
0.0
  0
LINE
  5
4D1
  8
0
 62
     7
 10
26.168800000000001
 20
180.78100000000001
 30
0.0
 11
28.380500000000001
 21
181.374
 31
0.0
  0
LINE
  5
4D2
  8
0
 62
     7
 10
28.380500000000001
 20
181.374
 30
0.0
 11
26.168800000000001
 21
181.96600000000001
 31
0.0
  0
LINE
  5
4D3
  8
0
 62
     7
 10
26.168800000000001
 20
181.96600000000001
 30
0.0
 11
26.168800000000001
 21
180.78100000000001
 31
0.0
  0
LINE
  5
4D4
  8
0
 62
     7
 10
24.549600000000002
 20
181.374
 30
0.0
 11
35.949800000000003
 21
181.374
 31
0.0
  0
LINE
  5
4D5
  8
0
 62
     7
 10
134.214
 20
165.28599999999989
 30
0.0
 11
134.214
 21
202.541
 31
0.0
  0
LINE
  5
4D6
  8
0
 62
     7
 10
34.213500000000003
 20
165.28599999999989
 30
0.0
 11
34.213500000000003
 21
191.31800000000001
 31
0.0
  0
LINE
  5
4D7
  8
0
 62
     7
 10
26.546700000000001
 20
165.28599999999989
 30
0.0
 11
26.546700000000001
 21
202.541
 31
0.0
  0
LINE
  5
4D8
  8
0
 62
     7
 10
28.758500000000002
 20
202.43299999999999
 30
0.0
 11
26.546700000000001
 21
201.84100000000001
 31
0.0
  0
LINE
  5
4D9
  8
0
 62
     7
 10
26.546700000000001
 20
201.84100000000001
 30
0.0
 11
28.758500000000002
 21
201.24799999999999
 31
0.0
  0
LINE
  5
4DA
  8
0
 62
     7
 10
28.758500000000002
 20
201.24799999999999
 30
0.0
 11
28.758500000000002
 21
202.43299999999999
 31
0.0
  0
LINE
  5
4DB
  8
0
 62
     7
 10
132.33099999999999
 20
201.33600000000001
 30
0.0
 11
134.542
 21
201.929
 31
0.0
  0
LINE
  5
4DC
  8
0
 62
     7
 10
134.542
 20
201.929
 30
0.0
 11
132.33099999999999
 21
202.52099999999999
 31
0.0
  0
LINE
  5
4DD
  8
0
 62
     7
 10
132.33099999999999
 20
202.52099999999999
 30
0.0
 11
132.33099999999999
 21
201.33600000000001
 31
0.0
  0
LINE
  5
4DE
  8
0
 62
     7
 10
26.546700000000001
 20
201.84100000000001
 30
0.0
 11
134.214
 21
201.84100000000001
 31
0.0
  0
LINE
  5
4DF
  8
0
 62
     7
 10
126.64700000000001
 20
153.17500000000001
 30
0.0
 11
126.64700000000001
 21
153.178
 31
0.0
  0
LINE
  5
4E0
  8
0
 62
     7
 10
126.64700000000001
 20
153.178
 30
0.0
 11
126.64700000000001
 21
153.18199999999999
 31
0.0
  0
ARC
  5
4E1
  8
0
 62
     7
 10
126.594435
 20
153.18866
 30
0.0
 40
0.053257
 50
353.34512799999999
 51
1.328870999999999
  0
ARC
  5
4E2
  8
0
 62
     7
 10
126.708562
 20
153.18974800000001
 30
0.0
 40
0.060884
 50
169.42686699999999
 51
179.861445
  0
ARC
  5
4E3
  8
0
 62
     7
 10
127.307698
 20
153.17391000000001
 30
0.0
 40
0.659539
 50
175.614136
 51
177.65290400000001
  0
ARC
  5
4E4
  8
0
 62
     7
 10
127.15311199999999
 20
153.204138
 30
0.0
 40
0.503428
 50
174.318724
 51
177.699411
  0
ARC
  5
4E5
  8
0
 62
     7
 10
124.64319500000001
 20
153.413634
 30
0.0
 40
2.0152959999999989
 50
355.45605699999999
 51
356.58517899999998
  0
ARC
  5
4E6
  8
0
 62
     7
 10
128.981043
 20
153.14321200000001
 30
0.0
 40
2.3309859999999998
 50
175.16313600000001
 51
176.30103800000001
  0
ARC
  5
4E7
  8
0
 62
     7
 10
123.976788
 20
153.54297
 30
0.0
 40
2.6892580000000001
 50
355.666358
 51
356.7808
  0
ARC
  5
4E8
  8
0
 62
     7
 10
122.009057
 20
153.72814600000001
 30
0.0
 40
4.6648769999999988
 50
355.86714999999998
 51
356.57322299999998
  0
ARC
  5
4E9
  8
0
 62
     7
 10
66.087668000000008
 20
157.51790199999999
 30
0.0
 40
60.714399999999991
 50
356.15762000000012
 51
356.23109499999998
  0
LINE
  5
4EA
  8
0
 62
     7
 10
126.67100000000001
 20
153.52699999999999
 30
0.0
 11
126.675
 21
153.61199999999999
 31
0.0
  0
LINE
  5
4EB
  8
0
 62
     7
 10
126.675
 20
153.61199999999999
 30
0.0
 11
126.68000000000001
 21
153.703
 31
0.0
  0
ARC
  5
4EC
  8
0
 62
     7
 10
112.919822
 20
154.41601799999989
 30
0.0
 40
13.779061
 50
357.03257400000001
 51
357.44921099999999
  0
ARC
  5
4ED
  8
0
 62
     7
 10
122.77078899999999
 20
154.034694
 30
0.0
 40
3.9213049999999998
 50
356.60945099999998
 51
358.15145200000001
  0
LINE
  5
4EE
  8
0
 62
     7
 10
126.69
 20
153.90799999999999
 30
0.0
 11
126.694
 21
154.01900000000001
 31
0.0
  0
LINE
  5
4EF
  8
0
 62
     7
 10
126.694
 20
154.01900000000001
 30
0.0
 11
126.699
 21
154.197
 31
0.0
  0
ARC
  5
4F0
  8
0
 62
     7
 10
103.764443
 20
154.727903
 30
0.0
 40
22.940705999999999
 50
358.67453799999998
 51
359.12205
  0
LINE
  5
4F1
  8
0
 62
     7
 10
126.702
 20
154.376
 30
0.0
 11
126.703
 21
154.44300000000001
 31
0.0
  0
LINE
  5
4F2
  8
0
 62
     7
 10
126.703
 20
154.44300000000001
 30
0.0
 11
126.70399999999999
 21
154.506
 31
0.0
  0
LINE
  5
4F3
  8
0
 62
     7
 10
126.70399999999999
 20
154.506
 30
0.0
 11
126.70399999999999
 21
154.56399999999999
 31
0.0
  0
LINE
  5
4F4
  8
0
 62
     7
 10
126.70399999999999
 20
154.56399999999999
 30
0.0
 11
126.70399999999999
 21
154.60599999999999
 31
0.0
  0
LINE
  5
4F5
  8
0
 62
     7
 10
126.70399999999999
 20
154.60599999999999
 30
0.0
 11
126.70399999999999
 21
154.65100000000001
 31
0.0
  0
LINE
  5
4F6
  8
0
 62
     7
 10
126.70399999999999
 20
154.65100000000001
 30
0.0
 11
126.70399999999999
 21
154.702
 31
0.0
  0
LINE
  5
4F7
  8
0
 62
     7
 10
126.70399999999999
 20
154.702
 30
0.0
 11
126.703
 21
154.755
 31
0.0
  0
ARC
  5
4F8
  8
0
 62
     7
 10
109.224396
 20
154.60257799999999
 30
0.0
 40
17.479417000000002
 50
0.5008
 51
1.0135369999999999
  0
LINE
  5
4F9
  8
0
 62
     7
 10
126.70099999999999
 20
154.91200000000001
 30
0.0
 11
126.69799999999999
 21
155.06399999999999
 31
0.0
  0
ARC
  5
4FA
  8
0
 62
     7
 10
96.35018199999999
 20
154.214383
 30
0.0
 40
30.359328000000001
 50
1.602749999999999
 51
1.8808309999999999
  0
LINE
  5
4FB
  8
0
 62
     7
 10
126.693
 20
155.21100000000001
 30
0.0
 11
126.688
 21
155.35300000000001
 31
0.0
  0
ARC
  5
4FC
  8
0
 62
     7
 10
147.28617299999999
 20
156.45328900000001
 30
0.0
 40
20.627893
 50
182.6746179999999
 51
183.05738400000001
  0
ARC
  5
4FD
  8
0
 62
     7
 10
117.76670900000001
 20
155.07977600000001
 30
0.0
 40
8.9235100000000003
 50
2.6394899999999999
 51
3.3582819999999991
  0
ARC
  5
4FE
  8
0
 62
     7
 10
110.98832400000001
 20
154.681422
 30
0.0
 40
15.71359
 50
3.3604539999999998
 51
3.7455850000000002
  0
ARC
  5
4FF
  8
0
 62
     7
 10
133.52321599999999
 20
156.212807
 30
0.0
 40
6.8734339999999987
 50
183.38922299999999
 51
184.21237199999999
  0
LINE
  5
500
  8
0
 62
     7
 10
126.66200000000001
 20
155.80600000000001
 30
0.0
 11
126.65600000000001
 21
155.89599999999999
 31
0.0
  0
ARC
  5
501
  8
0
 62
     7
 10
131.86541700000001
 20
156.343603
 30
0.0
 40
5.2289750000000002
 50
183.980639
 51
184.90640500000001
  0
LINE
  5
502
  8
0
 62
     7
 10
126.649
 20
155.98099999999999
 30
0.0
 11
126.643
 21
156.059
 31
0.0
  0
LINE
  5
503
  8
0
 62
     7
 10
126.643
 20
156.059
 30
0.0
 11
126.63800000000001
 21
156.11600000000001
 31
0.0
  0
LINE
  5
504
  8
0
 62
     7
 10
126.63800000000001
 20
156.11600000000001
 30
0.0
 11
126.634
 21
156.16800000000001
 31
0.0
  0
LINE
  5
505
  8
0
 62
     7
 10
126.634
 20
156.16800000000001
 30
0.0
 11
126.629
 21
156.214
 31
0.0
  0
LINE
  5
506
  8
0
 62
     7
 10
126.629
 20
156.214
 30
0.0
 11
126.626
 21
156.25299999999999
 31
0.0
  0
LINE
  5
507
  8
0
 62
     7
 10
126.626
 20
156.25299999999999
 30
0.0
 11
126.623
 21
156.28200000000001
 31
0.0
  0
LINE
  5
508
  8
0
 62
     7
 10
126.623
 20
156.28200000000001
 30
0.0
 11
126.621
 21
156.30500000000001
 31
0.0
  0
ARC
  5
509
  8
0
 62
     7
 10
126.58549499999999
 20
156.30581699999999
 30
0.0
 40
0.035676
 50
358.08606099999997
 51
11.441222
  0
LINE
  5
50A
  8
0
 62
     7
 10
126.62
 20
156.31299999999999
 30
0.0
 11
126.62
 21
156.31999999999999
 31
0.0
  0
LINE
  5
50B
  8
0
 62
     7
 10
126.62
 20
156.31999999999999
 30
0.0
 11
126.62
 21
156.327
 31
0.0
  0
LINE
  5
50C
  8
0
 62
     7
 10
126.62
 20
156.327
 30
0.0
 11
126.62
 21
156.33000000000001
 31
0.0
  0
ARC
  5
50D
  8
0
 62
     7
 10
126.941722
 20
153.130234
 30
0.0
 40
0.2943389999999999
 50
182.57086100000001
 51
267.95369099999999
  0
ARC
  5
50E
  8
0
 62
     7
 10
132.73969500000001
 20
154.22010599999999
 30
0.0
 40
1.384938
 50
272.08069699999999
 51
357.42865599999999
  0
LINE
  5
50F
  8
0
 62
     7
 10
126.62
 20
156.33000000000001
 30
0.0
 11
126.547
 21
164.58600000000001
 31
0.0
  0
LINE
  5
510
  8
0
 62
     7
 10
126.931
 20
152.83600000000001
 30
0.0
 11
132.78999999999999
 21
152.83600000000001
 31
0.0
  0
LINE
  5
511
  8
0
 62
     7
 10
126.648
 20
153.11699999999999
 30
0.0
 11
126.64700000000001
 21
153.17500000000001
 31
0.0
  0
LINE
  5
512
  8
0
 62
     7
 10
134.214
 20
164.58600000000001
 30
0.0
 11
126.547
 21
164.58600000000001
 31
0.0
  0
LINE
  5
513
  8
0
 62
     7
 10
134.12299999999999
 20
154.15799999999999
 30
0.0
 11
134.214
 21
164.58600000000001
 31
0.0
  0
LINE
  5
514
  8
0
 62
     7
 10
34.141800000000003
 20
156.33000000000001
 30
0.0
 11
34.141800000000003
 21
156.327
 31
0.0
  0
ARC
  5
515
  8
0
 62
     7
 10
34.164000999999999
 20
156.320831
 30
0.0
 40
0.022913
 50
165.66960700000001
 51
182.61836700000001
  0
ARC
  5
516
  8
0
 62
     7
 10
34.187717999999997
 20
156.31399999999999
 30
0.0
 40
0.046964
 50
172.92547300000001
 51
181.34971799999991
  0
ARC
  5
517
  8
0
 62
     7
 10
34.220545000000001
 20
156.298723
 30
0.0
 40
0.081027
 50
169.927572
 51
175.82235800000001
  0
LINE
  5
518
  8
0
 62
     7
 10
34.139699999999998
 20
156.30500000000001
 30
0.0
 11
34.138000000000012
 21
156.28200000000001
 31
0.0
  0
LINE
  5
519
  8
0
 62
     7
 10
34.138000000000012
 20
156.28200000000001
 30
0.0
 11
34.135300000000001
 21
156.25299999999999
 31
0.0
  0
ARC
  5
51A
  8
0
 62
     7
 10
41.093788000000004
 20
155.6861449999999
 30
0.0
 40
6.9815789999999991
 50
175.34325999999999
 51
175.66798600000001
  0
LINE
  5
51B
  8
0
 62
     7
 10
34.132199999999997
 20
156.214
 30
0.0
 11
34.128
 21
156.16800000000001
 31
0.0
  0
LINE
  5
51C
  8
0
 62
     7
 10
34.128
 20
156.16800000000001
 30
0.0
 11
34.123199999999997
 21
156.11600000000001
 31
0.0
  0
ARC
  5
51D
  8
0
 62
     7
 10
29.699854999999999
 20
156.43381400000001
 30
0.0
 40
4.4347320000000003
 50
355.15155299999998
 51
355.89268900000002
  0
ARC
  5
51E
  8
0
 62
     7
 10
38.657361999999999
 20
155.64047600000001
 30
0.0
 40
4.5578979999999998
 50
174.73157499999999
 51
175.72026099999999
  0
LINE
  5
51F
  8
0
 62
     7
 10
34.112200000000001
 20
155.98099999999999
 30
0.0
 11
34.106000000000002
 21
155.89599999999999
 31
0.0
  0
ARC
  5
520
  8
0
 62
     7
 10
40.348331000000002
 20
155.39675800000001
 30
0.0
 40
6.262321
 50
175.423935
 51
176.24880099999999
  0
ARC
  5
521
  8
0
 62
     7
 10
40.711453999999989
 20
155.3177189999999
 30
0.0
 40
6.6300660000000002
 50
175.77251999999999
 51
176.62588500000001
  0
LINE
  5
522
  8
0
 62
     7
 10
34.0929
 20
155.708
 30
0.0
 11
34.0867
 21
155.60299999999989
 31
0.0
  0
ARC
  5
523
  8
0
 62
     7
 10
43.047044999999997
 20
155.02177800000001
 30
0.0
 40
8.9791650000000001
 50
176.29175499999999
 51
177.006336
  0
ARC
  5
524
  8
0
 62
     7
 10
50.479447
 20
154.64180300000001
 30
0.0
 40
16.42127
 50
177.03669600000001
 51
177.51745700000001
  0
ARC
  5
525
  8
0
 62
     7
 10
48.546728000000002
 20
154.72113300000001
 30
0.0
 40
14.486929999999999
 50
177.499821
 51
178.06297599999999
  0
ARC
  5
526
  8
0
 62
     7
 10
52.220503999999998
 20
154.58509000000001
 30
0.0
 40
18.163209999999999
 50
178.02578600000001
 51
178.49059199999999
  0
ARC
  5
527
  8
0
 62
     7
 10
66.546464999999998
 20
154.176446
 30
0.0
 40
32.494978000000003
 50
178.435676
 51
178.70334199999999
  0
ARC
  5
528
  8
0
 62
     7
 10
69.016666000000001
 20
154.44856399999989
 30
0.0
 40
34.959928000000012
 50
179.24081799999999
 51
179.49717200000001
  0
ARC
  5
529
  8
0
 62
     7
 10
36.303854999999999
 20
154.71408799999989
 30
0.0
 40
2.2461500000000001
 50
178.947214
 51
180.31823499999999
  0
ARC
  5
52A
  8
0
 62
     7
 10
35.049923
 20
154.66290699999999
 30
0.0
 40
0.9929379999999998
 50
177.76593800000001
 51
180.65902
  0
LINE
  5
52B
  8
0
 62
     7
 10
34.057099999999998
 20
154.65100000000001
 30
0.0
 11
34.057099999999998
 21
154.60599999999999
 31
0.0
  0
LINE
  5
52C
  8
0
 62
     7
 10
34.057099999999998
 20
154.60599999999999
 30
0.0
 11
34.057099999999998
 21
154.56399999999999
 31
0.0
  0
ARC
  5
52D
  8
0
 62
     7
 10
36.355331
 20
154.56256999999999
 30
0.0
 40
2.2982800000000001
 50
179.96052599999999
 51
181.40359499999991
  0
ARC
  5
52E
  8
0
 62
     7
 10
39.480595999999998
 20
154.50455099999999
 30
0.0
 40
5.4228559999999986
 50
179.98177200000001
 51
180.64612099999991
  0
LINE
  5
52F
  8
0
 62
     7
 10
34.05810000000001
 20
154.44300000000001
 30
0.0
 11
34.058399999999999
 21
154.376
 31
0.0
  0
ARC
  5
530
  8
0
 62
     7
 10
56.994889999999998
 20
154.771975
 30
0.0
 40
22.939872000000001
 50
180.98809199999999
 51
181.4356379999999
  0
ARC
  5
531
  8
0
 62
     7
 10
49.391241999999998
 20
154.55234999999999
 30
0.0
 40
15.333136
 50
181.32705899999999
 51
181.9935449999999
  0
ARC
  5
532
  8
0
 62
     7
 10
37.226001000000011
 20
154.081401
 30
0.0
 40
3.1592319999999989
 50
181.1324679999999
 51
183.14272099999999
  0
ARC
  5
533
  8
0
 62
     7
 10
51.842418000000002
 20
154.61036999999999
 30
0.0
 40
17.784763999999999
 50
182.2627249999999
 51
182.60265699999999
  0
LINE
  5
534
  8
0
 62
     7
 10
34.076000000000001
 20
153.803
 30
0.0
 11
34.080500000000001
 21
153.703
 31
0.0
  0
ARC
  5
535
  8
0
 62
     7
 10
30.191248000000002
 20
153.43610000000001
 30
0.0
 40
3.898356999999999
 50
2.5824790000000002
 51
3.9214109999999991
  0
ARC
  5
536
  8
0
 62
     7
 10
82.698302999999996
 20
156.53952699999999
 30
0.0
 40
48.700741999999998
 50
183.44658799999991
 51
183.546278
  0
ARC
  5
537
  8
0
 62
     7
 10
39.625571000000001
 20
153.83095399999999
 30
0.0
 40
5.543088
 50
183.141616
 51
183.947956
  0
ARC
  5
538
  8
0
 62
     7
 10
36.641342000000002
 20
153.58869200000001
 30
0.0
 40
2.5495179999999991
 50
183.13387
 51
184.42579599999999
  0
ARC
  5
539
  8
0
 62
     7
 10
36.12928800000001
 20
153.51425
 30
0.0
 40
2.033542999999999
 50
183.44791699999999
 51
184.91271800000001
  0
ARC
  5
53A
  8
0
 62
     7
 10
35.141145000000002
 20
153.38594000000001
 30
0.0
 40
1.038940999999999
 50
182.528693
 51
185.09949599999999
  0
ARC
  5
53B
  8
0
 62
     7
 10
31.455483999999998
 20
153.089282
 30
0.0
 40
2.6586939999999988
 50
3.551445999999999
 51
4.4073180000000001
  0
ARC
  5
53C
  8
0
 62
     7
 10
34.451231
 20
153.26691199999999
 30
0.0
 40
0.342403
 50
182.16549699999999
 51
187.141245
  0
ARC
  5
53D
  8
0
 62
     7
 10
34.801392
 20
153.253175
 30
0.0
 40
0.6905100000000001
 50
182.392822
 51
184.340138
  0
ARC
  5
53E
  8
0
 62
     7
 10
34.004626000000002
 20
153.19202000000001
 30
0.0
 40
0.108602
 50
358.87913600000002
 51
4.700685
  0
ARC
  5
53F
  8
0
 62
     7
 10
34.062646000000001
 20
153.183832
 30
0.0
 40
0.050923
 50
358.48785199999998
 51
6.8381489999999987
  0
ARC
  5
540
  8
0
 62
     7
 10
34.101509999999998
 20
153.17832799999999
 30
0.0
 40
0.012739
 50
357.792936
 51
19.061001000000001
  0
LINE
  5
541
  8
0
 62
     7
 10
34.114199999999997
 20
153.178
 30
0.0
 11
34.114199999999997
 21
153.17500000000001
 31
0.0
  0
ARC
  5
542
  8
0
 62
     7
 10
33.819758999999998
 20
153.12996799999999
 30
0.0
 40
0.294077
 50
272.06641300000001
 51
357.47873199999998
  0
ARC
  5
543
  8
0
 62
     7
 10
28.021889999999999
 20
154.22082599999999
 30
0.0
 40
1.38567
 50
182.599785
 51
267.9057049999999
  0
LINE
  5
544
  8
0
 62
     7
 10
26.546700000000001
 20
164.58600000000001
 30
0.0
 11
34.213799999999999
 21
164.58600000000001
 31
0.0
  0
LINE
  5
545
  8
0
 62
     7
 10
26.637599999999999
 20
154.15799999999999
 30
0.0
 11
26.546700000000001
 21
164.58600000000001
 31
0.0
  0
LINE
  5
546
  8
0
 62
     7
 10
34.141800000000003
 20
156.33000000000001
 30
0.0
 11
34.213799999999999
 21
164.58600000000001
 31
0.0
  0
LINE
  5
547
  8
0
 62
     7
 10
33.830399999999997
 20
152.83600000000001
 30
0.0
 11
27.971299999999999
 21
152.83600000000001
 31
0.0
  0
LINE
  5
548
  8
0
 62
     7
 10
34.113599999999998
 20
153.11699999999999
 30
0.0
 11
34.114199999999997
 21
153.17500000000001
 31
0.0
  0
LINE
  5
549
  8
0
 62
     7
 10
126.652
 20
153.25299999999999
 30
0.0
 11
34.109099999999998
 21
153.25299999999999
 31
0.0
  0
LINE
  5
54A
  8
0
 62
     7
 10
126.626
 20
156.25299999999999
 30
0.0
 11
34.139699999999998
 21
156.25299999999999
 31
0.0
  0
LINE
  5
54B
  8
0
 62
     7
 10
175.65199999999999
 20
103.256
 30
0.0
 11
176.244
 21
101.045
 31
0.0
  0
LINE
  5
54C
  8
0
 62
     7
 10
176.244
 20
101.045
 30
0.0
 11
176.83699999999999
 21
103.256
 31
0.0
  0
LINE
  5
54D
  8
0
 62
     7
 10
176.83699999999999
 20
103.256
 30
0.0
 11
175.65199999999999
 21
103.256
 31
0.0
  0
LINE
  5
54E
  8
0
 62
     7
 10
176.83600000000001
 20
94.501299999999986
 30
0.0
 11
176.244
 21
96.711699999999993
 31
0.0
  0
LINE
  5
54F
  8
0
 62
     7
 10
176.244
 20
96.711699999999993
 30
0.0
 11
175.65199999999999
 21
94.501299999999986
 31
0.0
  0
LINE
  5
550
  8
0
 62
     7
 10
175.65199999999999
 20
94.501299999999986
 30
0.0
 11
176.83600000000001
 21
94.501299999999986
 31
0.0
  0
LINE
  5
551
  8
0
 62
     7
 10
103.752
 20
158.464
 30
0.0
 11
104.34399999999999
 21
156.25299999999999
 31
0.0
  0
LINE
  5
552
  8
0
 62
     7
 10
104.34399999999999
 20
156.25299999999999
 30
0.0
 11
104.937
 21
158.464
 31
0.0
  0
LINE
  5
553
  8
0
 62
     7
 10
104.937
 20
158.464
 30
0.0
 11
103.752
 21
158.464
 31
0.0
  0
LINE
  5
554
  8
0
 62
     7
 10
104.937
 20
151.04300000000001
 30
0.0
 11
104.34399999999999
 21
153.25299999999999
 31
0.0
  0
LINE
  5
555
  8
0
 62
     7
 10
104.34399999999999
 20
153.25299999999999
 30
0.0
 11
103.752
 21
151.04300000000001
 31
0.0
  0
LINE
  5
556
  8
0
 62
     7
 10
103.752
 20
151.04300000000001
 30
0.0
 11
104.937
 21
151.04300000000001
 31
0.0
  0
LINE
  5
557
  8
0
 62
     7
 10
104.34399999999999
 20
149.35499999999999
 30
0.0
 11
104.34399999999999
 21
163.63499999999999
 31
0.0
  0
TEXT
  5
558
  8
_________2
 62
     7
 10
22.214099999999998
 20
40.677199999999999
 30
0.0
 40
4.2168199999999993
  1
※壁取付部には厚さ30mm以上の補強木を入れてください。
 41
0.5
  0
LINE
  5
559
  8
_________2
 62
     7
 10
205.30099999999999
 20
127.411
 30
0.0
 11
183.55000000000001
 21
127.411
 31
0.0
  0
LINE
  5
55A
  8
_________2
 62
     7
 10
100.3
 20
-4.0903900000000002
 30
0.0
 11
100.3
 21
-21.070699999999999
 31
0.0
  0
LINE
  5
55B
  8
_________2
 62
     7
 10
100.3
 20
275.93099999999998
 30
0.0
 11
100.3
 21
258.911
 31
0.0
  0
LINE
  5
55C
  8
_________2
 62
     7
 10
17.049499999999998
 20
127.411
 30
0.0
 11
-4.7001699999999991
 21
127.411
 31
0.0
  0
LINE
  5
55D
  8
_________2
 62
     7
 10
76.741699999999994
 20
29.805399999999999
 30
0.0
 11
74.554699999999997
 21
29.805399999999999
 31
0.0
  0
LINE
  5
55E
  8
_________2
 62
     7
 10
77.234399999999994
 20
29.805399999999999
 30
0.0
 11
76.982200000000006
 21
29.805399999999999
 31
0.0
  0
LINE
  5
55F
  8
_________2
 62
     7
 10
77.727000000000004
 20
29.805399999999999
 30
0.0
 11
80.651899999999983
 21
29.805399999999999
 31
0.0
  0
LINE
  5
560
  8
_________2
 62
     7
 10
77.234399999999994
 20
29.805399999999999
 30
0.0
 11
77.485900000000001
 21
29.805399999999999
 31
0.0
  0
LINE
  5
561
  8
_________2
 62
     7
 10
70.837500000000006
 20
29.805399999999999
 30
0.0
 11
68.650499999999994
 21
29.805399999999999
 31
0.0
  0
LINE
  5
562
  8
_________2
 62
     7
 10
71.330100000000002
 20
29.805399999999999
 30
0.0
 11
71.0779
 21
29.805399999999999
 31
0.0
  0
LINE
  5
563
  8
_________2
 62
     7
 10
71.330100000000002
 20
30.298100000000002
 30
0.0
 11
71.330100000000002
 21
32.484999999999999
 31
0.0
  0
LINE
  5
564
  8
_________2
 62
     7
 10
71.330100000000002
 20
29.805399999999999
 30
0.0
 11
71.330100000000002
 21
30.057600000000001
 31
0.0
  0
LINE
  5
565
  8
_________2
 62
     7
 10
71.822800000000001
 20
29.805399999999999
 30
0.0
 11
74.009
 21
29.805399999999999
 31
0.0
  0
LINE
  5
566
  8
_________2
 62
     7
 10
71.330100000000002
 20
29.805399999999999
 30
0.0
 11
71.582300000000004
 21
29.805399999999999
 31
0.0
  0
LINE
  5
567
  8
_________2
 62
     7
 10
71.330100000000002
 20
29.313500000000001
 30
0.0
 11
71.330100000000002
 21
27.1265
 31
0.0
  0
LINE
  5
568
  8
_________2
 62
     7
 10
71.330100000000002
 20
29.805399999999999
 30
0.0
 11
71.330100000000002
 21
29.553899999999999
 31
0.0
  0
LINE
  5
569
  8
_________2
 62
     7
 10
75.041200000000003
 20
28.585899999999999
 30
0.0
 11
80.219199999999987
 21
27.7211
 31
0.0
  0
LINE
  5
56A
  8
_________2
 62
     7
 10
75.041200000000003
 20
31.024999999999999
 30
0.0
 11
80.219199999999987
 21
31.8904
 31
0.0
  0
LINE
  5
56B
  8
_________2
 62
     7
 10
80.219199999999987
 20
27.7211
 30
0.0
 11
80.219199999999987
 21
31.8904
 31
0.0
  0
LINE
  5
56C
  8
_________2
 62
     7
 10
75.041200000000003
 20
28.585899999999999
 30
0.0
 11
75.041200000000003
 21
31.024999999999999
 31
0.0
  0
ARC
  5
56D
  8
_________2
 62
     7
 10
71.283212000000006
 20
29.758524999999999
 30
0.0
 40
1.267347
 50
2.1211329999999999
 51
87.878856999999996
  0
ARC
  5
56E
  8
_________2
 62
     7
 10
71.376634999999993
 20
29.758917
 30
0.0
 40
1.2669410000000001
 50
92.104055000000017
 51
177.895915
  0
ARC
  5
56F
  8
_________2
 62
     7
 10
71.37704699999999
 20
29.852360000000001
 30
0.0
 40
1.2673680000000001
 50
182.12203600000001
 51
267.877993
  0
ARC
  5
570
  8
_________2
 62
     7
 10
71.283212000000006
 20
29.852339000000001
 30
0.0
 40
1.267347
 50
272.12114300000002
 51
357.87886700000001
  0
ARC
  5
571
  8
_________2
 62
     7
 10
71.249432999999996
 20
29.725460999999999
 30
0.0
 40
2.1664590000000001
 50
2.1154579999999998
 51
87.865593999999987
  0
ARC
  5
572
  8
_________2
 62
     7
 10
71.330119999999994
 20
29.805432
 30
0.0
 40
2.0849849999999992
 50
90.0
 51
179.99996999999999
  0
ARC
  5
573
  8
_________2
 62
     7
 10
71.409462000000005
 20
29.885489
 30
0.0
 40
2.165807
 50
182.1183979999999
 51
267.90056900000002
  0
ARC
  5
574
  8
_________2
 62
     7
 10
71.250129999999999
 20
29.885421000000001
 30
0.0
 40
2.1657630000000001
 50
272.11662699999999
 51
357.88338299999998
  0
TEXT
  5
575
  8
_________2
 62
     7
 10
104.605
 20
1.68018
 30
0.0
 40
3.0923400000000001
  1
図番
 41
0.5
  0
LINE
  5
576
  8
_________2
 62
     7
 10
103.55
 20
5.9094100000000003
 30
0.0
 11
183.55000000000001
 21
5.9094100000000003
 31
0.0
  0
TEXT
  5
577
  8
_________2
 62
     7
 10
104.605
 20
11.68
 30
0.0
 40
3.0923400000000001
  1
品番
 41
0.5
  0
TEXT
  5
578
  8
_________2
 62
     7
 10
104.605
 20
31.8188
 30
0.0
 40
3.0923400000000001
  1
名称
 41
0.5
  0
TEXT
  5
579
  8
_________2
 62
     7
 10
91.845058333333341
 20
26.822600000000001
 30
0.0
 40
3.6545800000000002
  1
mm
 41
0.5
 72
     1
 11
93.367800000000003
 21
26.822600000000001
 31
0.0
  0
TEXT
  5
57A
  8
_________2
 62
     7
 10
85.643900000000016
 20
31.8188
 30
0.0
 40
3.0923400000000001
  1
単位
 41
0.5
  0
TEXT
  5
57B
  8
_________2
 62
     7
 10
85.643900000000016
 20
19.4115
 30
0.0
 40
3.0923400000000001
  1
尺度
 41
0.5
  0
TEXT
  5
57C
  8
_________2
 62
     7
 10
90.548758666666686
 20
13.2186
 30
0.0
 40
3.6545800000000002
  1
1 ： 6
 41
0.5
 72
     1
 11
93.959699999999998
 21
13.2186
 31
0.0
  0
TEXT
  5
57D
  8
_________2
 62
     7
 10
136.4985375
 20
9.1085499999999993
 30
0.0
 40
3.9357000000000002
  1
EC026060
 41
0.5
 72
     1
 11
143.55000000000001
 21
9.1085499999999993
 31
0.0
  0
TEXT
  5
57E
  8
_________2
 62
     7
 10
136.59853749999999
 20
-0.8919409999999999
 30
0.0
 40
3.9357000000000002
  1
EC026060
 41
0.5
 72
     1
 11
143.65000000000001
 21
-0.8919409999999999
 31
0.0
  0
TEXT
  5
57F
  8
_________2
 62
     7
 10
109.179
 20
24.226400000000002
 30
0.0
 40
3.9357000000000002
  1
トレンド　タオルバー
 41
0.5
  0
TEXT
  5
580
  8
_________2
 62
     7
 10
39.425300333333333
 20
13.6037
 30
0.0
 40
3.6545800000000002
  1
早川
 41
0.5
 72
     1
 11
41.313499999999998
 21
13.6037
 31
0.0
  0
TEXT
  5
581
  8
_________2
 62
     7
 10
20.790390666666671
 20
13.6037
 30
0.0
 40
3.6545800000000002
  1
菅原
 41
0.5
 72
     1
 11
22.7395
 21
13.6037
 31
0.0
  0
TEXT
  5
582
  8
_________2
 62
     7
 10
67.785799999999995
 20
13.2186
 30
0.0
 40
3.6545800000000002
  1
15.12.24
 41
0.5
  0
TEXT
  5
583
  8
_________2
 62
     7
 10
66.593100000000007
 20
19.4115
 30
0.0
 40
3.0923400000000001
  1
日付
 41
0.5
  0
TEXT
  5
584
  8
_________2
 62
     7
 10
29.639399999999998
 20
19.4115
 30
0.0
 40
3.0923400000000001
  1
検図
 41
0.5
  0
TEXT
  5
585
  8
_________2
 62
     7
 10
18.021799999999999
 20
5.2121199999999988
 30
0.0
 40
3.0923400000000001
  1
備考
 41
0.5
  0
TEXT
  5
586
  8
_________2
 62
     7
 10
18.021799999999999
 20
19.4115
 30
0.0
 40
3.0923400000000001
  1
製図
 41
0.5
  0
TEXT
  5
587
  8
_________2
 62
     7
 10
23.78916533333334
 20
27.9375
 30
0.0
 40
4.4979399999999989
  1
セラトレーディング株式会社
 41
0.5
 72
     1
 11
41.181199999999997
 21
27.9375
 31
0.0
  0
LINE
  5
588
  8
_________2
 62
     7
 10
183.55000000000001
 20
-4.0903900000000002
 30
0.0
 11
17.049499999999998
 21
-4.0903900000000002
 31
0.0
  0
LINE
  5
589
  8
_________2
 62
     7
 10
17.049499999999998
 20
-4.0903900000000002
 30
0.0
 11
17.049499999999998
 21
258.911
 31
0.0
  0
LINE
  5
58A
  8
_________2
 62
     7
 10
17.049499999999998
 20
258.911
 30
0.0
 11
183.55000000000001
 21
258.911
 31
0.0
  0
LINE
  5
58B
  8
_________2
 62
     7
 10
183.55000000000001
 20
258.911
 30
0.0
 11
183.55000000000001
 21
-4.0903900000000002
 31
0.0
  0
LINE
  5
58C
  8
_________2
 62
     7
 10
65.549899999999994
 20
9.4096499999999992
 30
0.0
 11
65.549899999999994
 21
35.909500000000001
 31
0.0
  0
LINE
  5
58D
  8
_________2
 62
     7
 10
84.550399999999996
 20
9.4096499999999992
 30
0.0
 11
84.550399999999996
 21
35.909500000000001
 31
0.0
  0
LINE
  5
58E
  8
_________2
 62
     7
 10
103.55
 20
-4.0903900000000002
 30
0.0
 11
103.55
 21
35.909500000000001
 31
0.0
  0
LINE
  5
58F
  8
_________2
 62
     7
 10
28.550000000000001
 20
9.4096499999999992
 30
0.0
 11
28.550000000000001
 21
23.4099
 31
0.0
  0
LINE
  5
590
  8
_________2
 62
     7
 10
17.049499999999998
 20
9.4096499999999992
 30
0.0
 11
103.55
 21
9.4096499999999992
 31
0.0
  0
LINE
  5
591
  8
_________2
 62
     7
 10
17.049499999999998
 20
23.4099
 30
0.0
 11
103.55
 21
23.4099
 31
0.0
  0
LINE
  5
592
  8
_________2
 62
     7
 10
103.55
 20
15.9092
 30
0.0
 11
183.55000000000001
 21
15.9092
 31
0.0
  0
LINE
  5
593
  8
_________2
 62
     7
 10
17.049499999999998
 20
35.909500000000001
 30
0.0
 11
183.55000000000001
 21
35.909500000000001
 31
0.0
  0
ENDSEC
  0
EOF
