  0
SECTION
  2
HEADER
  9
$ACADVER
  1
AC1009
  9
$INSBASE
 10
0.0
 20
0.0
 30
0.0
  9
$EXTMIN
 10
-4.7001699999999991
 20
-21.070699999999999
 30
0.0
  9
$EXTMAX
 10
205.30099999999999
 20
275.93099999999998
 30
0.0
  9
$LIMMIN
 10
0.0
 20
0.0
  9
$LIMMAX
 10
12.0
 20
9.0
  9
$ORTHOMODE
 70
     0
  9
$REGENMODE
 70
     1
  9
$FILLMODE
 70
     1
  9
$QTEXTMODE
 70
     0
  9
$MIRRTEXT
 70
     1
  9
$DRAGMODE
 70
     2
  9
$LTSCALE
 40
1.0
  9
$OSMODE
 70
    37
  9
$ATTMODE
 70
     1
  9
$TEXTSIZE
 40
0.0
  9
$TRACEWID
 40
0.05
  9
$TEXTSTYLE
  7
STANDARD
  9
$CLAYER
  8
0
  9
$CELTYPE
  6
CONTINUOUS
  9
$CECOLOR
 62
   256
  9
$DIMSCALE
 40
1.0
  9
$DIMASZ
 40
0.18
  9
$DIMEXO
 40
0.0625
  9
$DIMDLI
 40
0.38
  9
$DIMRND
 40
0.0
  9
$DIMDLE
 40
0.0
  9
$DIMEXE
 40
0.18
  9
$DIMTP
 40
0.0
  9
$DIMTM
 40
0.0
  9
$DIMTXT
 40
0.18
  9
$DIMCEN
 40
0.09
  9
$DIMTSZ
 40
0.0
  9
$DIMTOL
 70
     0
  9
$DIMLIM
 70
     0
  9
$DIMTIH
 70
     1
  9
$DIMTOH
 70
     1
  9
$DIMSE1
 70
     0
  9
$DIMSE2
 70
     0
  9
$DIMTAD
 70
     0
  9
$DIMZIN
 70
     0
  9
$DIMBLK
  1

  9
$DIMASO
 70
     1
  9
$DIMSHO
 70
     1
  9
$DIMPOST
  1

  9
$DIMAPOST
  1

  9
$DIMALT
 70
     0
  9
$DIMALTD
 70
     2
  9
$DIMALTF
 40
25.399999999999999
  9
$DIMLFAC
 40
1.0
  9
$DIMTOFL
 70
     0
  9
$DIMTVP
 40
0.0
  9
$DIMTIX
 70
     0
  9
$DIMSOXD
 70
     0
  9
$DIMSAH
 70
     0
  9
$DIMBLK1
  1

  9
$DIMBLK2
  1

  9
$DIMSTYLE
  2
STANDARD
  9
$DIMCLRD
 70
     0
  9
$DIMCLRE
 70
     0
  9
$DIMCLRT
 70
     0
  9
$DIMTFAC
 40
1.0
  9
$DIMGAP
 40
0.09
  9
$LUNITS
 70
     2
  9
$LUPREC
 70
     4
  9
$SKETCHINC
 40
0.1
  9
$FILLETRAD
 40
0.0
  9
$AUNITS
 70
     0
  9
$AUPREC
 70
     0
  9
$MENU
  1
.
  9
$ELEVATION
 40
0.0
  9
$PELEVATION
 40
0.0
  9
$THICKNESS
 40
0.0
  9
$LIMCHECK
 70
     0
  9
$BLIPMODE
 70
     0
  9
$CHAMFERA
 40
0.0
  9
$CHAMFERB
 40
0.0
  9
$SKPOLY
 70
     0
  9
$TDCREATE
 40
2444972.375
  9
$TDUPDATE
 40
2457436.254700602
  9
$TDINDWG
 40
0.0000337963
  9
$TDUSRTIMER
 40
0.0000337963
  9
$USRTIMER
 70
     1
  9
$ANGBASE
 50
0.0
  9
$ANGDIR
 70
     0
  9
$PDMODE
 70
     0
  9
$PDSIZE
 40
0.0
  9
$PLINEWID
 40
0.0
  9
$COORDS
 70
     1
  9
$SPLFRAME
 70
     0
  9
$SPLINETYPE
 70
     6
  9
$SPLINESEGS
 70
     8
  9
$ATTDIA
 70
     1
  9
$ATTREQ
 70
     1
  9
$HANDLING
 70
     1
  9
$HANDSEED
  5
64A
  9
$SURFTAB1
 70
     6
  9
$SURFTAB2
 70
     6
  9
$SURFTYPE
 70
     6
  9
$SURFU
 70
     6
  9
$SURFV
 70
     6
  9
$UCSNAME
  2

  9
$UCSORG
 10
0.0
 20
0.0
 30
0.0
  9
$UCSXDIR
 10
1.0
 20
0.0
 30
0.0
  9
$UCSYDIR
 10
0.0
 20
1.0
 30
0.0
  9
$PUCSNAME
  2

  9
$PUCSORG
 10
0.0
 20
0.0
 30
0.0
  9
$PUCSXDIR
 10
1.0
 20
0.0
 30
0.0
  9
$PUCSYDIR
 10
0.0
 20
1.0
 30
0.0
  9
$USERI1
 70
     0
  9
$USERI2
 70
     0
  9
$USERI3
 70
     0
  9
$USERI4
 70
     0
  9
$USERI5
 70
     0
  9
$USERR1
 40
0.0
  9
$USERR2
 40
0.0
  9
$USERR3
 40
0.0
  9
$USERR4
 40
0.0
  9
$USERR5
 40
0.0
  9
$WORLDVIEW
 70
     1
  9
$SHADEDGE
 70
     3
  9
$SHADEDIF
 70
    70
  9
$TILEMODE
 70
     1
  9
$MAXACTVP
 70
    48
  9
$PLIMCHECK
 70
     0
  9
$PEXTMIN
 10
1.0000000000000000E+020
 20
1.0000000000000000E+020
 30
1.0000000000000000E+020
  9
$PEXTMAX
 10
-1.0000000000000000E+020
 20
-1.0000000000000000E+020
 30
-1.0000000000000000E+020
  9
$PLIMMIN
 10
0.0
 20
0.0
  9
$PLIMMAX
 10
12.0
 20
9.0
  9
$UNITMODE
 70
     0
  9
$VISRETAIN
 70
     1
  9
$PLINEGEN
 70
     0
  9
$PSLTSCALE
 70
     1
  0
ENDSEC
  0
SECTION
  2
TABLES
  0
TABLE
  2
VPORT
 70
     1
  0
VPORT
  2
*ACTIVE
 70
     0
 10
0.0
 20
0.0
 11
1.0
 21
1.0
 12
156.2906430003822
 22
127.4301499999999
 13
0.0
 23
0.0
 14
1.0
 24
1.0
 15
0.0
 25
0.0
 16
0.0
 26
0.0
 36
1.0
 17
0.0
 27
0.0
 37
0.0
 40
282.89925707468382
 41
2.0381526104417671
 42
50.0
 43
0.0
 44
0.0
 50
0.0
 51
0.0
 71
     0
 72
   100
 73
     1
 74
     1
 75
     0
 76
     0
 77
     0
 78
     0
  0
ENDTAB
  0
TABLE
  2
LTYPE
 70
     3
  0
LTYPE
  2
CONTINUOUS
 70
     0
  3
Solid line
 72
    65
 73
     0
 40
0.0
  0
LTYPE
  2
AIGENLINE001
 70
     0
  3
generate AI->DXF Converter
 72
    65
 73
     4
 40
5.8561449999999988
 49
3.5278
 49
-0.776115
 49
0.776115
 49
-0.776115
  0
LTYPE
  2
AIGENLINE002
 70
     0
  3
generate AI->DXF Converter
 72
    65
 73
     2
 40
1.5522299999999991
 49
0.776115
 49
-0.776115
  0
ENDTAB
  0
TABLE
  2
LAYER
 70
     2
  0
LAYER
  2
0
 70
     0
 62
     7
  6
CONTINUOUS
  0
LAYER
  2
_________2
 70
     0
 62
     7
  6
CONTINUOUS
  0
ENDTAB
  0
TABLE
  2
STYLE
 70
     1
  0
STYLE
  2
STANDARD
 70
     0
 40
0.0
 41
0.0
 50
0.0
 71
     0
 42
0.0
  3
TXT
  4
EXTFONT.SHX
  0
ENDTAB
  0
TABLE
  2
VIEW
 70
     0
  0
ENDTAB
  0
TABLE
  2
UCS
 70
     0
  0
ENDTAB
  0
TABLE
  2
APPID
 70
     3
  0
APPID
  2
ACAD
 70
     0
  0
APPID
  2
ACAD_NAV_VCDISPLAY
 70
     0
  0
APPID
  2
ACAD_MLEADERVER
 70
     0
  0
ENDTAB
  0
TABLE
  2
DIMSTYLE
 70
     1
  0
DIMSTYLE
  2
STANDARD
 70
     0
  3

  4

  5

  6

  7

 40
1.0
 41
0.18
 42
0.0625
 43
0.38
 44
0.18
 45
0.0
 46
0.0
 47
0.0
 48
0.0
140
0.18
141
0.09
142
0.0
143
25.399999999999999
144
1.0
145
0.0
146
1.0
147
0.09
 71
     0
 72
     0
 73
     1
 74
     1
 75
     0
 76
     0
 77
     0
 78
     0
170
     0
171
     2
172
     0
173
     0
174
     0
175
     0
176
     0
177
     0
178
     0
  0
ENDTAB
  0
ENDSEC
  0
SECTION
  2
BLOCKS
  0
BLOCK
  8
0
  2
$MODEL_SPACE
 70
     0
 10
0.0
 20
0.0
 30
0.0
  3
$MODEL_SPACE
  1

  0
ENDBLK
  5
1A
  8
0
  0
BLOCK
 67
     1
  8
0
  2
$PAPER_SPACE
 70
     0
 10
0.0
 20
0.0
 30
0.0
  3
$PAPER_SPACE
  1

  0
ENDBLK
  5
17
 67
     1
  8
0
  0
ENDSEC
  0
SECTION
  2
ENTITIES
  0
TEXT
  5
23
  8
0
 62
     7
 10
150.99769099999989
 20
167.44900000000001
 30
0.0
 40
3.0923400000000001
  1
（%%c6\U+00D730 樹脂プラグ付）
 41
0.5
 72
     2
 11
173.21100000000001
 21
167.44900000000001
 31
0.0
  0
TEXT
  5
24
  8
0
 62
     7
 10
141.617593
 20
172.52000000000001
 30
0.0
 40
3.0923400000000001
  1
%%c3.8\U+00D750 十字穴付SUS丸頭木ネジ
 41
0.5
 72
     2
 11
173.21100000000001
 21
172.52000000000001
 31
0.0
  0
TEXT
  5
25
  8
0
 62
     7
 10
100.16
 20
157.47526999999999
 30
0.0
 40
3.0923400000000001
  1
%%c18
 50
90.0
 41
0.5
 72
     2
 11
100.16
 21
161.083
 31
0.0
  0
TEXT
  5
26
  8
0
 62
     7
 10
79.690340000000006
 20
188.55699999999999
 30
0.0
 40
3.0923400000000001
  1
846
 41
0.5
 72
     1
 11
81.751900000000006
 21
188.55699999999999
 31
0.0
  0
TEXT
  5
27
  8
0
 62
     7
 10
130.52452500000001
 20
173.20699999999999
 30
0.0
 40
3.0923400000000001
  1
24
 41
0.5
 72
     1
 11
131.81299999999999
 21
173.20699999999999
 31
0.0
  0
TEXT
  5
28
  8
0
 62
     7
 10
30.563324999999999
 20
173.20699999999999
 30
0.0
 40
3.0923400000000001
  1
24
 41
0.5
 72
     1
 11
31.851800000000001
 21
173.20699999999999
 31
0.0
  0
TEXT
  5
29
  8
0
 62
     7
 10
166.48099999999999
 20
115.32913499999999
 30
0.0
 40
3.0923400000000001
  1
10
 50
90.0
 41
0.5
 72
     2
 11
166.48099999999999
 21
117.133
 31
0.0
  0
TEXT
  5
2A
  8
0
 62
     7
 10
172.011
 20
109.519525
 30
0.0
 40
3.0923400000000001
  1
26
 50
90.0
 41
0.5
 72
     1
 11
172.011
 21
110.80800000000001
 31
0.0
  0
TEXT
  5
2B
  8
0
 62
     7
 10
143.2579999999999
 20
154.5253725
 30
0.0
 40
3.0923400000000001
  1
70
 50
90.0
 41
0.5
 72
     1
 11
143.2579999999999
 21
155.685
 31
0.0
  0
TEXT
  5
2C
  8
0
 62
     7
 10
130.463525
 20
180.13999999999999
 30
0.0
 40
3.0923400000000001
  1
46
 41
0.5
 72
     1
 11
131.75200000000001
 21
180.13999999999999
 31
0.0
  0
TEXT
  5
2D
  8
0
 62
     7
 10
30.463125000000002
 20
180.13999999999999
 30
0.0
 40
3.0923400000000001
  1
46
 41
0.5
 72
     1
 11
31.7516
 21
180.13999999999999
 31
0.0
  0
TEXT
  5
2E
  8
0
 62
     7
 10
79.690340000000006
 20
180.13999999999999
 30
0.0
 40
3.0923400000000001
  1
754
 41
0.5
 72
     1
 11
81.751900000000006
 21
180.13999999999999
 31
0.0
  0
LINE
  5
2F
  8
0
 62
     7
 10
156.768
 20
110.94799999999999
 30
0.0
 11
161.98500000000001
 21
110.94799999999999
 31
0.0
  0
LINE
  5
30
  8
0
 62
     7
 10
156.768
 20
111.423
 30
0.0
 11
161.98500000000001
 21
111.423
 31
0.0
  0
LINE
  5
31
  8
0
 62
     7
 10
162.07300000000001
 20
111.547
 30
0.0
 11
162.30000000000001
 21
110.824
 31
0.0
  0
LINE
  5
32
  8
0
 62
     7
 10
161.679
 20
111.547
 30
0.0
 11
161.905
 21
110.824
 31
0.0
  0
LINE
  5
33
  8
0
 62
     7
 10
161.28399999999999
 20
111.547
 30
0.0
 11
161.50999999999999
 21
110.824
 31
0.0
  0
LINE
  5
34
  8
0
 62
     7
 10
160.88900000000001
 20
111.547
 30
0.0
 11
161.11600000000001
 21
110.824
 31
0.0
  0
LINE
  5
35
  8
0
 62
     7
 10
160.495
 20
111.547
 30
0.0
 11
160.721
 21
110.824
 31
0.0
  0
LINE
  5
36
  8
0
 62
     7
 10
160.09999999999999
 20
111.547
 30
0.0
 11
160.32599999999999
 21
110.824
 31
0.0
  0
LINE
  5
37
  8
0
 62
     7
 10
159.70500000000001
 20
111.547
 30
0.0
 11
159.93100000000001
 21
110.824
 31
0.0
  0
LINE
  5
38
  8
0
 62
     7
 10
159.31
 20
111.547
 30
0.0
 11
159.536
 21
110.824
 31
0.0
  0
LINE
  5
39
  8
0
  6
AIGENLINE001
 62
     7
 10
156.35900000000001
 20
111.185
 30
0.0
 11
163.142
 21
111.185
 31
0.0
  0
LINE
  5
3A
  8
0
 62
     7
 10
161.98500000000001
 20
110.94799999999999
 30
0.0
 11
162.643
 21
111.185
 31
0.0
  0
LINE
  5
3B
  8
0
 62
     7
 10
161.98500000000001
 20
111.423
 30
0.0
 11
162.643
 21
111.185
 31
0.0
  0
LINE
  5
3C
  8
0
 62
     7
 10
158.52099999999999
 20
111.547
 30
0.0
 11
158.74700000000001
 21
110.824
 31
0.0
  0
LINE
  5
3D
  8
0
 62
     7
 10
158.916
 20
111.547
 30
0.0
 11
159.142
 21
110.824
 31
0.0
  0
LINE
  5
3E
  8
0
 62
     7
 10
158.268
 20
111.423
 30
0.0
 11
158.268
 21
110.94799999999999
 31
0.0
  0
LINE
  5
3F
  8
0
  6
AIGENLINE001
 62
     7
 10
132.50200000000001
 20
111.185
 30
0.0
 11
134.00200000000001
 21
111.185
 31
0.0
  0
LINE
  5
40
  8
0
  6
AIGENLINE001
 62
     7
 10
133.25200000000001
 20
110.435
 30
0.0
 11
133.25200000000001
 21
111.935
 31
0.0
  0
ARC
  5
41
  8
0
  6
AIGENLINE002
 62
     7
 10
133.24271400000001
 20
111.175718
 30
0.0
 40
0.24714
 50
2.142841999999999
 51
87.774049999999988
  0
ARC
  5
42
  8
0
  6
AIGENLINE002
 62
     7
 10
133.26157799999999
 20
111.175693
 30
0.0
 40
0.247152
 50
92.148371999999981
 51
177.851598
  0
ARC
  5
43
  8
0
  6
AIGENLINE002
 62
     7
 10
133.26122899999999
 20
111.194232
 30
0.0
 40
0.246804
 50
182.15348299999999
 51
267.92964499999999
  0
ARC
  5
44
  8
0
  6
AIGENLINE002
 62
     7
 10
133.24306299999989
 20
111.194208
 30
0.0
 40
0.246792
 50
272.14792399999999
 51
357.85208599999999
  0
LINE
  5
45
  8
0
  6
AIGENLINE001
 62
     7
 10
129.50200000000001
 20
111.185
 30
0.0
 11
131.00200000000001
 21
111.185
 31
0.0
  0
LINE
  5
46
  8
0
  6
AIGENLINE001
 62
     7
 10
130.25200000000001
 20
110.435
 30
0.0
 11
130.25200000000001
 21
111.935
 31
0.0
  0
ARC
  5
47
  8
0
  6
AIGENLINE002
 62
     7
 10
130.242706
 20
111.175718
 30
0.0
 40
0.24714
 50
2.142841999999999
 51
87.774049999999988
  0
ARC
  5
48
  8
0
  6
AIGENLINE002
 62
     7
 10
130.26157000000001
 20
111.175693
 30
0.0
 40
0.247152
 50
92.148371999999981
 51
177.851598
  0
ARC
  5
49
  8
0
  6
AIGENLINE002
 62
     7
 10
130.26122100000001
 20
111.194232
 30
0.0
 40
0.246804
 50
182.15348299999999
 51
267.92964499999999
  0
ARC
  5
4A
  8
0
  6
AIGENLINE002
 62
     7
 10
130.243055
 20
111.194208
 30
0.0
 40
0.246792
 50
272.14792399999999
 51
357.85208599999999
  0
LINE
  5
4B
  8
0
  6
AIGENLINE001
 62
     7
 10
32.50160000000001
 20
111.185
 30
0.0
 11
34.001899999999999
 21
111.185
 31
0.0
  0
LINE
  5
4C
  8
0
  6
AIGENLINE001
 62
     7
 10
33.251899999999999
 20
110.435
 30
0.0
 11
33.251899999999999
 21
111.935
 31
0.0
  0
ARC
  5
4D
  8
0
  6
AIGENLINE002
 62
     7
 10
33.242721000000003
 20
111.17610999999999
 30
0.0
 40
0.246733
 50
2.055181999999999
 51
87.861711
  0
ARC
  5
4E
  8
0
  6
AIGENLINE002
 62
     7
 10
33.261192000000001
 20
111.175693
 30
0.0
 40
0.247152
 50
92.148371999999981
 51
177.851598
  0
ARC
  5
4F
  8
0
  6
AIGENLINE002
 62
     7
 10
33.260843999999999
 20
111.194232
 30
0.0
 40
0.246804
 50
182.15348299999999
 51
267.92964499999999
  0
ARC
  5
50
  8
0
  6
AIGENLINE002
 62
     7
 10
33.242671999999999
 20
111.194213
 30
0.0
 40
0.246797
 50
272.14910600000002
 51
357.85090400000013
  0
LINE
  5
51
  8
0
  6
AIGENLINE001
 62
     7
 10
29.5016
 20
111.185
 30
0.0
 11
31.001899999999999
 21
111.185
 31
0.0
  0
LINE
  5
52
  8
0
  6
AIGENLINE001
 62
     7
 10
30.251899999999999
 20
110.435
 30
0.0
 11
30.251899999999999
 21
111.935
 31
0.0
  0
ARC
  5
53
  8
0
  6
AIGENLINE002
 62
     7
 10
30.242712999999998
 20
111.17610999999999
 30
0.0
 40
0.246733
 50
2.055181999999999
 51
87.861711
  0
ARC
  5
54
  8
0
  6
AIGENLINE002
 62
     7
 10
30.261184
 20
111.175693
 30
0.0
 40
0.247152
 50
92.148371999999981
 51
177.851598
  0
ARC
  5
55
  8
0
  6
AIGENLINE002
 62
     7
 10
30.260835
 20
111.194232
 30
0.0
 40
0.246804
 50
182.15348299999999
 51
267.92964499999999
  0
ARC
  5
56
  8
0
  6
AIGENLINE002
 62
     7
 10
30.242664000000001
 20
111.194213
 30
0.0
 40
0.246797
 50
272.14910600000002
 51
357.85090400000013
  0
LINE
  5
57
  8
0
 62
     7
 10
140.12
 20
171.339
 30
0.0
 11
173.21100000000001
 21
171.339
 31
0.0
  0
LINE
  5
58
  8
0
 62
     7
 10
134.75899999999999
 20
166.81700000000001
 30
0.0
 11
133.614
 21
164.834
 31
0.0
  0
LINE
  5
59
  8
0
 62
     7
 10
133.614
 20
164.834
 30
0.0
 11
135.59700000000001
 21
165.97900000000001
 31
0.0
  0
LINE
  5
5A
  8
0
 62
     7
 10
135.59700000000001
 20
165.97900000000001
 30
0.0
 11
134.75899999999999
 21
166.81700000000001
 31
0.0
  0
LINE
  5
5B
  8
0
 62
     7
 10
133.614
 20
164.834
 30
0.0
 11
140.12
 21
171.339
 31
0.0
  0
LINE
  5
5D
  8
0
 62
     7
 10
129.00299999999999
 20
109.80500000000001
 30
0.0
 11
129.00299999999999
 21
109.806
 31
0.0
  0
LINE
  5
5F
  8
0
 62
     7
 10
129.00299999999999
 20
109.806
 30
0.0
 11
129.00299999999999
 21
109.807
 31
0.0
  0
LINE
  5
60
  8
0
 62
     7
 10
129.00299999999999
 20
109.807
 30
0.0
 11
129.00299999999999
 21
109.80800000000001
 31
0.0
  0
LINE
  5
62
  8
0
 62
     7
 10
129.00299999999999
 20
109.80800000000001
 30
0.0
 11
129.00299999999999
 21
109.809
 31
0.0
  0
LINE
  5
64
  8
0
 62
     7
 10
129.00299999999999
 20
109.809
 30
0.0
 11
129.00299999999999
 21
109.81
 31
0.0
  0
LINE
  5
65
  8
0
 62
     7
 10
129.00299999999999
 20
109.81
 30
0.0
 11
129.00299999999999
 21
109.81100000000001
 31
0.0
  0
LINE
  5
66
  8
0
 62
     7
 10
129.00299999999999
 20
109.81100000000001
 30
0.0
 11
129.00299999999999
 21
109.812
 31
0.0
  0
LINE
  5
67
  8
0
 62
     7
 10
129.00299999999999
 20
109.812
 30
0.0
 11
129.00299999999999
 21
109.81399999999999
 31
0.0
  0
LINE
  5
68
  8
0
 62
     7
 10
129.00299999999999
 20
109.81399999999999
 30
0.0
 11
129.00299999999999
 21
109.815
 31
0.0
  0
LINE
  5
69
  8
0
 62
     7
 10
129.00299999999999
 20
109.815
 30
0.0
 11
129.00299999999999
 21
109.81699999999999
 31
0.0
  0
LINE
  5
6A
  8
0
 62
     7
 10
129.00299999999999
 20
109.81699999999999
 30
0.0
 11
129.00299999999999
 21
109.818
 31
0.0
  0
LINE
  5
6B
  8
0
 62
     7
 10
129.00299999999999
 20
109.818
 30
0.0
 11
129.00299999999999
 21
109.819
 31
0.0
  0
LINE
  5
6C
  8
0
 62
     7
 10
129.00299999999999
 20
109.819
 30
0.0
 11
129.00200000000001
 21
109.821
 31
0.0
  0
LINE
  5
6D
  8
0
 62
     7
 10
128.994
 20
112.15000000000001
 30
0.0
 11
128.994
 21
112.152
 31
0.0
  0
LINE
  5
6E
  8
0
 62
     7
 10
128.994
 20
112.152
 30
0.0
 11
128.994
 21
112.154
 31
0.0
  0
LINE
  5
6F
  8
0
 62
     7
 10
128.994
 20
112.154
 30
0.0
 11
128.994
 21
112.15600000000001
 31
0.0
  0
LINE
  5
70
  8
0
 62
     7
 10
128.994
 20
112.15600000000001
 30
0.0
 11
128.994
 21
112.158
 31
0.0
  0
LINE
  5
71
  8
0
 62
     7
 10
128.994
 20
112.158
 30
0.0
 11
128.994
 21
112.15900000000001
 31
0.0
  0
LINE
  5
72
  8
0
 62
     7
 10
128.994
 20
112.15900000000001
 30
0.0
 11
128.994
 21
112.161
 31
0.0
  0
LINE
  5
73
  8
0
 62
     7
 10
128.994
 20
112.161
 30
0.0
 11
128.994
 21
112.16200000000001
 31
0.0
  0
LINE
  5
74
  8
0
 62
     7
 10
128.994
 20
112.16200000000001
 30
0.0
 11
128.994
 21
112.163
 31
0.0
  0
LINE
  5
76
  8
0
 62
     7
 10
128.994
 20
112.163
 30
0.0
 11
128.994
 21
112.164
 31
0.0
  0
LINE
  5
77
  8
0
 62
     7
 10
128.994
 20
112.164
 30
0.0
 11
128.994
 21
112.16500000000001
 31
0.0
  0
ARC
  5
79
  8
0
 62
     7
 10
129.143924
 20
112.018721
 30
0.0
 40
0.3988749999999999
 50
93.305055999999993
 51
98.230700000000013
  0
ARC
  5
7A
  8
0
 62
     7
 10
129.118312
 20
112.24629899999999
 30
0.0
 40
0.170129
 50
100.666954
 51
112.177397
  0
ARC
  5
7B
  8
0
 62
     7
 10
129.11862199999999
 20
112.24533700000001
 30
0.0
 40
0.171136
 50
112.151822
 51
117.88194
  0
ARC
  5
7C
  8
0
 62
     7
 10
129.07835900000001
 20
112.31115699999999
 30
0.0
 40
0.09425
 50
114.95779400000001
 51
125.389219
  0
ARC
  5
7D
  8
0
 62
     7
 10
129.09375
 20
112.27167799999999
 30
0.0
 40
0.135741
 50
121.03067
 51
127.729992
  0
ARC
  5
7E
  8
0
 62
     7
 10
129.08970500000001
 20
112.269373
 30
0.0
 40
0.135168
 50
125.775707
 51
133.55994699999999
  0
ARC
  5
7F
  8
0
 62
     7
 10
129.05187100000001
 20
112.30098700000001
 30
0.0
 40
0.08637
 50
129.82164800000001
 51
140.17832200000001
  0
ARC
  5
80
  8
0
 62
     7
 10
129.127835
 20
112.22261399999999
 30
0.0
 40
0.195246
 50
136.78796800000001
 51
142.23997800000001
  0
ARC
  5
81
  8
0
 62
     7
 10
128.479974
 20
112.679439
 30
0.0
 40
0.5977400000000001
 50
324.15749199999999
 51
325.65088200000002
  0
ARC
  5
82
  8
0
 62
     7
 10
129.40312299999999
 20
112.08115599999999
 30
0.0
 40
0.503995
 50
150.48799099999999
 51
152.62611899999999
  0
ARC
  5
83
  8
0
 62
     7
 10
129.10376299999999
 20
112.23662400000001
 30
0.0
 40
0.166672
 50
152.76912400000001
 51
164.48959600000001
  0
ARC
  5
84
  8
0
 62
     7
 10
129.22613699999999
 20
112.211399
 30
0.0
 40
0.291458
 50
166.14470700000001
 51
172.83000200000001
  0
ARC
  5
85
  8
0
 62
     7
 10
132.75478000000001
 20
-162.458236
 30
0.0
 40
274.824254
 50
90.514893999999984
 51
90.738209000000012
  0
ARC
  5
86
  8
0
 62
     7
 10
131.89266900000001
 20
-96.629699000000002
 30
0.0
 40
208.990803
 50
90.145199000000005
 51
90.440735000000004
  0
ARC
  5
87
  8
0
 62
     7
 10
131.670852
 20
-123.61465699999999
 30
0.0
 40
235.97529
 50
89.81467099999999
 51
90.074735000000004
  0
ARC
  5
88
  8
0
 62
     7
 10
130.72439399999999
 20
-222.69936000000001
 30
0.0
 40
335.06312100000002
 50
89.523291
 51
89.707630000000009
  0
LINE
  5
89
  8
0
 62
     7
 10
134.322
 20
112.34999999999999
 30
0.0
 11
134.321
 21
112.349
 31
0.0
  0
LINE
  5
8A
  8
0
 62
     7
 10
134.321
 20
112.349
 30
0.0
 11
134.31700000000001
 21
112.349
 31
0.0
  0
ARC
  5
8B
  8
0
 62
     7
 10
134.31581399999999
 20
112.326078
 30
0.0
 40
0.023353
 50
87.447519999999997
 51
100.180609
  0
ARC
  5
8C
  8
0
 62
     7
 10
134.30636200000001
 20
112.38891
 30
0.0
 40
0.0402
 50
268.74942299999998
 51
277.61025599999999
  0
LINE
  5
8D
  8
0
 62
     7
 10
134.30500000000001
 20
112.349
 30
0.0
 11
134.29599999999999
 21
112.349
 31
0.0
  0
LINE
  5
8E
  8
0
 62
     7
 10
134.29599999999999
 20
112.349
 30
0.0
 11
134.285
 21
112.349
 31
0.0
  0
ARC
  5
8F
  8
0
 62
     7
 10
134.27496199999999
 20
112.479972
 30
0.0
 40
0.131622
 50
268.88968199999999
 51
274.292618
  0
ARC
  5
90
  8
0
 62
     7
 10
134.26172700000001
 20
112.49999699999999
 30
0.0
 40
0.151998
 50
268.833123
 51
274.03108900000001
  0
LINE
  5
91
  8
0
 62
     7
 10
134.25899999999999
 20
112.348
 30
0.0
 11
134.239
 21
112.348
 31
0.0
  0
LINE
  5
92
  8
0
 62
     7
 10
134.239
 20
112.348
 30
0.0
 11
134.21600000000001
 21
112.348
 31
0.0
  0
LINE
  5
93
  8
0
 62
     7
 10
134.21600000000001
 20
112.348
 30
0.0
 11
134.19200000000001
 21
112.348
 31
0.0
  0
LINE
  5
94
  8
0
 62
     7
 10
134.19200000000001
 20
112.348
 30
0.0
 11
134.167
 21
112.348
 31
0.0
  0
LINE
  5
95
  8
0
 62
     7
 10
134.167
 20
112.348
 30
0.0
 11
134.13999999999999
 21
112.348
 31
0.0
  0
LINE
  5
96
  8
0
 62
     7
 10
134.13999999999999
 20
112.348
 30
0.0
 11
134.11199999999999
 21
112.348
 31
0.0
  0
LINE
  5
97
  8
0
 62
     7
 10
134.11199999999999
 20
112.348
 30
0.0
 11
134.083
 21
112.348
 31
0.0
  0
LINE
  5
98
  8
0
 62
     7
 10
134.083
 20
112.348
 30
0.0
 11
134.066
 21
112.348
 31
0.0
  0
LINE
  5
99
  8
0
 62
     7
 10
134.066
 20
112.348
 30
0.0
 11
134.047
 21
112.348
 31
0.0
  0
ARC
  5
9A
  8
0
 62
     7
 10
134.045061
 20
112.866951
 30
0.0
 40
0.518579
 50
267.90302200000002
 51
270.18731500000001
  0
LINE
  5
9B
  8
0
 62
     7
 10
134.02600000000001
 20
112.349
 30
0.0
 11
134.00299999999999
 21
112.349
 31
0.0
  0
LINE
  5
9C
  8
0
 62
     7
 10
134.00299999999999
 20
112.349
 30
0.0
 11
133.97900000000001
 21
112.349
 31
0.0
  0
LINE
  5
9D
  8
0
 62
     7
 10
133.97900000000001
 20
112.349
 30
0.0
 11
133.952
 21
112.349
 31
0.0
  0
ARC
  5
9E
  8
0
 62
     7
 10
133.94992199999999
 20
113.444765
 30
0.0
 40
1.096047999999999
 50
268.56050099999999
 51
270.09144500000002
  0
LINE
  5
9F
  8
0
 62
     7
 10
133.922
 20
112.349
 30
0.0
 11
133.89099999999999
 21
112.349
 31
0.0
  0
LINE
  5
A0
  8
0
 62
     7
 10
133.89099999999999
 20
112.349
 30
0.0
 11
133.857
 21
112.349
 31
0.0
  0
ARC
  5
A1
  8
0
 62
     7
 10
133.85523499999999
 20
114.10535400000001
 30
0.0
 40
1.7559469999999999
 50
268.863675
 51
270.05532399999998
  0
LINE
  5
A2
  8
0
 62
     7
 10
133.81999999999999
 20
112.34999999999999
 30
0.0
 11
133.80699999999999
 21
112.34999999999999
 31
0.0
  0
LINE
  5
A3
  8
0
 62
     7
 10
133.80699999999999
 20
112.34999999999999
 30
0.0
 11
133.792
 21
112.34999999999999
 31
0.0
  0
LINE
  5
A4
  8
0
 62
     7
 10
133.792
 20
112.34999999999999
 30
0.0
 11
133.774
 21
112.34999999999999
 31
0.0
  0
LINE
  5
A5
  8
0
 62
     7
 10
133.774
 20
112.34999999999999
 30
0.0
 11
133.75299999999999
 21
112.34999999999999
 31
0.0
  0
LINE
  5
A6
  8
0
 62
     7
 10
133.75299999999999
 20
112.34999999999999
 30
0.0
 11
133.72999999999999
 21
112.34999999999999
 31
0.0
  0
ARC
  5
A7
  8
0
 62
     7
 10
133.71155999999999
 20
111.88634500000001
 30
0.0
 40
0.464483
 50
87.663696000000002
 51
90.76663499999998
  0
LINE
  5
A8
  8
0
 62
     7
 10
133.70500000000001
 20
112.351
 30
0.0
 11
133.678
 21
112.351
 31
0.0
  0
ARC
  5
A9
  8
0
 62
     7
 10
133.676725
 20
113.446832
 30
0.0
 40
1.096047999999999
 50
268.56050099999999
 51
270.09144500000002
  0
ARC
  5
AA
  8
0
 62
     7
 10
133.624394
 20
111.52127299999999
 30
0.0
 40
0.8302280000000001
 50
88.288477
 51
90.452306000000007
  0
LINE
  5
AB
  8
0
 62
     7
 10
133.61799999999999
 20
112.351
 30
0.0
 11
133.584
 21
112.351
 31
0.0
  0
ARC
  5
AC
  8
0
 62
     7
 10
133.534988
 20
110.726754
 30
0.0
 40
1.6254729999999991
 50
88.257233999999997
 51
89.496141000000009
  0
LINE
  5
AD
  8
0
 62
     7
 10
133.54900000000001
 20
112.352
 30
0.0
 11
133.512
 21
112.352
 31
0.0
  0
ARC
  5
AE
  8
0
 62
     7
 10
134.45667399999999
 20
112.17924600000001
 30
0.0
 40
0.049321
 50
0.7695250000000002
 51
9.6193309999999972
  0
ARC
  5
AF
  8
0
 62
     7
 10
134.43240599999999
 20
112.179587
 30
0.0
 40
0.073322
 50
6.1854589999999989
 51
12.739184
  0
ARC
  5
B0
  8
0
 62
     7
 10
134.25689499999999
 20
112.156876
 30
0.0
 40
0.250069
 50
8.9443950000000001
 51
10.787217
  0
ARC
  5
B1
  8
0
 62
     7
 10
134.70092500000001
 20
112.25966200000001
 30
0.0
 40
0.206127
 50
193.48270099999999
 51
195.759083
  0
ARC
  5
B2
  8
0
 62
     7
 10
134.42399399999999
 20
112.193781
 30
0.0
 40
0.078534
 50
13.116828
 51
19.403578
  0
LINE
  5
B3
  8
0
 62
     7
 10
134.49799999999999
 20
112.22
 30
0.0
 11
134.495
 21
112.227
 31
0.0
  0
LINE
  5
B4
  8
0
 62
     7
 10
134.495
 20
112.227
 30
0.0
 11
134.49199999999999
 21
112.236
 31
0.0
  0
ARC
  5
B5
  8
0
 62
     7
 10
134.36902599999999
 20
112.184299
 30
0.0
 40
0.133485
 50
22.656886
 51
26.231017999999999
  0
LINE
  5
B6
  8
0
 62
     7
 10
134.489
 20
112.24299999999999
 30
0.0
 11
134.48699999999999
 21
112.247
 31
0.0
  0
ARC
  5
B7
  8
0
 62
     7
 10
134.45636200000001
 20
112.233344
 30
0.0
 40
0.033448
 50
24.910692999999991
 51
32.310220000000001
  0
ARC
  5
B8
  8
0
 62
     7
 10
134.52688900000001
 20
112.276731
 30
0.0
 40
0.04936
 50
206.10432700000001
 51
211.116626
  0
ARC
  5
B9
  8
0
 62
     7
 10
134.45222799999999
 20
112.240923
 30
0.0
 40
0.033448
 50
24.910692999999991
 51
32.310220000000001
  0
ARC
  5
BA
  8
0
 62
     7
 10
134.50061500000001
 20
112.274266
 30
0.0
 40
0.025376
 50
207.393415
 51
217.549002
  0
ARC
  5
BB
  8
0
 62
     7
 10
134.46600000000001
 20
112.256698
 30
0.0
 40
0.013446
 50
25.995296
 51
43.988737
  0
LINE
  5
BC
  8
0
 62
     7
 10
134.476
 20
112.26600000000001
 30
0.0
 11
134.47300000000001
 21
112.27
 31
0.0
  0
ARC
  5
BD
  8
0
 62
     7
 10
134.510007
 20
112.302391
 30
0.0
 40
0.04887
 50
216.07268300000001
 51
221.2469640000001
  0
ARC
  5
BE
  8
0
 62
     7
 10
134.28750099999999
 20
112.130037
 30
0.0
 40
0.232606
 50
38.116424000000002
 51
39.203184
  0
ARC
  5
BF
  8
0
 62
     7
 10
134.45295400000001
 20
112.268049
 30
0.0
 40
0.017324
 50
31.344172
 51
45.975436000000002
  0
ARC
  5
C0
  8
0
 62
     7
 10
134.450198
 20
112.271494
 30
0.0
 40
0.017324
 50
31.344172
 51
45.975436000000002
  0
ARC
  5
C1
  8
0
 62
     7
 10
134.43234699999999
 20
112.260167
 30
0.0
 40
0.038199
 50
38.509034
 51
45.465380999999986
  0
ARC
  5
C2
  8
0
 62
     7
 10
134.27613199999999
 20
112.143817
 30
0.0
 40
0.232606
 50
38.116424000000002
 51
39.203184
  0
LINE
  5
C3
  8
0
 62
     7
 10
134.45599999999999
 20
112.291
 30
0.0
 11
134.453
 21
112.294
 31
0.0
  0
ARC
  5
C4
  8
0
 62
     7
 10
134.44091499999999
 20
112.284676
 30
0.0
 40
0.015452
 50
36.842798999999999
 51
53.157190999999997
  0
ARC
  5
C5
  8
0
 62
     7
 10
134.46424500000001
 20
112.314553
 30
0.0
 40
0.02246
 50
218.77330499999999
 51
231.22672499999999
  0
ARC
  5
C6
  8
0
 62
     7
 10
134.29766499999999
 20
112.117682
 30
0.0
 40
0.235881
 50
50.804350000000007
 51
51.876021999999999
  0
ARC
  5
C7
  8
0
 62
     7
 10
134.43427199999999
 20
112.295502
 30
0.0
 40
0.011885
 50
40.643662999999997
 51
62.036708999999988
  0
ARC
  5
C8
  8
0
 62
     7
 10
134.432075
 20
112.299819
 30
0.0
 40
0.009928
 50
38.502485
 51
64.177887999999996
  0
ARC
  5
C9
  8
0
 62
     7
 10
134.42863
 20
112.302575
 30
0.0
 40
0.009928
 50
38.502485
 51
64.177887999999996
  0
ARC
  5
CA
  8
0
 62
     7
 10
134.42100099999999
 20
112.300102
 30
0.0
 40
0.016525
 50
43.668669999999999
 51
59.011702000000007
  0
ARC
  5
CB
  8
0
 62
     7
 10
134.41725600000001
 20
112.30140299999999
 30
0.0
 40
0.017767
 50
46.39479399999999
 51
61.550447999999982
  0
ARC
  5
CC
  8
0
 62
     7
 10
134.504221
 20
112.42894699999999
 30
0.0
 40
0.136709
 50
232.99064999999999
 51
234.95463100000001
  0
ARC
  5
CD
  8
0
 62
     7
 10
134.396421
 20
112.277522
 30
0.0
 40
0.04936
 50
58.883384
 51
63.895682999999998
  0
ARC
  5
CE
  8
0
 62
     7
 10
134.43563700000001
 20
112.353525
 30
0.0
 40
0.036188
 50
233.970617
 51
241.08702500000001
  0
ARC
  5
CF
  8
0
 62
     7
 10
134.431847
 20
112.355936
 30
0.0
 40
0.036188
 50
233.970617
 51
241.08702500000001
  0
LINE
  5
D0
  8
0
 62
     7
 10
134.411
 20
112.327
 30
0.0
 11
134.40700000000001
 21
112.32899999999999
 31
0.0
  0
ARC
  5
D1
  8
0
 62
     7
 10
134.398278
 20
112.314176
 30
0.0
 40
0.016857
 50
59.746386000000008
 51
75.013868999999985
  0
ARC
  5
D2
  8
0
 62
     7
 10
134.39597699999999
 20
112.32083799999999
 30
0.0
 40
0.011702
 50
55.310437999999991
 51
75.801637999999997
  0
LINE
  5
D3
  8
0
 62
     7
 10
134.399
 20
112.33199999999999
 30
0.0
 11
134.39500000000001
 21
112.334
 31
0.0
  0
ARC
  5
D4
  8
0
 62
     7
 10
134.38805400000001
 20
112.324628
 30
0.0
 40
0.011702
 50
55.310437999999991
 51
75.801637999999997
  0
ARC
  5
D5
  8
0
 62
     7
 10
134.399393
 20
112.36212
 30
0.0
 40
0.027485
 50
242.70686699999999
 51
252.053428
  0
LINE
  5
D6
  8
0
 62
     7
 10
134.387
 20
112.33799999999999
 30
0.0
 11
134.37899999999999
 21
112.34
 31
0.0
  0
ARC
  5
D7
  8
0
 62
     7
 10
134.40989099999999
 20
112.44340699999999
 30
0.0
 40
0.107629
 50
248.58740499999999
 51
253.05460299999999
  0
LINE
  5
D8
  8
0
 62
     7
 10
134.37100000000001
 20
112.343
 30
0.0
 11
134.36199999999999
 21
112.345
 31
0.0
  0
ARC
  5
D9
  8
0
 62
     7
 10
134.34718699999999
 20
112.279912
 30
0.0
 40
0.067093
 50
76.956187
 51
84.119150999999988
  0
ARC
  5
DA
  8
0
 62
     7
 10
134.34502599999999
 20
112.318168
 30
0.0
 40
0.029883
 50
72.400373999999999
 51
87.867993999999996
  0
LINE
  5
DB
  8
0
 62
     7
 10
134.346
 20
112.348
 30
0.0
 11
134.33799999999999
 21
112.349
 31
0.0
  0
ARC
  5
DC
  8
0
 62
     7
 10
134.336737
 20
112.41466699999999
 30
0.0
 40
0.065268
 50
264.02708699999999
 51
270.99382800000001
  0
ARC
  5
DD
  8
0
 62
     7
 10
134.32336799999999
 20
112.28977500000001
 30
0.0
 40
0.060338
 50
83.742011000000005
 51
91.278864000000013
  0
LINE
  5
DE
  8
0
 62
     7
 10
134.38399999999999
 20
112.417
 30
0.0
 11
134.41800000000001
 21
112.413
 31
0.0
  0
ARC
  5
DF
  8
0
 62
     7
 10
134.38649899999999
 20
112.246956
 30
0.0
 40
0.169447
 50
67.799338000000006
 51
79.356270999999992
  0
ARC
  5
E0
  8
0
 62
     7
 10
134.382744
 20
112.23474400000001
 30
0.0
 40
0.182175
 50
63.160720999999988
 51
68.157084999999995
  0
ARC
  5
E1
  8
0
 62
     7
 10
134.37884099999999
 20
112.228582
 30
0.0
 40
0.189438
 50
57.298909999999999
 51
62.94909100000001
  0
ARC
  5
E2
  8
0
 62
     7
 10
134.394721
 20
112.25139900000001
 30
0.0
 40
0.161661
 50
52.142291999999991
 51
57.666063000000008
  0
ARC
  5
E3
  8
0
 62
     7
 10
134.42084800000001
 20
112.273961
 30
0.0
 40
0.127993
 50
46.838535
 51
55.179466000000012
  0
ARC
  5
E4
  8
0
 62
     7
 10
134.40062499999999
 20
112.24963
 30
0.0
 40
0.159586
 50
40.954197999999998
 51
47.517994999999999
  0
ARC
  5
E5
  8
0
 62
     7
 10
134.39810700000001
 20
112.242114
 30
0.0
 40
0.166462
 50
36.948250000000002
 51
42.340090999999987
  0
ARC
  5
E6
  8
0
 62
     7
 10
140.01801599999999
 20
116.188295
 30
0.0
 40
6.7006309999999987
 50
215.029225
 51
215.162441
  0
ARC
  5
E7
  8
0
 62
     7
 10
134.101495
 20
112.08115599999999
 30
0.0
 40
0.503995
 50
27.373861000000002
 51
29.511990000000001
  0
ARC
  5
E8
  8
0
 62
     7
 10
134.365736
 20
112.222132
 30
0.0
 40
0.204555
 50
21.585832
 51
26.339141000000001
  0
ARC
  5
E9
  8
0
 62
     7
 10
134.38150099999999
 20
112.228967
 30
0.0
 40
0.187382
 50
16.183941000000001
 51
21.415825999999999
  0
ARC
  5
EA
  8
0
 62
     7
 10
134.46165099999999
 20
112.24961999999999
 30
0.0
 40
0.104682
 50
8.2594880000000011
 51
17.555326999999998
  0
ARC
  5
EB
  8
0
 62
     7
 10
134.45789500000001
 20
112.238466
 30
0.0
 40
0.110501
 50
4.8337120000000002
 51
13.71149
  0
LINE
  5
EC
  8
0
 62
     7
 10
131.75200000000001
 20
109.256
 30
0.0
 11
131.79599999999999
 21
109.256
 31
0.0
  0
LINE
  5
ED
  8
0
 62
     7
 10
131.79599999999999
 20
109.256
 30
0.0
 11
131.83799999999999
 21
109.256
 31
0.0
  0
LINE
  5
EE
  8
0
 62
     7
 10
131.83799999999999
 20
109.256
 30
0.0
 11
131.87899999999999
 21
109.258
 31
0.0
  0
LINE
  5
EF
  8
0
 62
     7
 10
131.87899999999999
 20
109.258
 30
0.0
 11
131.90100000000001
 21
109.258
 31
0.0
  0
LINE
  5
F0
  8
0
 62
     7
 10
131.90100000000001
 20
109.258
 30
0.0
 11
131.91999999999999
 21
109.259
 31
0.0
  0
LINE
  5
F1
  8
0
 62
     7
 10
131.91999999999999
 20
109.259
 30
0.0
 11
131.93700000000001
 21
109.26000000000001
 31
0.0
  0
LINE
  5
F2
  8
0
 62
     7
 10
131.93700000000001
 20
109.26000000000001
 30
0.0
 11
131.95099999999999
 21
109.261
 31
0.0
  0
LINE
  5
F3
  8
0
 62
     7
 10
131.95099999999999
 20
109.261
 30
0.0
 11
131.96799999999999
 21
109.262
 31
0.0
  0
LINE
  5
F4
  8
0
 62
     7
 10
131.96799999999999
 20
109.262
 30
0.0
 11
131.98699999999999
 21
109.26300000000001
 31
0.0
  0
LINE
  5
F5
  8
0
 62
     7
 10
131.98699999999999
 20
109.26300000000001
 30
0.0
 11
131.999
 21
109.264
 31
0.0
  0
LINE
  5
F6
  8
0
 62
     7
 10
131.999
 20
109.264
 30
0.0
 11
132.01300000000001
 21
109.265
 31
0.0
  0
LINE
  5
F7
  8
0
 62
     7
 10
132.01300000000001
 20
109.265
 30
0.0
 11
132.02799999999999
 21
109.26600000000001
 31
0.0
  0
LINE
  5
F8
  8
0
 62
     7
 10
132.02799999999999
 20
109.26600000000001
 30
0.0
 11
132.041
 21
109.268
 31
0.0
  0
LINE
  5
F9
  8
0
 62
     7
 10
132.041
 20
109.268
 30
0.0
 11
132.05099999999999
 21
109.26900000000001
 31
0.0
  0
LINE
  5
FA
  8
0
 62
     7
 10
132.05099999999999
 20
109.26900000000001
 30
0.0
 11
132.059
 21
109.27
 31
0.0
  0
LINE
  5
FB
  8
0
 62
     7
 10
132.059
 20
109.27
 30
0.0
 11
132.06700000000001
 21
109.27200000000001
 31
0.0
  0
LINE
  5
FC
  8
0
 62
     7
 10
132.06700000000001
 20
109.27200000000001
 30
0.0
 11
132.07299999999989
 21
109.273
 31
0.0
  0
LINE
  5
FD
  8
0
 62
     7
 10
132.07299999999989
 20
109.273
 30
0.0
 11
132.077
 21
109.274
 31
0.0
  0
LINE
  5
FE
  8
0
 62
     7
 10
132.077
 20
109.274
 30
0.0
 11
132.08199999999999
 21
109.27500000000001
 31
0.0
  0
LINE
  5
FF
  8
0
 62
     7
 10
132.08199999999999
 20
109.27500000000001
 30
0.0
 11
132.084
 21
109.277
 31
0.0
  0
LINE
  5
102
  8
0
 62
     7
 10
129.18899999999999
 20
112.343
 30
0.0
 11
129.19
 21
112.343
 31
0.0
  0
LINE
  5
103
  8
0
 62
     7
 10
129.19
 20
112.343
 30
0.0
 11
129.191
 21
112.343
 31
0.0
  0
LINE
  5
105
  8
0
 62
     7
 10
129.191
 20
112.343
 30
0.0
 11
129.19200000000001
 21
112.343
 31
0.0
  0
LINE
  5
106
  8
0
 62
     7
 10
129.19200000000001
 20
112.343
 30
0.0
 11
129.19300000000001
 21
112.343
 31
0.0
  0
LINE
  5
107
  8
0
 62
     7
 10
129.19300000000001
 20
112.343
 30
0.0
 11
129.19399999999999
 21
112.343
 31
0.0
  0
LINE
  5
108
  8
0
 62
     7
 10
129.19399999999999
 20
112.343
 30
0.0
 11
129.19499999999999
 21
112.343
 31
0.0
  0
LINE
  5
10A
  8
0
 62
     7
 10
129.19499999999999
 20
112.343
 30
0.0
 11
129.196
 21
112.343
 31
0.0
  0
LINE
  5
10B
  8
0
 62
     7
 10
129.196
 20
112.343
 30
0.0
 11
129.19800000000001
 21
112.343
 31
0.0
  0
LINE
  5
10C
  8
0
 62
     7
 10
129.19800000000001
 20
112.343
 30
0.0
 11
129.19900000000001
 21
112.343
 31
0.0
  0
LINE
  5
10D
  8
0
 62
     7
 10
129.19900000000001
 20
112.343
 30
0.0
 11
129.19999999999999
 21
112.343
 31
0.0
  0
LINE
  5
10E
  8
0
 62
     7
 10
129.19999999999999
 20
112.343
 30
0.0
 11
129.20099999999999
 21
112.343
 31
0.0
  0
LINE
  5
10F
  8
0
 62
     7
 10
129.20099999999999
 20
112.343
 30
0.0
 11
129.203
 21
112.343
 31
0.0
  0
LINE
  5
111
  8
0
 62
     7
 10
129.203
 20
112.343
 30
0.0
 11
129.20400000000001
 21
112.343
 31
0.0
  0
LINE
  5
112
  8
0
 62
     7
 10
129.20400000000001
 20
112.343
 30
0.0
 11
129.20599999999999
 21
112.343
 31
0.0
  0
LINE
  5
113
  8
0
 62
     7
 10
129.20599999999999
 20
112.343
 30
0.0
 11
129.20699999999999
 21
112.343
 31
0.0
  0
LINE
  5
114
  8
0
 62
     7
 10
129.20699999999999
 20
112.343
 30
0.0
 11
129.209
 21
112.343
 31
0.0
  0
LINE
  5
115
  8
0
 62
     7
 10
129.209
 20
112.343
 30
0.0
 11
129.21100000000001
 21
112.343
 31
0.0
  0
LINE
  5
116
  8
0
 62
     7
 10
129.21100000000001
 20
112.343
 30
0.0
 11
129.21199999999999
 21
112.343
 31
0.0
  0
LINE
  5
117
  8
0
 62
     7
 10
129.21199999999999
 20
112.343
 30
0.0
 11
129.21299999999999
 21
112.343
 31
0.0
  0
LINE
  5
118
  8
0
 62
     7
 10
129.21299999999999
 20
112.343
 30
0.0
 11
129.214
 21
112.343
 31
0.0
  0
ARC
  5
119
  8
0
 62
     7
 10
129.059079
 20
112.172292
 30
0.0
 40
0.054256
 50
170.82681700000001
 51
179.23366300000001
  0
ARC
  5
11A
  8
0
 62
     7
 10
129.08126799999999
 20
112.17184899999999
 30
0.0
 40
0.076296
 50
167.112855
 51
173.15549300000001
  0
ARC
  5
11B
  8
0
 62
     7
 10
129.057694
 20
112.181971
 30
0.0
 40
0.051265
 50
163.19913399999999
 51
172.27128099999999
  0
ARC
  5
11C
  8
0
 62
     7
 10
129.06729799999999
 20
112.188182
 30
0.0
 40
0.059309
 50
163.81536
 51
171.655055
  0
LINE
  5
11D
  8
0
 62
     7
 10
129.00999999999999
 20
112.205
 30
0.0
 11
129.01300000000001
 21
112.21299999999999
 31
0.0
  0
LINE
  5
11E
  8
0
 62
     7
 10
129.01300000000001
 20
112.21299999999999
 30
0.0
 11
129.01599999999999
 21
112.221
 31
0.0
  0
ARC
  5
11F
  8
0
 62
     7
 10
128.86650399999999
 20
112.283779
 30
0.0
 40
0.161725
 50
337.121961
 51
340.136799
  0
ARC
  5
120
  8
0
 62
     7
 10
129.110457
 20
112.187641
 30
0.0
 40
0.100661
 50
151.02258699999999
 51
155.84727699999999
  0
ARC
  5
121
  8
0
 62
     7
 10
129.04854599999999
 20
112.22793900000001
 30
0.0
 40
0.027485
 50
152.70683700000001
 51
162.05339799999999
  0
LINE
  5
122
  8
0
 62
     7
 10
129.024
 20
112.241
 30
0.0
 11
129.02600000000001
 21
112.245
 31
0.0
  0
ARC
  5
123
  8
0
 62
     7
 10
129.003692
 20
112.260516
 30
0.0
 40
0.027513
 50
324.84906999999998
 51
333.22342400000002
  0
LINE
  5
124
  8
0
 62
     7
 10
129.02799999999999
 20
112.248
 30
0.0
 11
129.03
 21
112.252
 31
0.0
  0
ARC
  5
125
  8
0
 62
     7
 10
129.01975100000001
 20
112.26222199999999
 30
0.0
 40
0.014528
 50
316.68612999999999
 51
333.329837
  0
ARC
  5
126
  8
0
 62
     7
 10
128.64670100000001
 20
112.50402
 30
0.0
 40
0.459002
 50
327.24845599999998
 51
327.809166
  0
ARC
  5
127
  8
0
 62
     7
 10
128.81083899999999
 20
112.42551899999999
 30
0.0
 40
0.279067
 50
323.49159300000002
 51
324.45366899999999
  0
ARC
  5
128
  8
0
 62
     7
 10
129.049779
 20
112.257532
 30
0.0
 40
0.013197
 50
135.839843
 51
154.176084
  0
ARC
  5
129
  8
0
 62
     7
 10
129.04801499999999
 20
112.26338800000001
 30
0.0
 40
0.008394
 50
126.10424500000001
 51
156.576108
  0
ARC
  5
12A
  8
0
 62
     7
 10
129.05040600000001
 20
112.26712499999999
 30
0.0
 40
0.007944
 50
125.218474
 51
157.46187800000001
  0
ARC
  5
12B
  8
0
 62
     7
 10
129.053527
 20
112.270279
 30
0.0
 40
0.008394
 50
126.10424500000001
 51
156.576108
  0
ARC
  5
12C
  8
0
 62
     7
 10
129.057322
 20
112.272311
 30
0.0
 40
0.009948
 50
124.54166499999999
 51
151.48388
  0
ARC
  5
12D
  8
0
 62
     7
 10
129.021671
 20
112.307339
 30
0.0
 40
0.040257
 50
318.19899700000002
 51
324.48139500000002
  0
LINE
  5
12E
  8
0
 62
     7
 10
129.054
 20
112.28400000000001
 30
0.0
 11
129.05799999999999
 21
112.28700000000001
 31
0.0
  0
LINE
  5
12F
  8
0
 62
     7
 10
129.05799999999999
 20
112.28700000000001
 30
0.0
 11
129.06100000000001
 21
112.29000000000001
 31
0.0
  0
ARC
  5
130
  8
0
 62
     7
 10
129.11505600000001
 20
112.24460500000001
 30
0.0
 40
0.0707
 50
136.134333
 51
139.891211
  0
LINE
  5
131
  8
0
 62
     7
 10
129.06399999999999
 20
112.294
 30
0.0
 11
129.06800000000001
 21
112.29600000000001
 31
0.0
  0
LINE
  5
132
  8
0
 62
     7
 10
129.06800000000001
 20
112.29600000000001
 30
0.0
 11
129.071
 21
112.29900000000001
 31
0.0
  0
LINE
  5
133
  8
0
 62
     7
 10
129.071
 20
112.29900000000001
 30
0.0
 11
129.0739999999999
 21
112.303
 31
0.0
  0
LINE
  5
134
  8
0
 62
     7
 10
129.0739999999999
 20
112.303
 30
0.0
 11
129.078
 21
112.30500000000001
 31
0.0
  0
LINE
  5
135
  8
0
 62
     7
 10
129.078
 20
112.30500000000001
 30
0.0
 11
129.08199999999999
 21
112.30800000000001
 31
0.0
  0
LINE
  5
136
  8
0
 62
     7
 10
129.08199999999999
 20
112.30800000000001
 30
0.0
 11
129.08500000000001
 21
112.31
 31
0.0
  0
LINE
  5
137
  8
0
 62
     7
 10
129.08500000000001
 20
112.31
 30
0.0
 11
129.089
 21
112.313
 31
0.0
  0
LINE
  5
138
  8
0
 62
     7
 10
129.089
 20
112.313
 30
0.0
 11
129.09299999999999
 21
112.315
 31
0.0
  0
LINE
  5
139
  8
0
 62
     7
 10
129.09299999999999
 20
112.315
 30
0.0
 11
129.096
 21
112.318
 31
0.0
  0
LINE
  5
13A
  8
0
 62
     7
 10
129.096
 20
112.318
 30
0.0
 11
129.09999999999999
 21
112.31999999999999
 31
0.0
  0
LINE
  5
13B
  8
0
 62
     7
 10
129.09999999999999
 20
112.31999999999999
 30
0.0
 11
129.10400000000001
 21
112.322
 31
0.0
  0
LINE
  5
13C
  8
0
 62
     7
 10
129.10400000000001
 20
112.322
 30
0.0
 11
129.108
 21
112.324
 31
0.0
  0
LINE
  5
13D
  8
0
 62
     7
 10
129.108
 20
112.324
 30
0.0
 11
129.11199999999999
 21
112.32599999999999
 31
0.0
  0
LINE
  5
13E
  8
0
 62
     7
 10
129.11199999999999
 20
112.32599999999999
 30
0.0
 11
129.11600000000001
 21
112.327
 31
0.0
  0
LINE
  5
13F
  8
0
 62
     7
 10
129.11600000000001
 20
112.327
 30
0.0
 11
129.12
 21
112.32899999999999
 31
0.0
  0
LINE
  5
140
  8
0
 62
     7
 10
129.12
 20
112.32899999999999
 30
0.0
 11
129.124
 21
112.331
 31
0.0
  0
LINE
  5
141
  8
0
 62
     7
 10
129.124
 20
112.331
 30
0.0
 11
129.13200000000001
 21
112.334
 31
0.0
  0
LINE
  5
142
  8
0
 62
     7
 10
129.13200000000001
 20
112.334
 30
0.0
 11
129.14099999999999
 21
112.336
 31
0.0
  0
LINE
  5
143
  8
0
 62
     7
 10
129.14099999999999
 20
112.336
 30
0.0
 11
129.148
 21
112.33799999999999
 31
0.0
  0
LINE
  5
144
  8
0
 62
     7
 10
129.148
 20
112.33799999999999
 30
0.0
 11
129.15700000000001
 21
112.34
 31
0.0
  0
LINE
  5
145
  8
0
 62
     7
 10
129.15700000000001
 20
112.34
 30
0.0
 11
129.16499999999999
 21
112.34099999999999
 31
0.0
  0
LINE
  5
146
  8
0
 62
     7
 10
129.16499999999999
 20
112.34099999999999
 30
0.0
 11
129.173
 21
112.343
 31
0.0
  0
LINE
  5
147
  8
0
 62
     7
 10
129.173
 20
112.343
 30
0.0
 11
129.18100000000001
 21
112.343
 31
0.0
  0
LINE
  5
148
  8
0
 62
     7
 10
129.18100000000001
 20
112.343
 30
0.0
 11
129.18899999999999
 21
112.343
 31
0.0
  0
ARC
  5
149
  8
0
 62
     7
 10
129.11576600000001
 20
109.716222
 30
0.0
 40
0.140993
 50
247.742086
 51
253.67784599999999
  0
ARC
  5
14A
  8
0
 62
     7
 10
129.09515500000001
 20
109.682012
 30
0.0
 40
0.101709
 50
244.049564
 51
251.190191
  0
LINE
  5
14B
  8
0
 62
     7
 10
129.05099999999999
 20
109.59099999999999
 30
0.0
 11
129.03899999999999
 21
109.596
 31
0.0
  0
ARC
  5
14C
  8
0
 62
     7
 10
129.14648500000001
 20
109.778424
 30
0.0
 40
0.211411
 50
235.43120300000001
 51
239.42071000000001
  0
ARC
  5
14D
  8
0
 62
     7
 10
129.094931
 20
109.713052
 30
0.0
 40
0.128441
 50
232.19296199999999
 51
237.823025
  0
ARC
  5
14E
  8
0
 62
     7
 10
129.30860699999999
 20
109.98056200000001
 30
0.0
 40
0.4708040000000001
 50
229.816744
 51
231.60447099999999
  0
ARC
  5
14F
  8
0
 62
     7
 10
129.09027699999999
 20
109.71597199999999
 30
0.0
 40
0.127847
 50
221.94168999999999
 51
228.05833999999999
  0
ARC
  5
150
  8
0
 62
     7
 10
129.08327700000001
 20
109.719161
 30
0.0
 40
0.124971
 50
218.79809900000001
 51
225.176356
  0
ARC
  5
151
  8
0
 62
     7
 10
129.18861799999999
 20
109.804495
 30
0.0
 40
0.260539
 50
216.04405499999999
 51
218.90833599999999
  0
ARC
  5
152
  8
0
 62
     7
 10
129.095349
 20
109.736969
 30
0.0
 40
0.145391
 50
210.466508
 51
216.15478599999989
  0
ARC
  5
153
  8
0
 62
     7
 10
129.05935600000001
 20
109.722374
 30
0.0
 40
0.107118
 50
205.654923
 51
213.500788
  0
ARC
  5
154
  8
0
 62
     7
 10
129.773292
 20
110.040565
 30
0.0
 40
0.8887139999999998
 50
203.39326
 51
204.21866200000011
  0
ARC
  5
155
  8
0
 62
     7
 10
129.175757
 20
109.781955
 30
0.0
 40
0.237616
 50
200.2355
 51
203.36735400000001
  0
ARC
  5
156
  8
0
 62
     7
 10
129.52492100000001
 20
109.87488399999999
 30
0.0
 40
0.598315
 50
195.609162
 51
197.01857899999999
  0
ARC
  5
157
  8
0
 62
     7
 10
129.134061
 20
109.76159800000001
 30
0.0
 40
0.191428
 50
190.627138
 51
194.4305149999999
  0
LINE
  5
158
  8
0
 62
     7
 10
128.946
 20
109.726
 30
0.0
 11
128.94399999999999
 21
109.741
 31
0.0
  0
LINE
  5
159
  8
0
 62
     7
 10
131.42099999999999
 20
109.277
 30
0.0
 11
131.423
 21
109.27500000000001
 31
0.0
  0
LINE
  5
15A
  8
0
 62
     7
 10
131.423
 20
109.27500000000001
 30
0.0
 11
131.42699999999999
 21
109.274
 31
0.0
  0
LINE
  5
15B
  8
0
 62
     7
 10
131.42699999999999
 20
109.274
 30
0.0
 11
131.43600000000001
 21
109.27200000000001
 31
0.0
  0
LINE
  5
15C
  8
0
 62
     7
 10
131.43600000000001
 20
109.27200000000001
 30
0.0
 11
131.446
 21
109.27
 31
0.0
  0
LINE
  5
15D
  8
0
 62
     7
 10
131.446
 20
109.27
 30
0.0
 11
131.46000000000001
 21
109.268
 31
0.0
  0
LINE
  5
15E
  8
0
 62
     7
 10
131.46000000000001
 20
109.268
 30
0.0
 11
131.477
 21
109.26600000000001
 31
0.0
  0
LINE
  5
15F
  8
0
 62
     7
 10
131.477
 20
109.26600000000001
 30
0.0
 11
131.49199999999999
 21
109.265
 31
0.0
  0
LINE
  5
160
  8
0
 62
     7
 10
131.49199999999999
 20
109.265
 30
0.0
 11
131.506
 21
109.264
 31
0.0
  0
LINE
  5
161
  8
0
 62
     7
 10
131.506
 20
109.264
 30
0.0
 11
131.518
 21
109.26300000000001
 31
0.0
  0
LINE
  5
162
  8
0
 62
     7
 10
131.518
 20
109.26300000000001
 30
0.0
 11
131.536
 21
109.262
 31
0.0
  0
LINE
  5
163
  8
0
 62
     7
 10
131.536
 20
109.262
 30
0.0
 11
131.554
 21
109.261
 31
0.0
  0
LINE
  5
164
  8
0
 62
     7
 10
131.554
 20
109.261
 30
0.0
 11
131.56800000000001
 21
109.26000000000001
 31
0.0
  0
LINE
  5
165
  8
0
 62
     7
 10
131.56800000000001
 20
109.26000000000001
 30
0.0
 11
131.589
 21
109.259
 31
0.0
  0
LINE
  5
166
  8
0
 62
     7
 10
131.589
 20
109.259
 30
0.0
 11
131.608
 21
109.258
 31
0.0
  0
LINE
  5
167
  8
0
 62
     7
 10
131.608
 20
109.258
 30
0.0
 11
131.626
 21
109.258
 31
0.0
  0
LINE
  5
168
  8
0
 62
     7
 10
131.626
 20
109.258
 30
0.0
 11
131.64500000000001
 21
109.25700000000001
 31
0.0
  0
LINE
  5
169
  8
0
 62
     7
 10
131.64500000000001
 20
109.25700000000001
 30
0.0
 11
131.667
 21
109.256
 31
0.0
  0
LINE
  5
16A
  8
0
 62
     7
 10
131.667
 20
109.256
 30
0.0
 11
131.69300000000001
 21
109.256
 31
0.0
  0
LINE
  5
16B
  8
0
 62
     7
 10
131.69300000000001
 20
109.256
 30
0.0
 11
131.721
 21
109.256
 31
0.0
  0
LINE
  5
16C
  8
0
 62
     7
 10
131.721
 20
109.256
 30
0.0
 11
131.75200000000001
 21
109.256
 31
0.0
  0
LINE
  5
16D
  8
0
 62
     7
 10
132.084
 20
109.277
 30
0.0
 11
132.083
 21
109.27800000000001
 31
0.0
  0
LINE
  5
16E
  8
0
 62
     7
 10
132.083
 20
109.27800000000001
 30
0.0
 11
132.08000000000001
 21
109.279
 31
0.0
  0
LINE
  5
16F
  8
0
 62
     7
 10
132.08000000000001
 20
109.279
 30
0.0
 11
132.07499999999999
 21
109.28
 31
0.0
  0
LINE
  5
170
  8
0
 62
     7
 10
132.07499999999999
 20
109.28
 30
0.0
 11
132.06899999999999
 21
109.28100000000001
 31
0.0
  0
ARC
  5
171
  8
0
 62
     7
 10
132.05921699999999
 20
109.21062999999999
 30
0.0
 40
0.071268
 50
81.899319000000006
 51
88.573379000000003
  0
ARC
  5
172
  8
0
 62
     7
 10
132.048033
 20
109.20542399999999
 30
0.0
 40
0.077542
 50
80.380434999999977
 51
87.807264000000004
  0
ARC
  5
173
  8
0
 62
     7
 10
132.0616629999999
 20
109.455957
 30
0.0
 40
0.173376
 50
262.81426699999997
 51
266.47410400000001
  0
ARC
  5
174
  8
0
 62
     7
 10
132.03848600000001
 20
109.363725
 30
0.0
 40
0.079796
 50
262.389366
 51
271.06967800000001
  0
LINE
  5
175
  8
0
 62
     7
 10
132.02799999999999
 20
109.285
 30
0.0
 11
132.01599999999999
 21
109.285
 31
0.0
  0
ARC
  5
176
  8
0
 62
     7
 10
132.005945
 20
109.21442
 30
0.0
 40
0.070958
 50
81.686896999999988
 51
92.287509000000014
  0
LINE
  5
177
  8
0
 62
     7
 10
132.00299999999999
 20
109.285
 30
0.0
 11
131.988
 21
109.286
 31
0.0
  0
ARC
  5
178
  8
0
 62
     7
 10
131.98655500000001
 20
109.59936399999999
 30
0.0
 40
0.313359
 50
267.29421000000002
 51
270.31883099999999
  0
ARC
  5
179
  8
0
 62
     7
 10
131.95741899999999
 20
109.014268
 30
0.0
 40
0.272464
 50
86.982307999999989
 51
90.895849000000013
  0
ARC
  5
17A
  8
0
 62
     7
 10
131.95361299999999
 20
109.62138400000001
 30
0.0
 40
0.334686
 50
266.322045
 51
269.92222099999998
  0
LINE
  5
17B
  8
0
 62
     7
 10
131.93199999999999
 20
109.28700000000001
 30
0.0
 11
131.90899999999999
 21
109.28700000000001
 31
0.0
  0
ARC
  5
17C
  8
0
 62
     7
 10
131.84972099999999
 20
107.024636
 30
0.0
 40
2.2635299999999989
 50
88.497754
 51
89.492054000000024
  0
LINE
  5
17D
  8
0
 62
     7
 10
131.87
 20
109.288
 30
0.0
 11
131.83000000000001
 21
109.288
 31
0.0
  0
ARC
  5
17E
  8
0
 62
     7
 10
131.82813400000001
 20
111.372007
 30
0.0
 40
2.0839300000000001
 50
268.95712700000001
 51
270.046469
  0
LINE
  5
17F
  8
0
 62
     7
 10
131.78999999999999
 20
109.288
 30
0.0
 11
131.75200000000001
 21
109.288
 31
0.0
  0
LINE
  5
180
  8
0
 62
     7
 10
131.75200000000001
 20
109.288
 30
0.0
 11
131.74199999999999
 21
109.288
 31
0.0
  0
LINE
  5
181
  8
0
 62
     7
 10
131.74199999999999
 20
109.288
 30
0.0
 11
131.72800000000001
 21
109.288
 31
0.0
  0
LINE
  5
182
  8
0
 62
     7
 10
131.72800000000001
 20
109.288
 30
0.0
 11
131.71299999999999
 21
109.288
 31
0.0
  0
ARC
  5
183
  8
0
 62
     7
 10
131.69953100000001
 20
109.536309
 30
0.0
 40
0.248255
 50
269.22034500000001
 51
273.117953
  0
LINE
  5
184
  8
0
 62
     7
 10
131.696
 20
109.288
 30
0.0
 11
131.678
 21
109.288
 31
0.0
  0
LINE
  5
185
  8
0
 62
     7
 10
131.678
 20
109.288
 30
0.0
 11
131.65799999999999
 21
109.288
 31
0.0
  0
LINE
  5
186
  8
0
 62
     7
 10
131.65799999999999
 20
109.288
 30
0.0
 11
131.63800000000001
 21
109.288
 31
0.0
  0
ARC
  5
187
  8
0
 62
     7
 10
131.63589099999999
 20
108.750353
 30
0.0
 40
0.5377270000000001
 50
89.819354000000004
 51
92.059008000000006
  0
LINE
  5
188
  8
0
 62
     7
 10
131.61699999999999
 20
109.288
 30
0.0
 11
131.596
 21
109.28700000000001
 31
0.0
  0
LINE
  5
189
  8
0
 62
     7
 10
131.596
 20
109.28700000000001
 30
0.0
 11
131.572
 21
109.28700000000001
 31
0.0
  0
ARC
  5
18A
  8
0
 62
     7
 10
131.54561799999999
 20
109.78263699999999
 30
0.0
 40
0.4959760000000001
 50
270.71446099999997
 51
273.10386399999999
  0
ARC
  5
18B
  8
0
 62
     7
 10
131.55004299999999
 20
108.862245
 30
0.0
 40
0.424458
 50
89.762433000000001
 51
92.320799999999991
  0
ARC
  5
18C
  8
0
 62
     7
 10
131.519822
 20
109.51488000000001
 30
0.0
 40
0.228897
 50
269.12294600000001
 51
273.26405199999999
  0
LINE
  5
18D
  8
0
 62
     7
 10
131.51599999999999
 20
109.286
 30
0.0
 11
131.50200000000001
 21
109.285
 31
0.0
  0
ARC
  5
18E
  8
0
 62
     7
 10
131.50004899999999
 20
109.188258
 30
0.0
 40
0.097074
 50
89.141000000000005
 51
96.884554000000023
  0
LINE
  5
18F
  8
0
 62
     7
 10
131.488
 20
109.285
 30
0.0
 11
131.477
 21
109.285
 31
0.0
  0
ARC
  5
190
  8
0
 62
     7
 10
131.46746899999999
 20
109.341632
 30
0.0
 40
0.057743
 50
267.53502600000002
 51
279.19791400000003
  0
ARC
  5
191
  8
0
 62
     7
 10
131.45079200000001
 20
109.37703
 30
0.0
 40
0.094163
 50
271.71920899999998
 51
278.669667
  0
ARC
  5
192
  8
0
 62
     7
 10
131.46353400000001
 20
109.144818
 30
0.0
 40
0.138447
 50
94.107611000000006
 51
98.12337500000001
  0
ARC
  5
193
  8
0
 62
     7
 10
131.44480200000001
 20
109.217309
 30
0.0
 40
0.064572
 50
90.737684999999985
 51
98.410137000000006
  0
ARC
  5
194
  8
0
 62
     7
 10
131.46740600000001
 20
109.08246699999999
 30
0.0
 40
0.201287
 50
99.161512000000016
 51
100.854426
  0
LINE
  5
195
  8
0
 62
     7
 10
131.43000000000001
 20
109.28
 30
0.0
 11
131.42500000000001
 21
109.279
 31
0.0
  0
LINE
  5
196
  8
0
 62
     7
 10
131.42500000000001
 20
109.279
 30
0.0
 11
131.422
 21
109.27800000000001
 31
0.0
  0
LINE
  5
197
  8
0
 62
     7
 10
131.422
 20
109.27800000000001
 30
0.0
 11
131.42099999999999
 21
109.277
 31
0.0
  0
LINE
  5
198
  8
0
 62
     7
 10
129.22499999999999
 20
109.616
 30
0.0
 11
129.2229999999999
 21
109.616
 31
0.0
  0
LINE
  5
199
  8
0
 62
     7
 10
129.2229999999999
 20
109.616
 30
0.0
 11
129.22200000000001
 21
109.616
 31
0.0
  0
LINE
  5
19A
  8
0
 62
     7
 10
129.22200000000001
 20
109.616
 30
0.0
 11
129.22
 21
109.616
 31
0.0
  0
LINE
  5
19B
  8
0
 62
     7
 10
129.22
 20
109.616
 30
0.0
 11
129.21899999999999
 21
109.616
 31
0.0
  0
LINE
  5
19C
  8
0
 62
     7
 10
129.21899999999999
 20
109.616
 30
0.0
 11
129.21799999999999
 21
109.616
 31
0.0
  0
LINE
  5
19D
  8
0
 62
     7
 10
129.21799999999999
 20
109.616
 30
0.0
 11
129.21700000000001
 21
109.616
 31
0.0
  0
LINE
  5
19E
  8
0
 62
     7
 10
129.21700000000001
 20
109.616
 30
0.0
 11
129.21600000000001
 21
109.616
 31
0.0
  0
LINE
  5
19F
  8
0
 62
     7
 10
129.21600000000001
 20
109.616
 30
0.0
 11
129.215
 21
109.616
 31
0.0
  0
LINE
  5
1A0
  8
0
 62
     7
 10
129.215
 20
109.616
 30
0.0
 11
129.214
 21
109.616
 31
0.0
  0
LINE
  5
1A1
  8
0
 62
     7
 10
129.214
 20
109.616
 30
0.0
 11
129.21199999999999
 21
109.616
 31
0.0
  0
LINE
  5
1A2
  8
0
 62
     7
 10
129.21199999999999
 20
109.616
 30
0.0
 11
129.21100000000001
 21
109.616
 31
0.0
  0
LINE
  5
1A3
  8
0
 62
     7
 10
129.21100000000001
 20
109.616
 30
0.0
 11
129.21000000000001
 21
109.616
 31
0.0
  0
LINE
  5
1A4
  8
0
 62
     7
 10
129.21000000000001
 20
109.616
 30
0.0
 11
129.209
 21
109.616
 31
0.0
  0
LINE
  5
1A5
  8
0
 62
     7
 10
129.209
 20
109.616
 30
0.0
 11
129.208
 21
109.616
 31
0.0
  0
LINE
  5
1A7
  8
0
 62
     7
 10
129.208
 20
109.616
 30
0.0
 11
129.20699999999999
 21
109.616
 31
0.0
  0
LINE
  5
1A8
  8
0
 62
     7
 10
129.20699999999999
 20
109.616
 30
0.0
 11
129.20599999999999
 21
109.616
 31
0.0
  0
LINE
  5
1A9
  8
0
 62
     7
 10
129.20599999999999
 20
109.616
 30
0.0
 11
129.20500000000001
 21
109.616
 31
0.0
  0
LINE
  5
1AA
  8
0
 62
     7
 10
129.20500000000001
 20
109.616
 30
0.0
 11
129.20400000000001
 21
109.616
 31
0.0
  0
LINE
  5
1AC
  8
0
 62
     7
 10
129.20400000000001
 20
109.616
 30
0.0
 11
129.203
 21
109.616
 31
0.0
  0
LINE
  5
1AE
  8
0
 62
     7
 10
129.203
 20
109.616
 30
0.0
 11
129.202
 21
109.616
 31
0.0
  0
LINE
  5
1B0
  8
0
 62
     7
 10
129.202
 20
109.616
 30
0.0
 11
129.20099999999999
 21
109.616
 31
0.0
  0
LINE
  5
1B2
  8
0
 62
     7
 10
129.20099999999999
 20
109.616
 30
0.0
 11
129.19999999999999
 21
109.616
 31
0.0
  0
LINE
  5
1B4
  8
0
 62
     7
 10
134.31700000000001
 20
109.61199999999999
 30
0.0
 11
134.3239999999999
 21
109.613
 31
0.0
  0
LINE
  5
1B5
  8
0
 62
     7
 10
134.3239999999999
 20
109.613
 30
0.0
 11
134.33199999999999
 21
109.613
 31
0.0
  0
LINE
  5
1B6
  8
0
 62
     7
 10
134.33199999999999
 20
109.613
 30
0.0
 11
134.34
 21
109.614
 31
0.0
  0
LINE
  5
1B7
  8
0
 62
     7
 10
134.34
 20
109.614
 30
0.0
 11
134.34800000000001
 21
109.616
 31
0.0
  0
LINE
  5
1B8
  8
0
 62
     7
 10
134.34800000000001
 20
109.616
 30
0.0
 11
134.35599999999999
 21
109.617
 31
0.0
  0
LINE
  5
1B9
  8
0
 62
     7
 10
134.35599999999999
 20
109.617
 30
0.0
 11
134.364
 21
109.619
 31
0.0
  0
LINE
  5
1BA
  8
0
 62
     7
 10
134.364
 20
109.619
 30
0.0
 11
134.37200000000001
 21
109.622
 31
0.0
  0
LINE
  5
1BB
  8
0
 62
     7
 10
134.37200000000001
 20
109.622
 30
0.0
 11
134.38
 21
109.625
 31
0.0
  0
LINE
  5
1BC
  8
0
 62
     7
 10
134.38
 20
109.625
 30
0.0
 11
134.38399999999999
 21
109.627
 31
0.0
  0
LINE
  5
1BD
  8
0
 62
     7
 10
134.38399999999999
 20
109.627
 30
0.0
 11
134.387
 21
109.628
 31
0.0
  0
LINE
  5
1BE
  8
0
 62
     7
 10
134.387
 20
109.628
 30
0.0
 11
134.392
 21
109.631
 31
0.0
  0
LINE
  5
1BF
  8
0
 62
     7
 10
134.392
 20
109.631
 30
0.0
 11
134.39500000000001
 21
109.633
 31
0.0
  0
LINE
  5
1C0
  8
0
 62
     7
 10
134.39500000000001
 20
109.633
 30
0.0
 11
134.399
 21
109.634
 31
0.0
  0
LINE
  5
1C1
  8
0
 62
     7
 10
134.399
 20
109.634
 30
0.0
 11
134.40299999999999
 21
109.636
 31
0.0
  0
LINE
  5
1C2
  8
0
 62
     7
 10
134.40299999999999
 20
109.636
 30
0.0
 11
134.40700000000001
 21
109.639
 31
0.0
  0
LINE
  5
1C3
  8
0
 62
     7
 10
134.40700000000001
 20
109.639
 30
0.0
 11
134.411
 21
109.64100000000001
 31
0.0
  0
LINE
  5
1C4
  8
0
 62
     7
 10
134.411
 20
109.64100000000001
 30
0.0
 11
134.41399999999999
 21
109.643
 31
0.0
  0
LINE
  5
1C5
  8
0
 62
     7
 10
134.41399999999999
 20
109.643
 30
0.0
 11
134.41800000000001
 21
109.646
 31
0.0
  0
LINE
  5
1C6
  8
0
 62
     7
 10
134.41800000000001
 20
109.646
 30
0.0
 11
134.42099999999999
 21
109.648
 31
0.0
  0
LINE
  5
1C7
  8
0
 62
     7
 10
134.42099999999999
 20
109.648
 30
0.0
 11
134.42500000000001
 21
109.651
 31
0.0
  0
LINE
  5
1C8
  8
0
 62
     7
 10
134.42500000000001
 20
109.651
 30
0.0
 11
134.428
 21
109.654
 31
0.0
  0
LINE
  5
1C9
  8
0
 62
     7
 10
134.428
 20
109.654
 30
0.0
 11
134.43199999999999
 21
109.657
 31
0.0
  0
LINE
  5
1CA
  8
0
 62
     7
 10
134.43199999999999
 20
109.657
 30
0.0
 11
134.435
 21
109.65900000000001
 31
0.0
  0
LINE
  5
1CB
  8
0
 62
     7
 10
134.435
 20
109.65900000000001
 30
0.0
 11
134.43799999999999
 21
109.66200000000001
 31
0.0
  0
ARC
  5
1CC
  8
0
 62
     7
 10
134.43268
 20
109.670233
 30
0.0
 40
0.009689
 50
304.17394900000011
 51
331.85163499999999
  0
LINE
  5
1CD
  8
0
 62
     7
 10
134.441
 20
109.666
 30
0.0
 11
134.44499999999999
 21
109.66800000000001
 31
0.0
  0
LINE
  5
1CE
  8
0
 62
     7
 10
134.44499999999999
 20
109.66800000000001
 30
0.0
 11
134.447
 21
109.672
 31
0.0
  0
LINE
  5
1CF
  8
0
 62
     7
 10
134.447
 20
109.672
 30
0.0
 11
134.45099999999999
 21
109.675
 31
0.0
  0
LINE
  5
1D0
  8
0
 62
     7
 10
134.45099999999999
 20
109.675
 30
0.0
 11
134.453
 21
109.678
 31
0.0
  0
ARC
  5
1D1
  8
0
 62
     7
 10
134.434123
 20
109.696215
 30
0.0
 40
0.026391
 50
316.54537299999998
 51
326.135019
  0
ARC
  5
1D2
  8
0
 62
     7
 10
134.436879
 20
109.69965999999999
 30
0.0
 40
0.026391
 50
316.54537299999998
 51
326.135019
  0
ARC
  5
1D3
  8
0
 62
     7
 10
134.47718
 20
109.67307
 30
0.0
 40
0.021893
 50
135.557334
 51
147.123019
  0
ARC
  5
1D4
  8
0
 62
     7
 10
134.47355400000001
 20
109.682563
 30
0.0
 40
0.013349
 50
135.94520399999999
 51
154.07072400000001
  0
ARC
  5
1D5
  8
0
 62
     7
 10
134.43951200000001
 20
109.708877
 30
0.0
 40
0.029796
 50
325.136977
 51
334.35015499999997
  0
ARC
  5
1D6
  8
0
 62
     7
 10
134.45693700000001
 20
109.70515
 30
0.0
 40
0.013158
 50
315.812929
 51
334.20303799999999
  0
ARC
  5
1D7
  8
0
 62
     7
 10
134.480662
 20
109.693675
 30
0.0
 40
0.013197
 50
135.839843
 51
154.176084
  0
LINE
  5
1D8
  8
0
 62
     7
 10
134.471
 20
109.703
 30
0.0
 11
134.47300000000001
 21
109.70699999999999
 31
0.0
  0
ARC
  5
1D9
  8
0
 62
     7
 10
134.45076700000001
 20
109.722843
 30
0.0
 40
0.027513
 50
324.84906999999998
 51
333.22342400000002
  0
LINE
  5
1DA
  8
0
 62
     7
 10
134.47499999999999
 20
109.70999999999999
 30
0.0
 11
134.477
 21
109.715
 31
0.0
  0
ARC
  5
1DB
  8
0
 62
     7
 10
134.36539400000001
 20
109.77273700000001
 30
0.0
 40
0.1262
 50
332.56055199999997
 51
334.30935099999999
  0
ARC
  5
1DC
  8
0
 62
     7
 10
134.36586
 20
109.774081
 30
0.0
 40
0.126371
 50
333.668339
 51
337.44375700000001
  0
ARC
  5
1DD
  8
0
 62
     7
 10
134.446225
 20
109.743949
 30
0.0
 40
0.040706
 50
333.2169770000001
 51
345.67093699999998
  0
ARC
  5
1DE
  8
0
 62
     7
 10
134.45158900000001
 20
109.750557
 30
0.0
 40
0.03794
 50
333.91570300000001
 51
346.118088
  0
ARC
  5
1DF
  8
0
 62
     7
 10
134.42426599999999
 20
109.765308
 30
0.0
 40
0.068445
 50
339.60367300000001
 51
346.54130499999991
  0
ARC
  5
1E0
  8
0
 62
     7
 10
134.29245299999999
 20
109.805361
 30
0.0
 40
0.206127
 50
344.24093699999997
 51
346.51731899999999
  0
ARC
  5
1E1
  8
0
 62
     7
 10
134.23889399999999
 20
109.819016
 30
0.0
 40
0.261394
 50
346.343862
 51
348.04760900000002
  0
ARC
  5
1E2
  8
0
 62
     7
 10
134.85997499999999
 20
109.721256
 30
0.0
 40
0.3679489999999999
 50
171.946403
 51
173.190743
  0
ARC
  5
1E3
  8
0
 62
     7
 10
134.44795999999999
 20
109.783055
 30
0.0
 40
0.048785
 50
347.87082900000001
 51
357.26635600000009
  0
LINE
  5
1E4
  8
0
 62
     7
 10
133.50200000000001
 20
109.613
 30
0.0
 11
133.65799999999999
 21
109.613
 31
0.0
  0
LINE
  5
1E5
  8
0
 62
     7
 10
133.65799999999999
 20
109.613
 30
0.0
 11
133.81100000000001
 21
109.613
 31
0.0
  0
LINE
  5
1E6
  8
0
 62
     7
 10
133.81100000000001
 20
109.613
 30
0.0
 11
133.90000000000001
 21
109.613
 31
0.0
  0
LINE
  5
1E7
  8
0
 62
     7
 10
133.90000000000001
 20
109.613
 30
0.0
 11
133.988
 21
109.61199999999999
 31
0.0
  0
LINE
  5
1E8
  8
0
 62
     7
 10
133.988
 20
109.61199999999999
 30
0.0
 11
134.07400000000001
 21
109.61199999999999
 31
0.0
  0
LINE
  5
1E9
  8
0
 62
     7
 10
134.07400000000001
 20
109.61199999999999
 30
0.0
 11
134.10900000000001
 21
109.61199999999999
 31
0.0
  0
LINE
  5
1EA
  8
0
 62
     7
 10
134.10900000000001
 20
109.61199999999999
 30
0.0
 11
134.143
 21
109.61199999999999
 31
0.0
  0
LINE
  5
1EB
  8
0
 62
     7
 10
134.143
 20
109.61199999999999
 30
0.0
 11
134.17500000000001
 21
109.61199999999999
 31
0.0
  0
LINE
  5
1EC
  8
0
 62
     7
 10
134.17500000000001
 20
109.61199999999999
 30
0.0
 11
134.197
 21
109.61199999999999
 31
0.0
  0
LINE
  5
1ED
  8
0
 62
     7
 10
134.197
 20
109.61199999999999
 30
0.0
 11
134.21700000000001
 21
109.61199999999999
 31
0.0
  0
LINE
  5
1EE
  8
0
 62
     7
 10
134.21700000000001
 20
109.61199999999999
 30
0.0
 11
134.23500000000001
 21
109.61199999999999
 31
0.0
  0
LINE
  5
1EF
  8
0
 62
     7
 10
134.23500000000001
 20
109.61199999999999
 30
0.0
 11
134.251
 21
109.61199999999999
 31
0.0
  0
LINE
  5
1F0
  8
0
 62
     7
 10
134.251
 20
109.61199999999999
 30
0.0
 11
134.26599999999999
 21
109.613
 31
0.0
  0
LINE
  5
1F1
  8
0
 62
     7
 10
134.26599999999999
 20
109.613
 30
0.0
 11
134.279
 21
109.613
 31
0.0
  0
LINE
  5
1F2
  8
0
 62
     7
 10
134.279
 20
109.613
 30
0.0
 11
134.28999999999999
 21
109.613
 31
0.0
  0
LINE
  5
1F3
  8
0
 62
     7
 10
134.28999999999999
 20
109.613
 30
0.0
 11
134.29900000000001
 21
109.613
 31
0.0
  0
LINE
  5
1F4
  8
0
 62
     7
 10
134.29900000000001
 20
109.613
 30
0.0
 11
134.30600000000001
 21
109.613
 31
0.0
  0
LINE
  5
1F5
  8
0
 62
     7
 10
134.30600000000001
 20
109.613
 30
0.0
 11
134.31100000000001
 21
109.61199999999999
 31
0.0
  0
LINE
  5
1F6
  8
0
 62
     7
 10
134.31100000000001
 20
109.61199999999999
 30
0.0
 11
134.315
 21
109.61199999999999
 31
0.0
  0
LINE
  5
1F7
  8
0
 62
     7
 10
134.315
 20
109.61199999999999
 30
0.0
 11
134.31700000000001
 21
109.61199999999999
 31
0.0
  0
ARC
  5
1F8
  8
0
 62
     7
 10
131.19044500000001
 20
462.14482800000002
 30
0.0
 40
352.53391199999999
 50
269.68051200000002
 51
269.760918
  0
LINE
  5
1F9
  8
0
 62
     7
 10
129.71899999999999
 20
109.614
 30
0.0
 11
130.2939999999999
 21
109.61199999999999
 31
0.0
  0
LINE
  5
1FA
  8
0
 62
     7
 10
130.2939999999999
 20
109.61199999999999
 30
0.0
 11
130.86099999999999
 21
109.611
 31
0.0
  0
ARC
  5
1FB
  8
0
 62
     7
 10
131.362109
 20
291.78887600000002
 30
0.0
 40
182.179025
 50
269.84242799999998
 51
270.00051000000002
  0
ARC
  5
1FC
  8
0
 62
     7
 10
131.65601799999999
 20
232.59404799999999
 30
0.0
 40
122.984545
 50
269.86382500000002
 51
270.13619499999999
  0
LINE
  5
1FD
  8
0
 62
     7
 10
131.94799999999989
 20
109.61
 30
0.0
 11
132.43299999999999
 21
109.61
 31
0.0
  0
LINE
  5
1FE
  8
0
 62
     7
 10
132.43299999999999
 20
109.61
 30
0.0
 11
133.02000000000001
 21
109.611
 31
0.0
  0
LINE
  5
1FF
  8
0
 62
     7
 10
133.02000000000001
 20
109.611
 30
0.0
 11
133.50200000000001
 21
109.613
 31
0.0
  0
ARC
  5
200
  8
0
 62
     7
 10
129.07308800000001
 20
109.78637000000001
 30
0.0
 40
0.058633
 50
181.473376
 51
188.91551999999999
  0
ARC
  5
201
  8
0
 62
     7
 10
129.262191
 20
109.816163
 30
0.0
 40
0.250069
 50
188.94441499999999
 51
190.78723699999989
  0
LINE
  5
202
  8
0
 62
     7
 10
129.017
 20
109.76900000000001
 30
0.0
 11
129.018
 21
109.761
 31
0.0
  0
LINE
  5
203
  8
0
 62
     7
 10
129.018
 20
109.761
 30
0.0
 11
129.02000000000001
 21
109.753
 31
0.0
  0
ARC
  5
204
  8
0
 62
     7
 10
129.08394999999999
 20
109.769237
 30
0.0
 40
0.065618
 50
194.17554599999991
 51
201.12473800000001
  0
ARC
  5
205
  8
0
 62
     7
 10
129.09473
 20
109.76499099999999
 30
0.0
 40
0.074556
 50
195.084157
 51
201.785777
  0
ARC
  5
206
  8
0
 62
     7
 10
129.16927999999999
 20
109.79171599999999
 30
0.0
 40
0.153728
 50
200.722812
 51
203.77527000000001
  0
LINE
  5
207
  8
0
 62
     7
 10
129.029
 20
109.73
 30
0.0
 11
129.03200000000001
 21
109.721
 31
0.0
  0
LINE
  5
208
  8
0
 62
     7
 10
129.03200000000001
 20
109.721
 30
0.0
 11
129.03399999999999
 21
109.718
 31
0.0
  0
LINE
  5
209
  8
0
 62
     7
 10
129.03399999999999
 20
109.718
 30
0.0
 11
129.03700000000001
 21
109.714
 31
0.0
  0
ARC
  5
20A
  8
0
 62
     7
 10
129.06685899999999
 20
109.727982
 30
0.0
 40
0.033448
 50
204.91071299999999
 51
212.310239
  0
ARC
  5
20B
  8
0
 62
     7
 10
128.996331
 20
109.684595
 30
0.0
 40
0.04936
 50
26.104306999999999
 51
31.116606000000001
  0
ARC
  5
20C
  8
0
 62
     7
 10
128.85802899999999
 20
109.575908
 30
0.0
 40
0.224408
 50
34.455159999999999
 51
35.528872
  0
LINE
  5
20D
  8
0
 62
     7
 10
129.04300000000001
 20
109.703
 30
0.0
 11
129.04499999999999
 21
109.699
 31
0.0
  0
ARC
  5
20E
  8
0
 62
     7
 10
129.031938
 20
109.686689
 30
0.0
 40
0.018124
 50
28.329827000000002
 51
41.654206000000002
  0
ARC
  5
20F
  8
0
 62
     7
 10
129.06627800000001
 20
109.70717399999999
 30
0.0
 40
0.021893
 50
212.876981
 51
224.442666
  0
ARC
  5
210
  8
0
 62
     7
 10
129.05834999999999
 20
109.695182
 30
0.0
 40
0.008394
 50
203.423892
 51
233.89575500000001
  0
ARC
  5
211
  8
0
 62
     7
 10
129.07057399999999
 20
109.69799
 30
0.0
 40
0.019667
 50
209.18537699999999
 51
222.86940200000001
  0
LINE
  5
212
  8
0
 62
     7
 10
129.05600000000001
 20
109.685
 30
0.0
 11
129.059
 21
109.682
 31
0.0
  0
ARC
  5
213
  8
0
 62
     7
 10
129.067657
 20
109.68625900000001
 30
0.0
 40
0.009948
 50
208.51612
 51
235.45833500000001
  0
ARC
  5
214
  8
0
 62
     7
 10
129.11608899999999
 20
109.723612
 30
0.0
 40
0.0707
 50
220.108789
 51
223.86566700000009
  0
ARC
  5
215
  8
0
 62
     7
 10
129.046922
 20
109.655125
 30
0.0
 40
0.026666
 50
37.001556000000001
 51
46.97285999999999
  0
LINE
  5
216
  8
0
 62
     7
 10
129.06800000000001
 20
109.67100000000001
 30
0.0
 11
129.071
 21
109.66800000000001
 31
0.0
  0
LINE
  5
217
  8
0
 62
     7
 10
129.071
 20
109.66800000000001
 30
0.0
 11
129.07499999999999
 21
109.66500000000001
 31
0.0
  0
LINE
  5
218
  8
0
 62
     7
 10
129.07499999999999
 20
109.66500000000001
 30
0.0
 11
129.078
 21
109.66200000000001
 31
0.0
  0
LINE
  5
219
  8
0
 62
     7
 10
129.078
 20
109.66200000000001
 30
0.0
 11
129.08099999999999
 21
109.65900000000001
 31
0.0
  0
LINE
  5
21A
  8
0
 62
     7
 10
129.08099999999999
 20
109.65900000000001
 30
0.0
 11
129.08500000000001
 21
109.657
 31
0.0
  0
LINE
  5
21B
  8
0
 62
     7
 10
129.08500000000001
 20
109.657
 30
0.0
 11
129.089
 21
109.654
 31
0.0
  0
LINE
  5
21C
  8
0
 62
     7
 10
129.089
 20
109.654
 30
0.0
 11
129.09200000000001
 21
109.651
 31
0.0
  0
LINE
  5
21D
  8
0
 62
     7
 10
129.09200000000001
 20
109.651
 30
0.0
 11
129.096
 21
109.648
 31
0.0
  0
LINE
  5
21E
  8
0
 62
     7
 10
129.096
 20
109.648
 30
0.0
 11
129.09999999999999
 21
109.646
 31
0.0
  0
LINE
  5
21F
  8
0
 62
     7
 10
129.09999999999999
 20
109.646
 30
0.0
 11
129.10300000000001
 21
109.64400000000001
 31
0.0
  0
LINE
  5
220
  8
0
 62
     7
 10
129.10300000000001
 20
109.64400000000001
 30
0.0
 11
129.107
 21
109.642
 31
0.0
  0
LINE
  5
221
  8
0
 62
     7
 10
129.107
 20
109.642
 30
0.0
 11
129.11099999999999
 21
109.639
 31
0.0
  0
LINE
  5
222
  8
0
 62
     7
 10
129.11099999999999
 20
109.639
 30
0.0
 11
129.11500000000001
 21
109.637
 31
0.0
  0
LINE
  5
223
  8
0
 62
     7
 10
129.11500000000001
 20
109.637
 30
0.0
 11
129.119
 21
109.63500000000001
 31
0.0
  0
LINE
  5
224
  8
0
 62
     7
 10
129.119
 20
109.63500000000001
 30
0.0
 11
129.12299999999999
 21
109.633
 31
0.0
  0
LINE
  5
225
  8
0
 62
     7
 10
129.12299999999999
 20
109.633
 30
0.0
 11
129.12700000000001
 21
109.63200000000001
 31
0.0
  0
LINE
  5
226
  8
0
 62
     7
 10
129.12700000000001
 20
109.63200000000001
 30
0.0
 11
129.131
 21
109.63
 31
0.0
  0
LINE
  5
227
  8
0
 62
     7
 10
129.131
 20
109.63
 30
0.0
 11
129.13499999999999
 21
109.628
 31
0.0
  0
LINE
  5
228
  8
0
 62
     7
 10
129.13499999999999
 20
109.628
 30
0.0
 11
129.143
 21
109.626
 31
0.0
  0
LINE
  5
229
  8
0
 62
     7
 10
129.143
 20
109.626
 30
0.0
 11
129.15100000000001
 21
109.623
 31
0.0
  0
LINE
  5
22A
  8
0
 62
     7
 10
129.15100000000001
 20
109.623
 30
0.0
 11
129.16
 21
109.621
 31
0.0
  0
LINE
  5
22B
  8
0
 62
     7
 10
129.16
 20
109.621
 30
0.0
 11
129.167
 21
109.619
 31
0.0
  0
LINE
  5
22C
  8
0
 62
     7
 10
129.167
 20
109.619
 30
0.0
 11
129.17599999999999
 21
109.61799999999999
 31
0.0
  0
LINE
  5
22D
  8
0
 62
     7
 10
129.17599999999999
 20
109.61799999999999
 30
0.0
 11
129.184
 21
109.617
 31
0.0
  0
LINE
  5
22E
  8
0
 62
     7
 10
129.184
 20
109.617
 30
0.0
 11
129.19200000000001
 21
109.617
 31
0.0
  0
LINE
  5
22F
  8
0
 62
     7
 10
129.19200000000001
 20
109.617
 30
0.0
 11
129.19999999999999
 21
109.616
 31
0.0
  0
LINE
  5
230
  8
0
 62
     7
 10
134.428
 20
109.581
 30
0.0
 11
134.44200000000001
 21
109.58499999999999
 31
0.0
  0
ARC
  5
231
  8
0
 62
     7
 10
134.379707
 20
109.745592
 30
0.0
 40
0.172052
 50
291.07219500000002
 51
295.698262
  0
LINE
  5
232
  8
0
 62
     7
 10
134.45400000000001
 20
109.59099999999999
 30
0.0
 11
134.46600000000001
 21
109.596
 31
0.0
  0
ARC
  5
233
  8
0
 62
     7
 10
134.39158499999999
 20
109.726062
 30
0.0
 40
0.149328
 50
299.74942299999998
 51
305.39870400000001
  0
ARC
  5
234
  8
0
 62
     7
 10
134.374022
 20
109.769025
 30
0.0
 40
0.19481
 50
302.28846800000002
 51
306.5895220000001
  0
LINE
  5
235
  8
0
 62
     7
 10
134.49000000000001
 20
109.613
 30
0.0
 11
134.5
 21
109.621
 31
0.0
  0
ARC
  5
236
  8
0
 62
     7
 10
134.31952000000001
 20
109.81784
 30
0.0
 40
0.267006
 50
312.46602000000001
 51
315.65560799999997
  0
ARC
  5
237
  8
0
 62
     7
 10
134.40642
 20
109.728763
 30
0.0
 40
0.142628
 50
316.84598
 51
321.95143999999999
  0
ARC
  5
238
  8
0
 62
     7
 10
134.38434599999999
 20
109.755083
 30
0.0
 40
0.176377
 50
319.63713300000001
 51
328.62322799999998
  0
ARC
  5
239
  8
0
 62
     7
 10
134.26047700000001
 20
109.817784
 30
0.0
 40
0.314968
 50
330.61784799999998
 51
335.60829000000001
  0
LINE
  5
23A
  8
0
 62
     7
 10
134.547
 20
109.688
 30
0.0
 11
134.55199999999999
 21
109.7
 31
0.0
  0
ARC
  5
23B
  8
0
 62
     7
 10
134.46757500000001
 20
109.73209
 30
0.0
 40
0.090224
 50
339.007834
 51
348.364465
  0
ARC
  5
23C
  8
0
 62
     7
 10
134.37055599999999
 20
109.76159800000001
 30
0.0
 40
0.191428
 50
345.56950499999999
 51
349.372882
  0
ARC
  5
23D
  8
0
 62
     7
 10
134.422268
 20
109.753169
 30
0.0
 40
0.139055
 50
348.85726299999999
 51
354.88253400000002
  0
ARC
  5
23E
  8
0
 62
     7
 10
122.138713
 20
111.030129
 30
0.0
 40
12.488792
 50
354.07412799999997
 51
5.5951839999999988
  0
ARC
  5
23F
  8
0
 62
     7
 10
122.060593
 20
111.028552
 30
0.0
 40
12.498542
 50
354.27018600000002
 51
5.2855359999999996
  0
ARC
  5
240
  8
0
 62
     7
 10
131.752309
 20
118.504203
 30
0.0
 40
9.3159539999999996
 50
253.3056
 51
286.69441999999998
  0
ARC
  5
241
  8
0
 62
     7
 10
131.75248099999999
 20
-72.243527
 30
0.0
 40
184.67920899999999
 50
89.183537000000001
 51
90.816443000000021
  0
ARC
  5
242
  8
0
 62
     7
 10
144.83576099999999
 20
110.704131
 30
0.0
 40
15.973564
 50
174.45440199999999
 51
174.94957700000001
  0
ARC
  5
243
  8
0
 62
     7
 10
159.78477799999999
 20
112.814477
 30
0.0
 40
30.993718999999999
 50
185.46882899999989
 51
185.69151599999989
  0
ARC
  5
244
  8
0
 62
     7
 10
141.43675200000001
 20
111.02913700000001
 30
0.0
 40
12.484439
 50
174.74290500000001
 51
185.719955
  0
LINE
  5
245
  8
0
 62
     7
 10
128.99199999999999
 20
112.11
 30
0.0
 11
34.504899999999999
 21
112.11
 31
0.0
  0
LINE
  5
246
  8
0
 62
     7
 10
129.0
 20
109.861
 30
0.0
 11
34.497
 21
109.861
 31
0.0
  0
LINE
  5
247
  8
0
 62
     7
 10
31.420500000000001
 20
109.277
 30
0.0
 11
31.421500000000002
 21
109.27800000000001
 31
0.0
  0
LINE
  5
248
  8
0
 62
     7
 10
31.421500000000002
 20
109.27800000000001
 30
0.0
 11
31.4239
 21
109.279
 31
0.0
  0
LINE
  5
249
  8
0
 62
     7
 10
31.4239
 20
109.279
 30
0.0
 11
31.428799999999999
 21
109.28
 31
0.0
  0
LINE
  5
24A
  8
0
 62
     7
 10
31.428799999999999
 20
109.28
 30
0.0
 11
31.4346
 21
109.28100000000001
 31
0.0
  0
LINE
  5
24B
  8
0
 62
     7
 10
31.4346
 20
109.28100000000001
 30
0.0
 11
31.446300000000001
 21
109.283
 31
0.0
  0
LINE
  5
24C
  8
0
 62
     7
 10
31.446300000000001
 20
109.283
 30
0.0
 11
31.4605
 21
109.283
 31
0.0
  0
LINE
  5
24D
  8
0
 62
     7
 10
31.4605
 20
109.283
 30
0.0
 11
31.476299999999998
 21
109.285
 31
0.0
  0
LINE
  5
24E
  8
0
 62
     7
 10
31.476299999999998
 20
109.285
 30
0.0
 11
31.489699999999999
 21
109.285
 31
0.0
  0
LINE
  5
24F
  8
0
 62
     7
 10
31.489699999999999
 20
109.285
 30
0.0
 11
31.505600000000001
 21
109.285
 31
0.0
  0
LINE
  5
250
  8
0
 62
     7
 10
31.505600000000001
 20
109.285
 30
0.0
 11
31.523900000000001
 21
109.286
 31
0.0
  0
LINE
  5
251
  8
0
 62
     7
 10
31.523900000000001
 20
109.286
 30
0.0
 11
31.544499999999999
 21
109.28700000000001
 31
0.0
  0
LINE
  5
252
  8
0
 62
     7
 10
31.544499999999999
 20
109.28700000000001
 30
0.0
 11
31.568300000000001
 21
109.28700000000001
 31
0.0
  0
LINE
  5
253
  8
0
 62
     7
 10
31.568300000000001
 20
109.28700000000001
 30
0.0
 11
31.595199999999998
 21
109.28700000000001
 31
0.0
  0
LINE
  5
254
  8
0
 62
     7
 10
31.595199999999998
 20
109.28700000000001
 30
0.0
 11
31.618600000000001
 21
109.288
 31
0.0
  0
LINE
  5
255
  8
0
 62
     7
 10
31.618600000000001
 20
109.288
 30
0.0
 11
31.641999999999999
 21
109.288
 31
0.0
  0
LINE
  5
256
  8
0
 62
     7
 10
31.641999999999999
 20
109.288
 30
0.0
 11
31.6648
 21
109.288
 31
0.0
  0
LINE
  5
257
  8
0
 62
     7
 10
31.6648
 20
109.288
 30
0.0
 11
31.6861
 21
109.288
 31
0.0
  0
LINE
  5
258
  8
0
 62
     7
 10
31.6861
 20
109.288
 30
0.0
 11
31.706099999999999
 21
109.288
 31
0.0
  0
LINE
  5
259
  8
0
 62
     7
 10
31.706099999999999
 20
109.288
 30
0.0
 11
31.724
 21
109.288
 31
0.0
  0
LINE
  5
25A
  8
0
 62
     7
 10
31.724
 20
109.288
 30
0.0
 11
31.7392
 21
109.288
 31
0.0
  0
LINE
  5
25B
  8
0
 62
     7
 10
31.7392
 20
109.288
 30
0.0
 11
31.7516
 21
109.288
 31
0.0
  0
LINE
  5
25C
  8
0
 62
     7
 10
31.7516
 20
109.288
 30
0.0
 11
31.7895
 21
109.288
 31
0.0
  0
LINE
  5
25D
  8
0
 62
     7
 10
31.7895
 20
109.288
 30
0.0
 11
31.8291
 21
109.288
 31
0.0
  0
LINE
  5
25E
  8
0
 62
     7
 10
31.8291
 20
109.288
 30
0.0
 11
31.8691
 21
109.288
 31
0.0
  0
LINE
  5
25F
  8
0
 62
     7
 10
31.8691
 20
109.288
 30
0.0
 11
31.908300000000001
 21
109.28700000000001
 31
0.0
  0
LINE
  5
260
  8
0
 62
     7
 10
31.908300000000001
 20
109.28700000000001
 30
0.0
 11
31.935199999999998
 21
109.28700000000001
 31
0.0
  0
LINE
  5
261
  8
0
 62
     7
 10
31.935199999999998
 20
109.28700000000001
 30
0.0
 11
31.959
 21
109.28700000000001
 31
0.0
  0
LINE
  5
262
  8
0
 62
     7
 10
31.959
 20
109.28700000000001
 30
0.0
 11
31.979600000000001
 21
109.286
 31
0.0
  0
LINE
  5
263
  8
0
 62
     7
 10
31.979600000000001
 20
109.286
 30
0.0
 11
31.997900000000001
 21
109.285
 31
0.0
  0
LINE
  5
264
  8
0
 62
     7
 10
31.997900000000001
 20
109.285
 30
0.0
 11
32.013800000000003
 21
109.285
 31
0.0
  0
LINE
  5
265
  8
0
 62
     7
 10
32.013800000000003
 20
109.285
 30
0.0
 11
32.027200000000001
 21
109.285
 31
0.0
  0
LINE
  5
266
  8
0
 62
     7
 10
32.027200000000001
 20
109.285
 30
0.0
 11
32.042999999999999
 21
109.283
 31
0.0
  0
LINE
  5
267
  8
0
 62
     7
 10
32.042999999999999
 20
109.283
 30
0.0
 11
32.057200000000002
 21
109.283
 31
0.0
  0
LINE
  5
268
  8
0
 62
     7
 10
32.057200000000002
 20
109.283
 30
0.0
 11
32.068899999999999
 21
109.28100000000001
 31
0.0
  0
LINE
  5
269
  8
0
 62
     7
 10
32.068899999999999
 20
109.28100000000001
 30
0.0
 11
32.0747
 21
109.28
 31
0.0
  0
LINE
  5
26A
  8
0
 62
     7
 10
32.0747
 20
109.28
 30
0.0
 11
32.079599999999999
 21
109.279
 31
0.0
  0
LINE
  5
26B
  8
0
 62
     7
 10
32.079599999999999
 20
109.279
 30
0.0
 11
32.082000000000001
 21
109.27800000000001
 31
0.0
  0
LINE
  5
26C
  8
0
 62
     7
 10
32.082000000000001
 20
109.27800000000001
 30
0.0
 11
32.082999999999998
 21
109.277
 31
0.0
  0
LINE
  5
26D
  8
0
 62
     7
 10
32.082999999999998
 20
109.277
 30
0.0
 11
32.081299999999999
 21
109.27500000000001
 31
0.0
  0
ARC
  5
26E
  8
0
 62
     7
 10
32.076135000000001
 20
109.283851
 30
0.0
 40
0.010249
 50
271.7797930000001
 51
300.11101500000001
  0
ARC
  5
26F
  8
0
 62
     7
 10
32.060867999999999
 20
109.32329
 30
0.0
 40
0.05207
 50
283.09346499999998
 51
287.41678899999999
  0
ARC
  5
270
  8
0
 62
     7
 10
32.063653000000002
 20
109.307515
 30
0.0
 40
0.036085
 50
274.46488699999998
 51
284.45977499999998
  0
ARC
  5
271
  8
0
 62
     7
 10
32.055790000000002
 20
109.310641
 30
0.0
 40
0.040531
 50
272.91329300000012
 51
285.26727899999997
  0
ARC
  5
272
  8
0
 62
     7
 10
32.026477
 20
109.44889999999999
 30
0.0
 40
0.18147
 50
274.90762599999999
 51
279.95520800000003
  0
ARC
  5
273
  8
0
 62
     7
 10
32.007261
 20
109.502308
 30
0.0
 40
0.236776
 50
274.82777700000003
 51
278.43727100000001
  0
LINE
  5
274
  8
0
 62
     7
 10
32.027200000000001
 20
109.26600000000001
 30
0.0
 11
32.016500000000001
 21
109.265
 31
0.0
  0
LINE
  5
275
  8
0
 62
     7
 10
32.016500000000001
 20
109.265
 30
0.0
 11
32.002699999999997
 21
109.264
 31
0.0
  0
ARC
  5
276
  8
0
 62
     7
 10
32.005265999999999
 20
109.090543
 30
0.0
 40
0.173436
 50
90.838476000000014
 51
96.314172000000013
  0
LINE
  5
277
  8
0
 62
     7
 10
31.9862
 20
109.26300000000001
 30
0.0
 11
31.972100000000001
 21
109.262
 31
0.0
  0
LINE
  5
278
  8
0
 62
     7
 10
31.972100000000001
 20
109.262
 30
0.0
 11
31.955500000000001
 21
109.261
 31
0.0
  0
LINE
  5
279
  8
0
 62
     7
 10
31.955500000000001
 20
109.261
 30
0.0
 11
31.9359
 21
109.26000000000001
 31
0.0
  0
LINE
  5
27A
  8
0
 62
     7
 10
31.9359
 20
109.26000000000001
 30
0.0
 11
31.914899999999999
 21
109.259
 31
0.0
  0
ARC
  5
27B
  8
0
 62
     7
 10
31.899947999999998
 20
109.40672000000001
 30
0.0
 40
0.148335
 50
268.31442099999998
 51
275.77641499999999
  0
ARC
  5
27C
  8
0
 62
     7
 10
31.88259
 20
109.369685
 30
0.0
 40
0.111993
 50
268.011414
 51
276.66321699999997
  0
ARC
  5
27D
  8
0
 62
     7
 10
31.779258000000009
 20
112.33686
 30
0.0
 40
3.0807060000000002
 50
270.69622900000002
 51
271.849851
  0
ARC
  5
27E
  8
0
 62
     7
 10
31.768039000000002
 20
110.78522100000001
 30
0.0
 40
1.529612999999999
 50
269.396323
 51
271.82270999999997
  0
ARC
  5
27F
  8
0
 62
     7
 10
31.750375999999999
 20
112.218309
 30
0.0
 40
2.9626169999999989
 50
268.763913
 51
270.02992399999999
  0
ARC
  5
280
  8
0
 62
     7
 10
31.689722
 20
110.78257600000001
 30
0.0
 40
1.5261979999999991
 50
267.5619549999999
 51
269.87778600000001
  0
LINE
  5
281
  8
0
 62
     7
 10
31.6248
 20
109.258
 30
0.0
 11
31.595500000000001
 21
109.258
 31
0.0
  0
ARC
  5
282
  8
0
 62
     7
 10
31.553563
 20
108.69216299999999
 30
0.0
 40
0.5678380000000001
 50
85.763154999999983
 51
88.582575999999989
  0
ARC
  5
283
  8
0
 62
     7
 10
31.527667000000001
 20
108.75035099999999
 30
0.0
 40
0.5110390000000001
 50
85.517246
 51
88.457160000000016
  0
ARC
  5
284
  8
0
 62
     7
 10
31.480011999999999
 20
108.571079
 30
0.0
 40
0.6928530000000001
 50
84.914648999999997
 51
86.914099000000007
  0
ARC
  5
285
  8
0
 62
     7
 10
31.531379000000001
 20
109.497913
 30
0.0
 40
0.235407
 50
263.62798400000003
 51
266.57385299999999
  0
ARC
  5
286
  8
0
 62
     7
 10
31.507386
 20
109.39015000000001
 30
0.0
 40
0.126207
 50
262.59858000000003
 51
269.03160800000001
  0
ARC
  5
287
  8
0
 62
     7
 10
31.527512999999999
 20
109.736453
 30
0.0
 40
0.472861
 50
263.78405800000007
 51
265.58687099999997
  0
ARC
  5
288
  8
0
 62
     7
 10
31.490819999999999
 20
109.485867
 30
0.0
 40
0.219973
 50
261.88736299999999
 51
266.218932
  0
LINE
  5
289
  8
0
 62
     7
 10
31.459800000000001
 20
109.268
 30
0.0
 11
31.445699999999999
 21
109.27
 31
0.0
  0
ARC
  5
28A
  8
0
 62
     7
 10
31.447220000000002
 20
109.318431
 30
0.0
 40
0.048294
 50
256.153142
 51
268.14025299999997
  0
ARC
  5
28B
  8
0
 62
     7
 10
31.357490000000009
 20
108.953239
 30
0.0
 40
0.32776
 50
76.20185699999999
 51
77.808892
  0
ARC
  5
28C
  8
0
 62
     7
 10
31.428180999999999
 20
109.286374
 30
0.0
 40
0.012851
 50
242.39283900000001
 51
263.401726
  0
LINE
  5
28D
  8
0
 62
     7
 10
31.4222
 20
109.27500000000001
 30
0.0
 11
31.420500000000001
 21
109.277
 31
0.0
  0
LINE
  5
28E
  8
0
 62
     7
 10
34.5015
 20
109.821
 30
0.0
 11
34.5015
 21
109.819
 31
0.0
  0
LINE
  5
28F
  8
0
 62
     7
 10
34.5015
 20
109.819
 30
0.0
 11
34.5015
 21
109.81699999999999
 31
0.0
  0
LINE
  5
290
  8
0
 62
     7
 10
34.5015
 20
109.81699999999999
 30
0.0
 11
34.5015
 21
109.815
 31
0.0
  0
LINE
  5
291
  8
0
 62
     7
 10
34.5015
 20
109.815
 30
0.0
 11
34.501100000000001
 21
109.813
 31
0.0
  0
LINE
  5
292
  8
0
 62
     7
 10
34.501100000000001
 20
109.813
 30
0.0
 11
34.501100000000001
 21
109.81100000000001
 31
0.0
  0
LINE
  5
293
  8
0
 62
     7
 10
34.501100000000001
 20
109.81100000000001
 30
0.0
 11
34.501100000000001
 21
109.81
 31
0.0
  0
LINE
  5
294
  8
0
 62
     7
 10
34.501100000000001
 20
109.81
 30
0.0
 11
34.501100000000001
 21
109.809
 31
0.0
  0
LINE
  5
295
  8
0
 62
     7
 10
34.501100000000001
 20
109.809
 30
0.0
 11
34.501100000000001
 21
109.80800000000001
 31
0.0
  0
LINE
  5
296
  8
0
 62
     7
 10
34.501100000000001
 20
109.80800000000001
 30
0.0
 11
34.501100000000001
 21
109.807
 31
0.0
  0
LINE
  5
297
  8
0
 62
     7
 10
34.501100000000001
 20
109.807
 30
0.0
 11
34.501100000000001
 21
109.806
 31
0.0
  0
LINE
  5
29A
  8
0
 62
     7
 10
34.501100000000001
 20
109.806
 30
0.0
 11
34.501100000000001
 21
109.80500000000001
 31
0.0
  0
ARC
  5
29C
  8
0
 62
     7
 10
29.186561999999999
 20
109.64447699999999
 30
0.0
 40
0.03258
 50
258.01896699999998
 51
272.04157300000003
  0
ARC
  5
29D
  8
0
 62
     7
 10
29.178588999999999
 20
109.64133099999999
 30
0.0
 40
0.028749
 50
257.19952499999999
 51
272.41163799999998
  0
LINE
  5
29E
  8
0
 62
     7
 10
29.1722
 20
109.613
 30
0.0
 11
29.164300000000001
 21
109.614
 31
0.0
  0
ARC
  5
29F
  8
0
 62
     7
 10
29.140988
 20
109.525856
 30
0.0
 40
0.091159
 50
75.186068999999989
 51
80.284366000000006
  0
ARC
  5
2A0
  8
0
 62
     7
 10
29.165866999999999
 20
109.681988
 30
0.0
 40
0.066957
 50
254.615759
 51
261.84768600000001
  0
LINE
  5
2A1
  8
0
 62
     7
 10
29.148099999999999
 20
109.617
 30
0.0
 11
29.1402
 21
109.619
 31
0.0
  0
ARC
  5
2A2
  8
0
 62
     7
 10
29.110011
 20
109.545531
 30
0.0
 40
0.079882
 50
67.810912999999985
 51
73.831055000000006
  0
ARC
  5
2A3
  8
0
 62
     7
 10
29.169858000000001
 20
109.743128
 30
0.0
 40
0.126588
 50
248.92207099999999
 51
252.71993699999999
  0
ARC
  5
2A4
  8
0
 62
     7
 10
29.136835000000001
 20
109.652438
 30
0.0
 40
0.030143
 50
237.28349499999999
 51
245.49561200000011
  0
ARC
  5
2A5
  8
0
 62
     7
 10
29.123587000000001
 20
109.6431
 30
0.0
 40
0.01631
 50
243.88783699999999
 51
259.24229000000003
  0
ARC
  5
2A6
  8
0
 62
     7
 10
29.128910999999999
 20
109.655883
 30
0.0
 40
0.030143
 50
237.28349499999999
 51
245.49561200000011
  0
ARC
  5
2A7
  8
0
 62
     7
 10
29.125121000000011
 20
109.65795
 30
0.0
 40
0.030143
 50
237.28349499999999
 51
245.49561200000011
  0
ARC
  5
2A8
  8
0
 62
     7
 10
29.117298000000002
 20
109.658737
 30
0.0
 40
0.027485
 50
242.70686699999999
 51
252.053428
  0
LINE
  5
2A9
  8
0
 62
     7
 10
29.104700000000001
 20
109.634
 30
0.0
 11
29.101299999999998
 21
109.636
 31
0.0
  0
ARC
  5
2AA
  8
0
 62
     7
 10
29.022114999999999
 20
109.51620699999999
 30
0.0
 40
0.143887
 50
56.634431000000014
 51
58.423170999999989
  0
ARC
  5
2AB
  8
0
 62
     7
 10
29.109963
 20
109.666218
 30
0.0
 40
0.030143
 50
237.28349499999999
 51
245.49561200000011
  0
ARC
  5
2AC
  8
0
 62
     7
 10
29.105308999999998
 20
109.663329
 30
0.0
 40
0.025307
 50
232.43719200000001
 51
242.62045000000001
  0
ARC
  5
2AD
  8
0
 62
     7
 10
29.062932
 20
109.608436
 30
0.0
 40
0.044041
 50
52.271445
 51
57.744502000000011
  0
ARC
  5
2AE
  8
0
 62
     7
 10
29.113350000000001
 20
109.68667000000001
 30
0.0
 40
0.049036
 50
231.23401799999999
 51
236.711263
  0
ARC
  5
2AF
  8
0
 62
     7
 10
29.093131
 20
109.66507300000001
 30
0.0
 40
0.019665
 50
224.899441
 51
237.78097099999999
  0
ARC
  5
2B0
  8
0
 62
     7
 10
29.089686
 20
109.667829
 30
0.0
 40
0.019665
 50
224.899441
 51
237.78097099999999
  0
ARC
  5
2B1
  8
0
 62
     7
 10
29.086241000000001
 20
109.670585
 30
0.0
 40
0.019665
 50
224.899441
 51
237.78097099999999
  0
ARC
  5
2B2
  8
0
 62
     7
 10
29.090492000000001
 20
109.68028
 30
0.0
 40
0.029772
 50
224.37140099999999
 51
232.36154900000011
  0
LINE
  5
2B3
  8
0
 62
     7
 10
29.069199999999999
 20
109.65900000000001
 30
0.0
 11
29.065799999999999
 21
109.66200000000001
 31
0.0
  0
LINE
  5
2B4
  8
0
 62
     7
 10
29.065799999999999
 20
109.66200000000001
 30
0.0
 11
29.0627
 21
109.666
 31
0.0
  0
LINE
  5
2B5
  8
0
 62
     7
 10
29.0627
 20
109.666
 30
0.0
 11
29.0596
 21
109.66800000000001
 31
0.0
  0
LINE
  5
2B6
  8
0
 62
     7
 10
29.0596
 20
109.66800000000001
 30
0.0
 11
29.0565
 21
109.672
 31
0.0
  0
ARC
  5
2B7
  8
0
 62
     7
 10
29.065953000000011
 20
109.683074
 30
0.0
 40
0.014688
 50
213.51499100000001
 51
229.752118
  0
ARC
  5
2B8
  8
0
 62
     7
 10
29.041342
 20
109.66569800000001
 30
0.0
 40
0.015452
 50
36.842798999999999
 51
53.157190999999997
  0
ARC
  5
2B9
  8
0
 62
     7
 10
29.036370000000002
 20
109.6695
 30
0.0
 40
0.016614
 50
31.029895
 51
46.289712999999992
  0
ARC
  5
2BA
  8
0
 62
     7
 10
29.033614
 20
109.672945
 30
0.0
 40
0.016614
 50
31.029895
 51
46.289712999999992
  0
ARC
  5
2BB
  8
0
 62
     7
 10
28.941462999999999
 20
109.61497900000001
 30
0.0
 40
0.125045
 50
34.028530000000003
 51
35.955503
  0
ARC
  5
2BC
  8
0
 62
     7
 10
29.033667999999999
 20
109.68401299999999
 30
0.0
 40
0.010026
 50
25.948969000000002
 51
51.370639000000011
  0
ARC
  5
2BD
  8
0
 62
     7
 10
29.019241000000001
 20
109.682548
 30
0.0
 40
0.022679
 50
24.199490000000011
 51
36.313378
  0
ARC
  5
2BE
  8
0
 62
     7
 10
28.950849000000002
 20
109.637879
 30
0.0
 40
0.104339
 50
33.837311
 51
36.146720999999999
  0
ARC
  5
2BF
  8
0
 62
     7
 10
29.004232999999999
 20
109.683244
 30
0.0
 40
0.034854
 50
27.659676000000001
 51
34.267829999999996
  0
LINE
  5
2C0
  8
0
 62
     7
 10
29.033000000000001
 20
109.703
 30
0.0
 11
29.030999999999999
 21
109.70699999999999
 31
0.0
  0
ARC
  5
2C1
  8
0
 62
     7
 10
29.052420999999999
 20
109.722217
 30
0.0
 40
0.026299
 50
206.582956
 51
215.34459000000001
  0
LINE
  5
2C2
  8
0
 62
     7
 10
29.0289
 20
109.70999999999999
 30
0.0
 11
29.026800000000001
 21
109.715
 31
0.0
  0
ARC
  5
2C3
  8
0
 62
     7
 10
29.048286999999998
 20
109.72979599999999
 30
0.0
 40
0.026299
 50
206.582956
 51
215.34459000000001
  0
ARC
  5
2C4
  8
0
 62
     7
 10
28.910340000000001
 20
109.670587
 30
0.0
 40
0.123873
 50
22.518163999999999
 51
26.36974
  0
LINE
  5
2C5
  8
0
 62
     7
 10
29.0213
 20
109.726
 30
0.0
 11
29.0182
 21
109.73399999999999
 31
0.0
  0
ARC
  5
2C6
  8
0
 62
     7
 10
29.095521000000002
 20
109.766274
 30
0.0
 40
0.083814
 50
197.22547599999999
 51
202.74077199999999
  0
LINE
  5
2C7
  8
0
 62
     7
 10
29.015499999999999
 20
109.741
 30
0.0
 11
29.013100000000001
 21
109.749
 31
0.0
  0
ARC
  5
2C8
  8
0
 62
     7
 10
29.065584000000001
 20
109.76494700000001
 30
0.0
 40
0.054788
 50
188.0208979999999
 51
196.50868600000001
  0
ARC
  5
2C9
  8
0
 62
     7
 10
29.060490000000001
 20
109.772459
 30
0.0
 40
0.051441
 50
188.471566
 51
197.13700299999999
  0
ARC
  5
2CA
  8
0
 62
     7
 10
29.082267999999999
 20
109.781599
 30
0.0
 40
0.074556
 50
186.77395000000001
 51
192.95770099999999
  0
ARC
  5
2CB
  8
0
 62
     7
 10
29.455085
 20
109.83511900000001
 30
0.0
 40
0.451178
 50
186.92403200000001
 51
187.93882199999999
  0
LINE
  5
2CC
  8
0
 62
     7
 10
30.0015
 20
109.613
 30
0.0
 11
29.846399999999999
 21
109.613
 31
0.0
  0
LINE
  5
2CD
  8
0
 62
     7
 10
29.846399999999999
 20
109.613
 30
0.0
 11
29.692799999999998
 21
109.613
 31
0.0
  0
LINE
  5
2CE
  8
0
 62
     7
 10
29.692799999999998
 20
109.613
 30
0.0
 11
29.603899999999999
 21
109.613
 31
0.0
  0
LINE
  5
2CF
  8
0
 62
     7
 10
29.603899999999999
 20
109.613
 30
0.0
 11
29.516400000000001
 21
109.61199999999999
 31
0.0
  0
ARC
  5
2D0
  8
0
 62
     7
 10
29.454595999999999
 20
114.29365799999999
 30
0.0
 40
4.6818029999999986
 50
269.70216499999998
 51
270.75621899999999
  0
LINE
  5
2D1
  8
0
 62
     7
 10
29.430299999999999
 20
109.61199999999999
 30
0.0
 11
29.3948
 21
109.61199999999999
 31
0.0
  0
LINE
  5
2D2
  8
0
 62
     7
 10
29.3948
 20
109.61199999999999
 30
0.0
 11
29.361000000000001
 21
109.61199999999999
 31
0.0
  0
LINE
  5
2D3
  8
0
 62
     7
 10
29.361000000000001
 20
109.61199999999999
 30
0.0
 11
29.329000000000001
 21
109.61199999999999
 31
0.0
  0
LINE
  5
2D4
  8
0
 62
     7
 10
29.329000000000001
 20
109.61199999999999
 30
0.0
 11
29.306899999999999
 21
109.61199999999999
 31
0.0
  0
ARC
  5
2D5
  8
0
 62
     7
 10
29.305223000000002
 20
110.092921
 30
0.0
 40
0.481006
 50
267.821912
 51
270.20258699999999
  0
LINE
  5
2D6
  8
0
 62
     7
 10
29.286899999999999
 20
109.61199999999999
 30
0.0
 11
29.268999999999998
 21
109.61199999999999
 31
0.0
  0
LINE
  5
2D7
  8
0
 62
     7
 10
29.268999999999998
 20
109.61199999999999
 30
0.0
 11
29.2532
 21
109.61199999999999
 31
0.0
  0
LINE
  5
2D8
  8
0
 62
     7
 10
29.2532
 20
109.61199999999999
 30
0.0
 11
29.238399999999999
 21
109.613
 31
0.0
  0
LINE
  5
2D9
  8
0
 62
     7
 10
29.238399999999999
 20
109.613
 30
0.0
 11
29.225300000000001
 21
109.613
 31
0.0
  0
LINE
  5
2DA
  8
0
 62
     7
 10
29.225300000000001
 20
109.613
 30
0.0
 11
29.214200000000002
 21
109.613
 31
0.0
  0
LINE
  5
2DB
  8
0
 62
     7
 10
29.214200000000002
 20
109.613
 30
0.0
 11
29.205300000000001
 21
109.613
 31
0.0
  0
LINE
  5
2DC
  8
0
 62
     7
 10
29.205300000000001
 20
109.613
 30
0.0
 11
29.1981
 21
109.613
 31
0.0
  0
ARC
  5
2DD
  8
0
 62
     7
 10
29.193393
 20
109.642972
 30
0.0
 40
0.030722
 50
268.41923400000002
 51
278.73345399999999
  0
LINE
  5
2DE
  8
0
 62
     7
 10
29.192499999999999
 20
109.61199999999999
 30
0.0
 11
29.1891
 21
109.61199999999999
 31
0.0
  0
LINE
  5
2DF
  8
0
 62
     7
 10
29.1891
 20
109.61199999999999
 30
0.0
 11
29.1877
 21
109.61199999999999
 31
0.0
  0
LINE
  5
2E0
  8
0
 62
     7
 10
34.279299999999999
 20
109.616
 30
0.0
 11
34.280000000000001
 21
109.616
 31
0.0
  0
LINE
  5
2E1
  8
0
 62
     7
 10
34.280000000000001
 20
109.616
 30
0.0
 11
34.280999999999999
 21
109.616
 31
0.0
  0
LINE
  5
2E2
  8
0
 62
     7
 10
34.280999999999999
 20
109.616
 30
0.0
 11
34.281700000000001
 21
109.616
 31
0.0
  0
LINE
  5
2E3
  8
0
 62
     7
 10
34.281700000000001
 20
109.616
 30
0.0
 11
34.282699999999998
 21
109.616
 31
0.0
  0
LINE
  5
2E4
  8
0
 62
     7
 10
34.282699999999998
 20
109.616
 30
0.0
 11
34.28370000000001
 21
109.616
 31
0.0
  0
LINE
  5
2E5
  8
0
 62
     7
 10
34.28370000000001
 20
109.616
 30
0.0
 11
34.284799999999997
 21
109.616
 31
0.0
  0
LINE
  5
2E6
  8
0
 62
     7
 10
34.284799999999997
 20
109.616
 30
0.0
 11
34.285800000000002
 21
109.616
 31
0.0
  0
LINE
  5
2E7
  8
0
 62
     7
 10
34.285800000000002
 20
109.616
 30
0.0
 11
34.287500000000001
 21
109.616
 31
0.0
  0
LINE
  5
2E8
  8
0
 62
     7
 10
34.287500000000001
 20
109.616
 30
0.0
 11
34.288899999999998
 21
109.616
 31
0.0
  0
LINE
  5
2E9
  8
0
 62
     7
 10
34.288899999999998
 20
109.616
 30
0.0
 11
34.290300000000002
 21
109.616
 31
0.0
  0
LINE
  5
2EA
  8
0
 62
     7
 10
34.290300000000002
 20
109.616
 30
0.0
 11
34.291699999999999
 21
109.616
 31
0.0
  0
LINE
  5
2EB
  8
0
 62
     7
 10
34.291699999999999
 20
109.616
 30
0.0
 11
34.292999999999999
 21
109.616
 31
0.0
  0
LINE
  5
2EC
  8
0
 62
     7
 10
34.292999999999999
 20
109.616
 30
0.0
 11
34.2941
 21
109.616
 31
0.0
  0
LINE
  5
2ED
  8
0
 62
     7
 10
34.2941
 20
109.616
 30
0.0
 11
34.295099999999998
 21
109.616
 31
0.0
  0
LINE
  5
2EE
  8
0
 62
     7
 10
34.295099999999998
 20
109.616
 30
0.0
 11
34.2958
 21
109.616
 31
0.0
  0
LINE
  5
2EF
  8
0
 62
     7
 10
34.2958
 20
109.616
 30
0.0
 11
34.296500000000002
 21
109.616
 31
0.0
  0
LINE
  5
2F0
  8
0
 62
     7
 10
34.296500000000002
 20
109.616
 30
0.0
 11
34.296799999999998
 21
109.616
 31
0.0
  0
LINE
  5
2F1
  8
0
 62
     7
 10
34.296799999999998
 20
109.616
 30
0.0
 11
34.298200000000001
 21
109.616
 31
0.0
  0
LINE
  5
2F2
  8
0
 62
     7
 10
34.298200000000001
 20
109.616
 30
0.0
 11
34.298900000000003
 21
109.616
 31
0.0
  0
LINE
  5
2F3
  8
0
 62
     7
 10
34.298900000000003
 20
109.616
 30
0.0
 11
34.299900000000001
 21
109.616
 31
0.0
  0
LINE
  5
2F4
  8
0
 62
     7
 10
34.299900000000001
 20
109.616
 30
0.0
 11
34.300600000000003
 21
109.616
 31
0.0
  0
LINE
  5
2F5
  8
0
 62
     7
 10
34.300600000000003
 20
109.616
 30
0.0
 11
34.301299999999998
 21
109.616
 31
0.0
  0
LINE
  5
2F6
  8
0
 62
     7
 10
34.301299999999998
 20
109.616
 30
0.0
 11
34.301699999999997
 21
109.616
 31
0.0
  0
LINE
  5
2F7
  8
0
 62
     7
 10
34.301699999999997
 20
109.616
 30
0.0
 11
34.302
 21
109.616
 31
0.0
  0
LINE
  5
2F8
  8
0
 62
     7
 10
34.302
 20
109.616
 30
0.0
 11
34.302300000000002
 21
109.616
 31
0.0
  0
LINE
  5
2F9
  8
0
 62
     7
 10
34.302300000000002
 20
109.616
 30
0.0
 11
34.303000000000011
 21
109.616
 31
0.0
  0
LINE
  5
2FA
  8
0
 62
     7
 10
34.303000000000011
 20
109.616
 30
0.0
 11
34.303400000000011
 21
109.616
 31
0.0
  0
LINE
  5
2FB
  8
0
 62
     7
 10
34.303400000000011
 20
109.616
 30
0.0
 11
34.303699999999999
 21
109.616
 31
0.0
  0
LINE
  5
2FC
  8
0
 62
     7
 10
34.303699999999999
 20
109.616
 30
0.0
 11
34.304099999999998
 21
109.616
 31
0.0
  0
LINE
  5
2FD
  8
0
 62
     7
 10
34.304099999999998
 20
109.616
 30
0.0
 11
34.304400000000001
 21
109.616
 31
0.0
  0
ARC
  5
2FE
  8
0
 62
     7
 10
32.324331999999998
 20
459.70235400000001
 30
0.0
 40
350.09141600000009
 50
270.23904399999998
 51
270.319954
  0
LINE
  5
2FF
  8
0
 62
     7
 10
33.7849
 20
109.614
 30
0.0
 11
33.209899999999998
 21
109.61199999999999
 31
0.0
  0
LINE
  5
300
  8
0
 62
     7
 10
33.209899999999998
 20
109.61199999999999
 30
0.0
 11
32.675899999999999
 21
109.611
 31
0.0
  0
ARC
  5
301
  8
0
 62
     7
 10
32.142586999999999
 20
316.005247
 30
0.0
 40
206.39539600000001
 50
269.999439
 51
270.14805999999999
  0
ARC
  5
302
  8
0
 62
     7
 10
31.616358000000002
 20
505.44112799999999
 30
0.0
 40
395.83162499999997
 50
269.92413699999997
 51
270.07588299999998
  0
LINE
  5
303
  8
0
 62
     7
 10
31.092199999999998
 20
109.61
 30
0.0
 11
30.0015
 21
109.613
 31
0.0
  0
ARC
  5
304
  8
0
 62
     7
 10
35.001418000000001
 20
109.711231
 30
0.0
 40
0.5169310000000001
 50
171.81088799999989
 51
172.65874199999999
  0
ARC
  5
305
  8
0
 62
     7
 10
34.431299000000003
 20
109.78318899999999
 30
0.0
 40
0.057728
 50
346.13973099999998
 51
354.12865799999997
  0
LINE
  5
306
  8
0
 62
     7
 10
34.487299999999998
 20
109.76900000000001
 30
0.0
 11
34.485999999999997
 21
109.761
 31
0.0
  0
LINE
  5
307
  8
0
 62
     7
 10
34.485999999999997
 20
109.761
 30
0.0
 11
34.483899999999998
 21
109.753
 31
0.0
  0
LINE
  5
308
  8
0
 62
     7
 10
34.483899999999998
 20
109.753
 30
0.0
 11
34.481499999999997
 21
109.746
 31
0.0
  0
LINE
  5
309
  8
0
 62
     7
 10
34.481499999999997
 20
109.746
 30
0.0
 11
34.478400000000001
 21
109.73699999999999
 31
0.0
  0
ARC
  5
30A
  8
0
 62
     7
 10
34.435434999999998
 20
109.750468
 30
0.0
 40
0.044921
 50
332.52131300000002
 51
342.98064399999998
  0
LINE
  5
30B
  8
0
 62
     7
 10
34.475299999999997
 20
109.73
 30
0.0
 11
34.471800000000002
 21
109.721
 31
0.0
  0
LINE
  5
30C
  8
0
 62
     7
 10
34.471800000000002
 20
109.721
 30
0.0
 11
34.469799999999999
 21
109.718
 31
0.0
  0
LINE
  5
30D
  8
0
 62
     7
 10
34.469799999999999
 20
109.718
 30
0.0
 11
34.467700000000001
 21
109.714
 31
0.0
  0
ARC
  5
30E
  8
0
 62
     7
 10
34.440215000000002
 20
109.726432
 30
0.0
 40
0.030218
 50
327.29365100000001
 51
335.48543599999999
  0
ARC
  5
30F
  8
0
 62
     7
 10
34.43396400000001
 20
109.7276
 30
0.0
 40
0.036188
 50
323.97060699999997
 51
331.08701500000001
  0
ARC
  5
310
  8
0
 62
     7
 10
34.432359000000012
 20
109.722494
 30
0.0
 40
0.034854
 50
325.73217
 51
332.34032400000001
  0
ARC
  5
311
  8
0
 62
     7
 10
34.486654999999999
 20
109.68522900000001
 30
0.0
 40
0.031
 50
145.31612100000001
 51
154.17097200000001
  0
ARC
  5
312
  8
0
 62
     7
 10
34.495496000000003
 20
109.66651400000001
 30
0.0
 40
0.04887
 50
138.75303600000001
 51
143.92731699999999
  0
ARC
  5
313
  8
0
 62
     7
 10
34.352364000000001
 20
109.765265
 30
0.0
 40
0.125045
 50
324.04449699999998
 51
325.97147000000012
  0
ARC
  5
314
  8
0
 62
     7
 10
34.430560999999997
 20
109.707438
 30
0.0
 40
0.027807
 50
316.79011800000001
 51
325.89027399999998
  0
ARC
  5
315
  8
0
 62
     7
 10
34.527833000000001
 20
109.629499
 30
0.0
 40
0.096948
 50
142.587817
 51
145.357404
  0
ARC
  5
316
  8
0
 62
     7
 10
34.43570600000001
 20
109.69387500000001
 30
0.0
 40
0.015452
 50
306.84280899999999
 51
323.15720099999999
  0
ARC
  5
317
  8
0
 62
     7
 10
34.435957000000002
 20
109.685896
 30
0.0
 40
0.010026
 50
308.62936100000002
 51
334.05103100000002
  0
ARC
  5
318
  8
0
 62
     7
 10
34.414293999999998
 20
109.700076
 30
0.0
 40
0.035555
 50
314.275576
 51
321.75000799999998
  0
ARC
  5
319
  8
0
 62
     7
 10
34.459685
 20
109.65298799999999
 30
0.0
 40
0.02985
 50
133.55999700000001
 51
142.46554699999999
  0
LINE
  5
31A
  8
0
 62
     7
 10
34.436
 20
109.67100000000001
 30
0.0
 11
34.432899999999997
 21
109.66800000000001
 31
0.0
  0
ARC
  5
31B
  8
0
 62
     7
 10
34.446978999999999
 20
109.650907
 30
0.0
 40
0.02246
 50
128.77327500000001
 51
141.22669500000001
  0
ARC
  5
31C
  8
0
 62
     7
 10
34.280399000000003
 20
109.847779
 30
0.0
 40
0.235881
 50
308.12397800000002
 51
309.19565
  0
ARC
  5
31D
  8
0
 62
     7
 10
34.417158000000001
 20
109.66976699999999
 30
0.0
 40
0.011645
 50
297.74026500000002
 51
319.579363
  0
ARC
  5
31E
  8
0
 62
     7
 10
34.414912000000001
 20
109.66551200000001
 30
0.0
 40
0.009767
 50
295.60598900000002
 51
321.713639
  0
ARC
  5
31F
  8
0
 62
     7
 10
34.407179999999997
 20
109.668115
 30
0.0
 40
0.016525
 50
300.98829799999999
 51
316.33132999999998
  0
ARC
  5
320
  8
0
 62
     7
 10
34.403434999999988
 20
109.666813
 30
0.0
 40
0.017767
 50
298.44955199999998
 51
313.60520600000001
  0
ARC
  5
321
  8
0
 62
     7
 10
34.424275000000002
 20
109.63218999999999
 30
0.0
 40
0.022677
 50
123.077519
 51
134.24206899999999
  0
ARC
  5
322
  8
0
 62
     7
 10
34.420955999999997
 20
109.621008
 30
0.0
 40
0.030143
 50
114.50438800000001
 51
122.716505
  0
ARC
  5
323
  8
0
 62
     7
 10
34.352998999999997
 20
109.713425
 30
0.0
 40
0.08465
 50
304.44135599999998
 51
307.61340300000001
  0
LINE
  5
324
  8
0
 62
     7
 10
34.4009
 20
109.64400000000001
 30
0.0
 11
34.397100000000002
 21
109.642
 31
0.0
  0
LINE
  5
325
  8
0
 62
     7
 10
34.397100000000002
 20
109.642
 30
0.0
 11
34.393000000000001
 21
109.639
 31
0.0
  0
ARC
  5
326
  8
0
 62
     7
 10
34.367441999999997
 20
109.681737
 30
0.0
 40
0.04936
 50
296.10431699999998
 51
301.11661600000008
  0
LINE
  5
327
  8
0
 62
     7
 10
34.389200000000002
 20
109.637
 30
0.0
 11
34.385399999999997
 21
109.63500000000001
 31
0.0
  0
LINE
  5
328
  8
0
 62
     7
 10
34.385399999999997
 20
109.63500000000001
 30
0.0
 11
34.3812
 21
109.633
 31
0.0
  0
ARC
  5
329
  8
0
 62
     7
 10
34.387174999999999
 20
109.615184
 30
0.0
 40
0.019043
 50
108.168931
 51
120.718953
  0
ARC
  5
32A
  8
0
 62
     7
 10
34.385916000000002
 20
109.605407
 30
0.0
 40
0.027485
 50
107.946572
 51
117.293133
  0
LINE
  5
32B
  8
0
 62
     7
 10
34.3733
 20
109.63
 30
0.0
 11
34.369199999999999
 21
109.628
 31
0.0
  0
ARC
  5
32C
  8
0
 62
     7
 10
34.353940000000001
 20
109.659499
 30
0.0
 40
0.034583
 50
282.21220299999999
 51
296.14582899999999
  0
ARC
  5
32D
  8
0
 62
     7
 10
34.331417999999999
 20
109.701429
 30
0.0
 40
0.081396
 50
285.36601000000002
 51
291.50390399999998
  0
LINE
  5
32E
  8
0
 62
     7
 10
34.353000000000002
 20
109.623
 30
0.0
 11
34.34470000000001
 21
109.621
 31
0.0
  0
ARC
  5
32F
  8
0
 62
     7
 10
34.329576000000003
 20
109.68623700000001
 30
0.0
 40
0.067093
 50
275.88084900000001
 51
283.043813
  0
ARC
  5
330
  8
0
 62
     7
 10
34.321686
 20
109.68092
 30
0.0
 40
0.063172
 50
276.21606200000002
 51
283.51557000000008
  0
ARC
  5
331
  8
0
 62
     7
 10
34.317006999999997
 20
109.676689
 30
0.0
 40
0.059692
 50
273.12269900000001
 51
281.12735199999997
  0
ARC
  5
332
  8
0
 62
     7
 10
34.313903000000003
 20
109.67197
 30
0.0
 40
0.055251
 50
268.37366700000001
 51
276.605458
  0
ARC
  5
333
  8
0
 62
     7
 10
34.305757
 20
109.67671900000001
 30
0.0
 40
0.060338
 50
268.721136
 51
276.25798900000001
  0
ARC
  5
334
  8
0
 62
     7
 10
34.288666999999997
 20
110.044122
 30
0.0
 40
0.4836390000000001
 50
286.71234299999998
 51
288.33881000000002
  0
ARC
  5
335
  8
0
 62
     7
 10
34.393011000000001
 20
109.713139
 30
0.0
 40
0.13673
 50
290.47420899999997
 51
296.29624799999999
  0
ARC
  5
336
  8
0
 62
     7
 10
34.403938000000011
 20
109.700768
 30
0.0
 40
0.120876
 50
294.250156
 51
301.26693900000009
  0
ARC
  5
337
  8
0
 62
     7
 10
34.399312000000002
 20
109.717495
 30
0.0
 40
0.137656
 50
299.29881999999998
 51
304.71195899999998
  0
ARC
  5
338
  8
0
 62
     7
 10
34.400429000000003
 20
109.72621100000001
 30
0.0
 40
0.144304
 50
302.376237
 51
313.11738500000001
  0
ARC
  5
339
  8
0
 62
     7
 10
34.364494000000001
 20
109.770105
 30
0.0
 40
0.200941
 50
312.042035
 51
319.9681470000001
  0
ARC
  5
33A
  8
0
 62
     7
 10
34.395743000000003
 20
109.74443100000001
 30
0.0
 40
0.160502
 50
319.81066199999998
 51
329.61584699999997
  0
ARC
  5
33B
  8
0
 62
     7
 10
34.383437999999998
 20
109.755067
 30
0.0
 40
0.17652
 50
328.65772600000003
 51
337.56841200000002
  0
ARC
  5
33C
  8
0
 62
     7
 10
34.384487999999997
 20
109.755546
 30
0.0
 40
0.175735
 50
337.29362700000001
 51
346.28940799999998
  0
ARC
  5
33D
  8
0
 62
     7
 10
34.394737999999997
 20
109.75656600000001
 30
0.0
 40
0.166054
 50
345.109106
 51
354.53987499999999
  0
ARC
  5
33E
  8
0
 62
     7
 10
29.291283
 20
110.286207
 30
0.0
 40
0.737491
 50
251.94114400000001
 51
253.007743
  0
ARC
  5
33F
  8
0
 62
     7
 10
29.119351000000002
 20
109.733627
 30
0.0
 40
0.159028
 50
244.11220499999999
 51
249.117378
  0
LINE
  5
340
  8
0
 62
     7
 10
29.049900000000001
 20
109.59099999999999
 30
0.0
 11
29.038499999999999
 21
109.596
 31
0.0
  0
ARC
  5
341
  8
0
 62
     7
 10
29.104737
 20
109.717107
 30
0.0
 40
0.13765
 50
235.008791
 51
241.25928099999999
  0
ARC
  5
342
  8
0
 62
     7
 10
29.113116000000002
 20
109.74145
 30
0.0
 40
0.162552
 50
227.881553
 51
237.51057800000001
  0
ARC
  5
343
  8
0
 62
     7
 10
29.182103000000001
 20
109.80864800000001
 30
0.0
 40
0.258736
 50
220.42881199999999
 51
226.52967899999999
  0
ARC
  5
344
  8
0
 62
     7
 10
29.076868999999999
 20
109.720277
 30
0.0
 40
0.121326
 50
213.92141699999999
 51
220.88932800000001
  0
ARC
  5
345
  8
0
 62
     7
 10
29.084026999999999
 20
109.729704
 30
0.0
 40
0.132582
 50
210.08125200000001
 51
215.575864
  0
ARC
  5
346
  8
0
 62
     7
 10
29.065978000000001
 20
109.72353699999999
 30
0.0
 40
0.113933
 50
205.0437169999999
 51
211.94759300000001
  0
ARC
  5
347
  8
0
 62
     7
 10
29.179687999999999
 20
109.785332
 30
0.0
 40
0.243238
 50
203.662126
 51
206.89335299999999
  0
ARC
  5
348
  8
0
 62
     7
 10
29.113105999999998
 20
109.752591
 30
0.0
 40
0.169145
 50
198.19736700000001
 51
202.55553900000001
  0
ARC
  5
349
  8
0
 62
     7
 10
29.038723000000001
 20
109.73269500000001
 30
0.0
 40
0.09237
 50
191.74449100000001
 51
200.88325
  0
ARC
  5
34A
  8
0
 62
     7
 10
29.015502000000001
 20
109.735338
 30
0.0
 40
0.070553
 50
187.36300299999999
 51
197.69465
  0
ARC
  5
34B
  8
0
 62
     7
 10
29.049727000000001
 20
109.748563
 30
0.0
 40
0.106549
 50
184.19713400000001
 51
192.063109
  0
ARC
  5
34C
  8
0
 62
     7
 10
29.120884
 20
112.286187
 30
0.0
 40
0.130747
 50
90.300614999999993
 51
98.331419000000011
  0
ARC
  5
34D
  8
0
 62
     7
 10
29.103774000000001
 20
112.339703
 30
0.0
 40
0.075873
 50
91.385847999999996
 51
103.476946
  0
ARC
  5
34E
  8
0
 62
     7
 10
28.800774000000001
 20
113.52254600000001
 30
0.0
 40
1.1451709999999991
 50
283.64536900000002
 51
284.42713500000002
  0
ARC
  5
34F
  8
0
 62
     7
 10
29.151413999999999
 20
112.13897
 30
0.0
 40
0.282437
 50
106.556043
 51
110.31383
  0
ARC
  5
350
  8
0
 62
     7
 10
29.195171999999989
 20
112.07261099999999
 30
0.0
 40
0.3603099999999999
 50
113.177071
 51
116.07003400000001
  0
ARC
  5
351
  8
0
 62
     7
 10
29.169709000000001
 20
112.15917399999999
 30
0.0
 40
0.271788
 50
119.26956199999999
 51
122.65792399999999
  0
ARC
  5
352
  8
0
 62
     7
 10
29.080113999999998
 20
112.289265
 30
0.0
 40
0.114036
 50
120.02917600000001
 51
128.63123100000001
  0
ARC
  5
353
  8
0
 62
     7
 10
29.110305
 20
112.244668
 30
0.0
 40
0.167776
 50
127.177235
 51
133.024551
  0
ARC
  5
354
  8
0
 62
     7
 10
29.083476000000001
 20
112.26865100000001
 30
0.0
 40
0.131977
 50
131.613767
 51
138.38620299999999
  0
ARC
  5
355
  8
0
 62
     7
 10
29.089469999999999
 20
112.25758399999999
 30
0.0
 40
0.143872
 50
136.67581999999999
 51
143.98846599999999
  0
ARC
  5
356
  8
0
 62
     7
 10
29.125202000000002
 20
112.225764
 30
0.0
 40
0.191543
 50
142.57341400000001
 51
147.23491999999999
  0
ARC
  5
357
  8
0
 62
     7
 10
29.135352999999999
 20
112.22223200000001
 30
0.0
 40
0.202006
 50
147.95051900000001
 51
153.33394100000001
  0
ARC
  5
358
  8
0
 62
     7
 10
29.875529
 20
111.900234
 30
0.0
 40
1.0089440000000001
 50
155.85809
 51
156.88311999999999
  0
ARC
  5
359
  8
0
 62
     7
 10
29.181999999999999
 20
112.213424
 30
0.0
 40
0.24864
 50
160.516728
 51
164.18298799999999
  0
ARC
  5
35A
  8
0
 62
     7
 10
29.124741
 20
112.226186
 30
0.0
 40
0.190099
 50
163.17983000000001
 51
168.747647
  0
ARC
  5
35B
  8
0
 62
     7
 10
30.038412999999998
 20
112.108709
 30
0.0
 40
1.110922999999999
 50
172.00201200000001
 51
172.808663
  0
ARC
  5
35C
  8
0
 62
     7
 10
29.410112000000002
 20
112.127557
 30
0.0
 40
0.4155260000000001
 50
171.70742999999999
 51
172.76220000000001
  0
LINE
  5
35D
  8
0
 62
     7
 10
28.998899999999999
 20
112.187
 30
0.0
 11
29.0
 21
112.196
 31
0.0
  0
ARC
  5
35E
  8
0
 62
     7
 10
29.626479
 20
112.063706
 30
0.0
 40
0.6402800000000001
 50
167.37239299999999
 51
168.09802199999999
  0
ARC
  5
35F
  8
0
 62
     7
 10
28.773347999999999
 20
112.267478
 30
0.0
 40
0.237083
 50
344.389567
 51
346.36868800000002
  0
ARC
  5
360
  8
0
 62
     7
 10
29.083838
 20
112.19273099999999
 30
0.0
 40
0.082278
 50
160.73956699999999
 51
166.73998700000001
  0
ARC
  5
361
  8
0
 62
     7
 10
29.071159999999999
 20
112.20052800000001
 30
0.0
 40
0.067812
 50
156.60782499999999
 51
163.425927
  0
ARC
  5
362
  8
0
 62
     7
 10
29.07323400000001
 20
112.208049
 30
0.0
 40
0.067176
 50
155.67534699999999
 51
163.21252799999999
  0
ARC
  5
363
  8
0
 62
     7
 10
29.060790999999998
 20
112.218124
 30
0.0
 40
0.051846
 50
150.950773
 51
160.161283
  0
ARC
  5
364
  8
0
 62
     7
 10
29.000904999999999
 20
112.25179199999999
 30
0.0
 40
0.016857
 50
329.746396
 51
345.01387900000009
  0
ARC
  5
365
  8
0
 62
     7
 10
29.044682999999999
 20
112.234894
 30
0.0
 40
0.030218
 50
147.293632
 51
155.48541599999999
  0
ARC
  5
366
  8
0
 62
     7
 10
28.976997999999998
 20
112.276731
 30
0.0
 40
0.04936
 50
328.88339400000001
 51
333.89569299999999
  0
ARC
  5
367
  8
0
 62
     7
 10
28.859928
 20
112.36038000000001
 30
0.0
 40
0.192746
 50
326.86116700000002
 51
328.19645600000001
  0
ARC
  5
368
  8
0
 62
     7
 10
29.057403000000011
 20
112.240038
 30
0.0
 40
0.038544
 50
144.188265
 51
150.86931799999999
  0
ARC
  5
369
  8
0
 62
     7
 10
29.032627999999999
 20
112.26062
 30
0.0
 40
0.006775
 50
126.926939
 51
163.088989
  0
LINE
  5
36A
  8
0
 62
     7
 10
29.028600000000001
 20
112.26600000000001
 30
0.0
 11
29.030999999999999
 21
112.27
 31
0.0
  0
ARC
  5
36B
  8
0
 62
     7
 10
29.019068000000001
 20
112.281068
 30
0.0
 40
0.016137
 50
317.52099900000002
 51
332.49496799999997
  0
ARC
  5
36C
  8
0
 62
     7
 10
29.025998000000001
 20
112.282347
 30
0.0
 40
0.011435
 50
310.21723300000002
 51
332.46315900000002
  0
ARC
  5
36D
  8
0
 62
     7
 10
29.054524000000001
 20
112.265176
 30
0.0
 40
0.021893
 50
135.557334
 51
147.123019
  0
ARC
  5
36E
  8
0
 62
     7
 10
29.078744
 20
112.247758
 30
0.0
 40
0.051579
 50
135.43759900000001
 51
140.58794599999999
  0
ARC
  5
36F
  8
0
 62
     7
 10
29.057438999999999
 20
112.27442000000001
 30
0.0
 40
0.018149
 50
134.35895199999999
 51
148.32140100000001
  0
LINE
  5
370
  8
0
 62
     7
 10
29.044799999999999
 20
112.28700000000001
 30
0.0
 11
29.047899999999998
 21
112.291
 31
0.0
  0
LINE
  5
371
  8
0
 62
     7
 10
29.047899999999998
 20
112.291
 30
0.0
 11
29.050999999999998
 21
112.294
 31
0.0
  0
LINE
  5
372
  8
0
 62
     7
 10
29.050999999999998
 20
112.294
 30
0.0
 11
29.054099999999998
 21
112.297
 31
0.0
  0
ARC
  5
373
  8
0
 62
     7
 10
28.940255000000001
 20
112.41428500000001
 30
0.0
 40
0.163388
 50
314.14571000000001
 51
315.85430000000008
  0
LINE
  5
374
  8
0
 62
     7
 10
29.057500000000001
 20
112.3
 30
0.0
 11
29.060600000000001
 21
112.303
 31
0.0
  0
LINE
  5
375
  8
0
 62
     7
 10
29.060600000000001
 20
112.303
 30
0.0
 11
29.064
 21
112.306
 31
0.0
  0
LINE
  5
376
  8
0
 62
     7
 10
29.064
 20
112.306
 30
0.0
 11
29.067499999999999
 21
112.309
 31
0.0
  0
LINE
  5
377
  8
0
 62
     7
 10
29.067499999999999
 20
112.309
 30
0.0
 11
29.070900000000002
 21
112.312
 31
0.0
  0
LINE
  5
378
  8
0
 62
     7
 10
29.070900000000002
 20
112.312
 30
0.0
 11
29.0747
 21
112.31399999999999
 31
0.0
  0
LINE
  5
379
  8
0
 62
     7
 10
29.0747
 20
112.31399999999999
 30
0.0
 11
29.078499999999998
 21
112.31699999999999
 31
0.0
  0
LINE
  5
37A
  8
0
 62
     7
 10
29.078499999999998
 20
112.31699999999999
 30
0.0
 11
29.082000000000001
 21
112.31999999999999
 31
0.0
  0
LINE
  5
37B
  8
0
 62
     7
 10
29.082000000000001
 20
112.31999999999999
 30
0.0
 11
29.085699999999999
 21
112.322
 31
0.0
  0
LINE
  5
37C
  8
0
 62
     7
 10
29.085699999999999
 20
112.322
 30
0.0
 11
29.089500000000001
 21
112.324
 31
0.0
  0
LINE
  5
37D
  8
0
 62
     7
 10
29.089500000000001
 20
112.324
 30
0.0
 11
29.093699999999998
 21
112.327
 31
0.0
  0
LINE
  5
37E
  8
0
 62
     7
 10
29.093699999999998
 20
112.327
 30
0.0
 11
29.0975
 21
112.32899999999999
 31
0.0
  0
LINE
  5
37F
  8
0
 62
     7
 10
29.0975
 20
112.32899999999999
 30
0.0
 11
29.101299999999998
 21
112.33
 31
0.0
  0
LINE
  5
380
  8
0
 62
     7
 10
29.101299999999998
 20
112.33
 30
0.0
 11
29.105399999999999
 21
112.33199999999999
 31
0.0
  0
LINE
  5
381
  8
0
 62
     7
 10
29.105399999999999
 20
112.33199999999999
 30
0.0
 11
29.109200000000001
 21
112.334
 31
0.0
  0
LINE
  5
382
  8
0
 62
     7
 10
29.109200000000001
 20
112.334
 30
0.0
 11
29.113299999999999
 21
112.336
 31
0.0
  0
LINE
  5
383
  8
0
 62
     7
 10
29.113299999999999
 20
112.336
 30
0.0
 11
29.1174
 21
112.33799999999999
 31
0.0
  0
LINE
  5
384
  8
0
 62
     7
 10
29.1174
 20
112.33799999999999
 30
0.0
 11
29.125399999999999
 21
112.34
 31
0.0
  0
LINE
  5
385
  8
0
 62
     7
 10
29.125399999999999
 20
112.34
 30
0.0
 11
29.133600000000001
 21
112.343
 31
0.0
  0
LINE
  5
386
  8
0
 62
     7
 10
29.133600000000001
 20
112.343
 30
0.0
 11
29.1419
 21
112.345
 31
0.0
  0
LINE
  5
387
  8
0
 62
     7
 10
29.1419
 20
112.345
 30
0.0
 11
29.149799999999999
 21
112.34699999999999
 31
0.0
  0
LINE
  5
388
  8
0
 62
     7
 10
29.149799999999999
 20
112.34699999999999
 30
0.0
 11
29.158100000000001
 21
112.348
 31
0.0
  0
LINE
  5
389
  8
0
 62
     7
 10
29.158100000000001
 20
112.348
 30
0.0
 11
29.166
 21
112.349
 31
0.0
  0
LINE
  5
38A
  8
0
 62
     7
 10
29.166
 20
112.349
 30
0.0
 11
29.174299999999999
 21
112.34999999999999
 31
0.0
  0
LINE
  5
38B
  8
0
 62
     7
 10
29.174299999999999
 20
112.34999999999999
 30
0.0
 11
29.181899999999999
 21
112.34999999999999
 31
0.0
  0
LINE
  5
38C
  8
0
 62
     7
 10
29.181899999999999
 20
112.34999999999999
 30
0.0
 11
29.183599999999998
 21
112.349
 31
0.0
  0
LINE
  5
38D
  8
0
 62
     7
 10
29.183599999999998
 20
112.349
 30
0.0
 11
29.187000000000001
 21
112.349
 31
0.0
  0
LINE
  5
38E
  8
0
 62
     7
 10
29.187000000000001
 20
112.349
 30
0.0
 11
29.1922
 21
112.349
 31
0.0
  0
LINE
  5
38F
  8
0
 62
     7
 10
29.1922
 20
112.349
 30
0.0
 11
29.198699999999999
 21
112.349
 31
0.0
  0
LINE
  5
390
  8
0
 62
     7
 10
29.198699999999999
 20
112.349
 30
0.0
 11
29.207999999999998
 21
112.349
 31
0.0
  0
LINE
  5
391
  8
0
 62
     7
 10
29.207999999999998
 20
112.349
 30
0.0
 11
29.2194
 21
112.349
 31
0.0
  0
LINE
  5
392
  8
0
 62
     7
 10
29.2194
 20
112.349
 30
0.0
 11
29.2318
 21
112.348
 31
0.0
  0
LINE
  5
393
  8
0
 62
     7
 10
29.2318
 20
112.348
 30
0.0
 11
29.2453
 21
112.348
 31
0.0
  0
LINE
  5
394
  8
0
 62
     7
 10
29.2453
 20
112.348
 30
0.0
 11
29.265599999999999
 21
112.348
 31
0.0
  0
LINE
  5
395
  8
0
 62
     7
 10
29.265599999999999
 20
112.348
 30
0.0
 11
29.287600000000001
 21
112.348
 31
0.0
  0
LINE
  5
396
  8
0
 62
     7
 10
29.287600000000001
 20
112.348
 30
0.0
 11
29.311699999999998
 21
112.348
 31
0.0
  0
LINE
  5
397
  8
0
 62
     7
 10
29.311699999999998
 20
112.348
 30
0.0
 11
29.337599999999998
 21
112.348
 31
0.0
  0
LINE
  5
398
  8
0
 62
     7
 10
29.337599999999998
 20
112.348
 30
0.0
 11
29.3645
 21
112.348
 31
0.0
  0
LINE
  5
399
  8
0
 62
     7
 10
29.3645
 20
112.348
 30
0.0
 11
29.392399999999999
 21
112.348
 31
0.0
  0
LINE
  5
39A
  8
0
 62
     7
 10
29.392399999999999
 20
112.348
 30
0.0
 11
29.421299999999999
 21
112.348
 31
0.0
  0
LINE
  5
39B
  8
0
 62
     7
 10
29.421299999999999
 20
112.348
 30
0.0
 11
29.438500000000001
 21
112.348
 31
0.0
  0
LINE
  5
39C
  8
0
 62
     7
 10
29.438500000000001
 20
112.348
 30
0.0
 11
29.4575
 21
112.348
 31
0.0
  0
LINE
  5
39D
  8
0
 62
     7
 10
29.4575
 20
112.348
 30
0.0
 11
29.478100000000001
 21
112.349
 31
0.0
  0
LINE
  5
39E
  8
0
 62
     7
 10
29.478100000000001
 20
112.349
 30
0.0
 11
29.500900000000001
 21
112.349
 31
0.0
  0
LINE
  5
39F
  8
0
 62
     7
 10
29.500900000000001
 20
112.349
 30
0.0
 11
29.525700000000001
 21
112.349
 31
0.0
  0
LINE
  5
3A0
  8
0
 62
     7
 10
29.525700000000001
 20
112.349
 30
0.0
 11
29.552600000000002
 21
112.349
 31
0.0
  0
LINE
  5
3A1
  8
0
 62
     7
 10
29.552600000000002
 20
112.349
 30
0.0
 11
29.581800000000001
 21
112.349
 31
0.0
  0
LINE
  5
3A2
  8
0
 62
     7
 10
29.581800000000001
 20
112.349
 30
0.0
 11
29.613199999999999
 21
112.349
 31
0.0
  0
LINE
  5
3A3
  8
0
 62
     7
 10
29.613199999999999
 20
112.349
 30
0.0
 11
29.646999999999998
 21
112.349
 31
0.0
  0
LINE
  5
3A4
  8
0
 62
     7
 10
29.646999999999998
 20
112.349
 30
0.0
 11
29.683499999999999
 21
112.34999999999999
 31
0.0
  0
LINE
  5
3A5
  8
0
 62
     7
 10
29.683499999999999
 20
112.34999999999999
 30
0.0
 11
29.6966
 21
112.34999999999999
 31
0.0
  0
LINE
  5
3A6
  8
0
 62
     7
 10
29.6966
 20
112.34999999999999
 30
0.0
 11
29.712399999999999
 21
112.34999999999999
 31
0.0
  0
LINE
  5
3A7
  8
0
 62
     7
 10
29.712399999999999
 20
112.34999999999999
 30
0.0
 11
29.7303
 21
112.34999999999999
 31
0.0
  0
LINE
  5
3A8
  8
0
 62
     7
 10
29.7303
 20
112.34999999999999
 30
0.0
 11
29.751000000000001
 21
112.34999999999999
 31
0.0
  0
LINE
  5
3A9
  8
0
 62
     7
 10
29.751000000000001
 20
112.34999999999999
 30
0.0
 11
29.773700000000002
 21
112.34999999999999
 31
0.0
  0
LINE
  5
3AA
  8
0
 62
     7
 10
29.773700000000002
 20
112.34999999999999
 30
0.0
 11
29.798500000000001
 21
112.351
 31
0.0
  0
LINE
  5
3AB
  8
0
 62
     7
 10
29.798500000000001
 20
112.351
 30
0.0
 11
29.825800000000001
 21
112.351
 31
0.0
  0
LINE
  5
3AC
  8
0
 62
     7
 10
29.825800000000001
 20
112.351
 30
0.0
 11
29.855
 21
112.351
 31
0.0
  0
LINE
  5
3AD
  8
0
 62
     7
 10
29.855
 20
112.351
 30
0.0
 11
29.886399999999998
 21
112.351
 31
0.0
  0
LINE
  5
3AE
  8
0
 62
     7
 10
29.886399999999998
 20
112.351
 30
0.0
 11
29.919799999999999
 21
112.351
 31
0.0
  0
LINE
  5
3AF
  8
0
 62
     7
 10
29.919799999999999
 20
112.351
 30
0.0
 11
29.954999999999998
 21
112.352
 31
0.0
  0
LINE
  5
3B0
  8
0
 62
     7
 10
29.954999999999998
 20
112.352
 30
0.0
 11
29.9922
 21
112.352
 31
0.0
  0
ARC
  5
3B1
  8
0
 62
     7
 10
30.699262999999998
 20
-169.04500200000001
 30
0.0
 40
281.41112199999998
 50
89.268831999999975
 51
89.488814000000005
  0
ARC
  5
3B2
  8
0
 62
     7
 10
31.615119
 20
-93.235081999999991
 30
0.0
 40
205.59618800000001
 50
89.555550999999994
 51
89.853374999999986
  0
ARC
  5
3B3
  8
0
 62
     7
 10
31.833321999999999
 20
-123.809307
 30
0.0
 40
236.16994
 50
89.925291999999985
 51
90.185226
  0
ARC
  5
3B4
  8
0
 62
     7
 10
32.776642000000002
 20
-222.14179799999999
 30
0.0
 40
334.50555200000002
 50
90.292349000000002
 51
90.476935999999995
  0
LINE
  5
3B5
  8
0
 62
     7
 10
34.383299999999998
 20
112.417
 30
0.0
 11
34.398800000000001
 21
112.416
 31
0.0
  0
LINE
  5
3B6
  8
0
 62
     7
 10
34.398800000000001
 20
112.416
 30
0.0
 11
34.417099999999998
 21
112.413
 31
0.0
  0
ARC
  5
3B7
  8
0
 62
     7
 10
34.400205
 20
112.310906
 30
0.0
 40
0.103958
 50
71.861402999999996
 51
80.666042999999988
  0
ARC
  5
3B8
  8
0
 62
     7
 10
34.320771999999998
 20
112.045024
 30
0.0
 40
0.381426
 50
70.173880000000011
 51
72.956206000000009
  0
ARC
  5
3B9
  8
0
 62
     7
 10
34.384134000000003
 20
112.240647
 30
0.0
 40
0.176036
 50
56.826755000000013
 51
67.978639000000001
  0
ARC
  5
3BA
  8
0
 62
     7
 10
34.388990999999997
 20
112.239312
 30
0.0
 40
0.174562
 50
47.165816
 51
58.401290999999993
  0
ARC
  5
3BB
  8
0
 62
     7
 10
34.424098000000001
 20
112.272723
 30
0.0
 40
0.126229
 50
41.459384
 51
48.540605999999997
  0
ARC
  5
3BC
  8
0
 62
     7
 10
34.400978000000002
 20
112.246759
 30
0.0
 40
0.1608
 50
36.396864000000001
 51
42.938809999999989
  0
ARC
  5
3BD
  8
0
 62
     7
 10
34.38751400000001
 20
112.23571200000001
 30
0.0
 40
0.178195
 50
30.693231000000001
 51
36.686895999999997
  0
ARC
  5
3BE
  8
0
 62
     7
 10
34.434133000000003
 20
112.25620000000001
 30
0.0
 40
0.127798
 50
26.333226
 51
33.464570999999999
  0
ARC
  5
3BF
  8
0
 62
     7
 10
34.372943999999997
 20
112.22550699999999
 30
0.0
 40
0.196253
 50
21.485223000000001
 51
26.43975
  0
ARC
  5
3C0
  8
0
 62
     7
 10
34.442186999999997
 20
112.25228300000001
 30
0.0
 40
0.122016
 50
13.706559
 51
21.694292999999998
  0
ARC
  5
3C1
  8
0
 62
     7
 10
34.420695000000009
 20
112.237402
 30
0.0
 40
0.14672
 50
10.706151
 51
17.366333000000001
  0
ARC
  5
3C2
  8
0
 62
     7
 10
34.358964
 20
112.226632
 30
0.0
 40
0.209379
 50
5.7962889999999989
 51
10.463914000000001
  0
ARC
  5
3C3
  8
0
 62
     7
 10
34.012410000000003
 20
112.11352599999999
 30
0.0
 40
0.4906140000000001
 50
6.9647990000000002
 51
7.8980149999999991
  0
ARC
  5
3C4
  8
0
 62
     7
 10
34.945224000000003
 20
112.243256
 30
0.0
 40
0.451178
 50
186.92403200000001
 51
187.93882199999999
  0
ARC
  5
3C5
  8
0
 62
     7
 10
33.870821999999997
 20
112.056816
 30
0.0
 40
0.6402800000000001
 50
11.901958
 51
12.627587
  0
LINE
  5
3C6
  8
0
 62
     7
 10
34.495600000000003
 20
112.197
 30
0.0
 11
34.493499999999997
 21
112.205
 31
0.0
  0
ARC
  5
3C7
  8
0
 62
     7
 10
34.417062000000001
 20
112.186891
 30
0.0
 40
0.078534
 50
13.116828
 51
19.403578
  0
ARC
  5
3C8
  8
0
 62
     7
 10
34.428713999999999
 20
112.195711
 30
0.0
 40
0.064767
 50
15.465583000000001
 51
22.892427999999999
  0
ARC
  5
3C9
  8
0
 62
     7
 10
34.443551999999997
 20
112.207933
 30
0.0
 40
0.046667
 50
16.139959999999999
 51
26.601279999999999
  0
ARC
  5
3CA
  8
0
 62
     7
 10
34.445921000000013
 20
112.21551100000001
 30
0.0
 40
0.04155
 50
18.694096999999999
 51
30.193807
  0
LINE
  5
3CB
  8
0
 62
     7
 10
34.4818
 20
112.236
 30
0.0
 11
34.479799999999997
 21
112.241
 31
0.0
  0
LINE
  5
3CC
  8
0
 62
     7
 10
34.479799999999997
 20
112.241
 30
0.0
 11
34.478000000000002
 21
112.245
 31
0.0
  0
ARC
  5
3CD
  8
0
 62
     7
 10
34.490214999999999
 20
112.255762
 30
0.0
 40
0.016462
 50
207.65380400000001
 51
222.3302680000001
  0
LINE
  5
3CE
  8
0
 62
     7
 10
34.4756
 20
112.248
 30
0.0
 11
34.473599999999998
 21
112.252
 31
0.0
  0
ARC
  5
3CF
  8
0
 62
     7
 10
34.428564000000001
 20
112.223321
 30
0.0
 40
0.053502
 50
32.73968
 51
37.244353000000011
  0
ARC
  5
3D0
  8
0
 62
     7
 10
34.460206999999997
 20
112.251397
 30
0.0
 40
0.011763
 50
21.463877
 51
43.478499999999997
  0
ARC
  5
3D1
  8
0
 62
     7
 10
34.437065000000011
 20
112.24199400000001
 30
0.0
 40
0.036188
 50
28.912984999999999
 51
36.029392999999999
  0
ARC
  5
3D2
  8
0
 62
     7
 10
34.362698999999999
 20
112.193305
 30
0.0
 40
0.125045
 50
34.028530000000003
 51
35.955503
  0
ARC
  5
3D3
  8
0
 62
     7
 10
34.440896000000002
 20
112.251132
 30
0.0
 40
0.027807
 50
34.109726000000002
 51
43.209882
  0
ARC
  5
3D4
  8
0
 62
     7
 10
34.438140000000011
 20
112.254577
 30
0.0
 40
0.027807
 50
34.109726000000002
 51
43.209882
  0
ARC
  5
3D5
  8
0
 62
     7
 10
34.435383999999999
 20
112.258022
 30
0.0
 40
0.027807
 50
34.109726000000002
 51
43.209882
  0
ARC
  5
3D6
  8
0
 62
     7
 10
34.444856999999999
 20
112.270464
 30
0.0
 40
0.012651
 50
31.431504
 51
52.542911999999987
  0
ARC
  5
3D7
  8
0
 62
     7
 10
34.424629000000003
 20
112.258494
 30
0.0
 40
0.035555
 50
38.249991999999999
 51
45.724423999999992
  0
LINE
  5
3D8
  8
0
 62
     7
 10
34.4495
 20
112.28400000000001
 30
0.0
 11
34.446300000000001
 21
112.28700000000001
 31
0.0
  0
LINE
  5
3D9
  8
0
 62
     7
 10
34.446300000000001
 20
112.28700000000001
 30
0.0
 11
34.443199999999997
 21
112.29000000000001
 31
0.0
  0
ARC
  5
3DA
  8
0
 62
     7
 10
34.430225999999998
 20
112.280574
 30
0.0
 40
0.016166
 50
36.332960999999997
 51
53.667028999999992
  0
LINE
  5
3DB
  8
0
 62
     7
 10
34.439799999999998
 20
112.294
 30
0.0
 11
34.436700000000002
 21
112.29600000000001
 31
0.0
  0
ARC
  5
3DC
  8
0
 62
     7
 10
34.32752
 20
112.17850300000001
 30
0.0
 40
0.160654
 50
47.186252000000003
 51
48.839312
  0
ARC
  5
3DD
  8
0
 62
     7
 10
34.442149999999998
 20
112.312798
 30
0.0
 40
0.016035
 50
219.70315600000001
 51
236.32244900000001
  0
ARC
  5
3DE
  8
0
 62
     7
 10
34.436163000000001
 20
112.315269
 30
0.0
 40
0.014212
 50
224.483441
 51
243.46184
  0
ARC
  5
3DF
  8
0
 62
     7
 10
34.459907000000001
 20
112.357382
 30
0.0
 40
0.062125
 50
233.0684140000001
 51
236.947574
  0
ARC
  5
3E0
  8
0
 62
     7
 10
34.409367000000003
 20
112.291145
 30
0.0
 40
0.021198
 50
51.446822999999988
 51
63.610779000000001
  0
ARC
  5
3E1
  8
0
 62
     7
 10
34.401534000000012
 20
112.292096
 30
0.0
 40
0.024962
 50
46.270124999999993
 51
56.410246999999998
  0
ARC
  5
3E2
  8
0
 62
     7
 10
34.427846000000002
 20
112.340318
 30
0.0
 40
0.030143
 50
237.28349499999999
 51
245.49561200000011
  0
ARC
  5
3E3
  8
0
 62
     7
 10
34.422724000000002
 20
112.334299
 30
0.0
 40
0.022335
 50
227.95136299999999
 51
239.99391800000001
  0
ARC
  5
3E4
  8
0
 62
     7
 10
34.420266999999988
 20
112.345141
 30
0.0
 40
0.030143
 50
237.28349499999999
 51
245.49561200000011
  0
LINE
  5
3E5
  8
0
 62
     7
 10
34.404000000000003
 20
112.31999999999999
 30
0.0
 11
34.399799999999999
 21
112.322
 31
0.0
  0
LINE
  5
3E6
  8
0
 62
     7
 10
34.399799999999999
 20
112.322
 30
0.0
 11
34.396099999999997
 21
112.324
 31
0.0
  0
LINE
  5
3E7
  8
0
 62
     7
 10
34.396099999999997
 20
112.324
 30
0.0
 11
34.3919
 21
112.32599999999999
 31
0.0
  0
ARC
  5
3E8
  8
0
 62
     7
 10
34.396809000000012
 20
112.34533500000001
 30
0.0
 40
0.019962
 50
244.22016600000001
 51
255.81364600000001
  0
LINE
  5
3E9
  8
0
 62
     7
 10
34.388100000000001
 20
112.327
 30
0.0
 11
34.384
 21
112.32899999999999
 31
0.0
  0
ARC
  5
3EA
  8
0
 62
     7
 10
34.387036999999999
 20
112.34545
 30
0.0
 40
0.01631
 50
243.88783699999999
 51
259.24229000000003
  0
ARC
  5
3EB
  8
0
 62
     7
 10
34.357771
 20
112.280072
 30
0.0
 40
0.055332
 50
66.473248999999996
 51
75.168718999999996
  0
ARC
  5
3EC
  8
0
 62
     7
 10
34.342098
 20
112.25783
 30
0.0
 40
0.081396
 50
68.496095999999994
 51
74.633989999999983
  0
LINE
  5
3ED
  8
0
 62
     7
 10
34.363700000000001
 20
112.336
 30
0.0
 11
34.355400000000003
 21
112.33799999999999
 31
0.0
  0
ARC
  5
3EE
  8
0
 62
     7
 10
34.340141000000003
 20
112.287284
 30
0.0
 40
0.053329
 50
73.375013999999993
 51
82.095421999999985
  0
LINE
  5
3EF
  8
0
 62
     7
 10
34.347499999999997
 20
112.34
 30
0.0
 11
34.339199999999998
 21
112.34099999999999
 31
0.0
  0
LINE
  5
3F0
  8
0
 62
     7
 10
34.339199999999998
 20
112.34099999999999
 30
0.0
 11
34.3309
 21
112.343
 31
0.0
  0
ARC
  5
3F1
  8
0
 62
     7
 10
34.332484999999998
 20
112.40622
 30
0.0
 40
0.063721
 50
261.45208700000001
 51
268.608453
  0
LINE
  5
3F2
  8
0
 62
     7
 10
34.323
 20
112.343
 30
0.0
 11
34.315100000000001
 21
112.343
 31
0.0
  0
LINE
  5
3F3
  8
0
 62
     7
 10
34.315100000000001
 20
112.343
 30
0.0
 11
34.314700000000002
 21
112.343
 31
0.0
  0
LINE
  5
3F4
  8
0
 62
     7
 10
34.314700000000002
 20
112.343
 30
0.0
 11
34.314399999999999
 21
112.343
 31
0.0
  0
LINE
  5
3F5
  8
0
 62
     7
 10
34.314399999999999
 20
112.343
 30
0.0
 11
34.314100000000003
 21
112.343
 31
0.0
  0
LINE
  5
3F6
  8
0
 62
     7
 10
34.314100000000003
 20
112.343
 30
0.0
 11
34.313699999999997
 21
112.343
 31
0.0
  0
LINE
  5
3F7
  8
0
 62
     7
 10
34.313699999999997
 20
112.343
 30
0.0
 11
34.313400000000001
 21
112.343
 31
0.0
  0
LINE
  5
3F8
  8
0
 62
     7
 10
34.313400000000001
 20
112.343
 30
0.0
 11
34.3123
 21
112.343
 31
0.0
  0
LINE
  5
3F9
  8
0
 62
     7
 10
34.3123
 20
112.343
 30
0.0
 11
34.311599999999999
 21
112.343
 31
0.0
  0
LINE
  5
3FA
  8
0
 62
     7
 10
34.311599999999999
 20
112.343
 30
0.0
 11
34.310600000000001
 21
112.343
 31
0.0
  0
LINE
  5
3FB
  8
0
 62
     7
 10
34.310600000000001
 20
112.343
 30
0.0
 11
34.30960000000001
 21
112.343
 31
0.0
  0
LINE
  5
3FC
  8
0
 62
     7
 10
34.30960000000001
 20
112.343
 30
0.0
 11
34.308500000000002
 21
112.343
 31
0.0
  0
LINE
  5
3FD
  8
0
 62
     7
 10
34.308500000000002
 20
112.343
 30
0.0
 11
34.307899999999997
 21
112.343
 31
0.0
  0
LINE
  5
3FE
  8
0
 62
     7
 10
34.307899999999997
 20
112.343
 30
0.0
 11
34.3065
 21
112.343
 31
0.0
  0
LINE
  5
3FF
  8
0
 62
     7
 10
34.3065
 20
112.343
 30
0.0
 11
34.305100000000003
 21
112.343
 31
0.0
  0
LINE
  5
400
  8
0
 62
     7
 10
34.305100000000003
 20
112.343
 30
0.0
 11
34.304099999999998
 21
112.343
 31
0.0
  0
LINE
  5
401
  8
0
 62
     7
 10
34.304099999999998
 20
112.343
 30
0.0
 11
34.302700000000002
 21
112.343
 31
0.0
  0
LINE
  5
402
  8
0
 62
     7
 10
34.302700000000002
 20
112.343
 30
0.0
 11
34.301699999999997
 21
112.343
 31
0.0
  0
LINE
  5
403
  8
0
 62
     7
 10
34.301699999999997
 20
112.343
 30
0.0
 11
34.300600000000003
 21
112.343
 31
0.0
  0
LINE
  5
404
  8
0
 62
     7
 10
34.300600000000003
 20
112.343
 30
0.0
 11
34.299900000000001
 21
112.343
 31
0.0
  0
LINE
  5
405
  8
0
 62
     7
 10
34.299900000000001
 20
112.343
 30
0.0
 11
34.296500000000002
 21
112.343
 31
0.0
  0
LINE
  5
406
  8
0
 62
     7
 10
34.296500000000002
 20
112.343
 30
0.0
 11
34.293399999999998
 21
112.343
 31
0.0
  0
LINE
  5
407
  8
0
 62
     7
 10
34.293399999999998
 20
112.343
 30
0.0
 11
34.290300000000002
 21
112.343
 31
0.0
  0
LINE
  5
409
  8
0
 62
     7
 10
34.509399999999999
 20
112.16500000000001
 30
0.0
 11
34.509399999999999
 21
112.164
 31
0.0
  0
LINE
  5
40A
  8
0
 62
     7
 10
34.509399999999999
 20
112.164
 30
0.0
 11
34.509399999999999
 21
112.163
 31
0.0
  0
LINE
  5
40C
  8
0
 62
     7
 10
34.509399999999999
 20
112.163
 30
0.0
 11
34.509399999999999
 21
112.16200000000001
 31
0.0
  0
LINE
  5
40E
  8
0
 62
     7
 10
34.509399999999999
 20
112.16200000000001
 30
0.0
 11
34.509399999999999
 21
112.161
 31
0.0
  0
LINE
  5
40F
  8
0
 62
     7
 10
34.509399999999999
 20
112.161
 30
0.0
 11
34.509399999999999
 21
112.16
 31
0.0
  0
LINE
  5
410
  8
0
 62
     7
 10
34.509399999999999
 20
112.16
 30
0.0
 11
34.509399999999999
 21
112.15900000000001
 31
0.0
  0
LINE
  5
411
  8
0
 62
     7
 10
34.509399999999999
 20
112.15900000000001
 30
0.0
 11
34.509399999999999
 21
112.157
 31
0.0
  0
LINE
  5
412
  8
0
 62
     7
 10
34.509399999999999
 20
112.157
 30
0.0
 11
34.509700000000002
 21
112.15600000000001
 31
0.0
  0
LINE
  5
413
  8
0
 62
     7
 10
34.509700000000002
 20
112.15600000000001
 30
0.0
 11
34.509700000000002
 21
112.154
 31
0.0
  0
LINE
  5
414
  8
0
 62
     7
 10
34.509700000000002
 20
112.154
 30
0.0
 11
34.509700000000002
 21
112.15300000000001
 31
0.0
  0
LINE
  5
415
  8
0
 62
     7
 10
34.509700000000002
 20
112.15300000000001
 30
0.0
 11
34.509700000000002
 21
112.152
 31
0.0
  0
LINE
  5
416
  8
0
 62
     7
 10
34.509700000000002
 20
112.152
 30
0.0
 11
34.509700000000002
 21
112.15000000000001
 31
0.0
  0
ARC
  5
417
  8
0
 62
     7
 10
41.401257000000001
 20
111.030232
 30
0.0
 40
12.52435
 50
174.42120600000001
 51
185.909482
  0
ARC
  5
418
  8
0
 62
     7
 10
41.488128000000003
 20
111.02872600000001
 30
0.0
 40
12.54317
 50
174.73410000000001
 51
185.71017800000001
  0
ARC
  5
419
  8
0
 62
     7
 10
13.981071
 20
111.87103999999999
 30
0.0
 40
20.688932999999999
 50
354.08995800000002
 51
354.42365599999999
  0
ARC
  5
41A
  8
0
 62
     7
 10
22.029489000000002
 20
111.02929
 30
0.0
 40
12.522257
 50
354.29669100000001
 51
5.240448999999999
  0
ARC
  5
41B
  8
0
 62
     7
 10
31.751751000000009
 20
-72.243527
 30
0.0
 40
184.67920899999999
 50
89.183537000000001
 51
90.816443000000021
  0
ARC
  5
41C
  8
0
 62
     7
 10
12.245679000000001
 20
110.10853400000001
 30
0.0
 40
22.423869
 50
5.1216230000000014
 51
5.4743580000000014
  0
ARC
  5
41D
  8
0
 62
     7
 10
31.751751000000009
 20
118.503624
 30
0.0
 40
9.3153500000000005
 50
253.30559199999999
 51
286.69442800000002
  0
LINE
  5
41E
  8
0
 62
     7
 10
163.84200000000001
 20
111.185
 30
0.0
 11
167.88099999999989
 21
111.18600000000001
 31
0.0
  0
LINE
  5
41F
  8
0
 62
     7
 10
167.1809999999999
 20
117.133
 30
0.0
 11
167.1809999999999
 21
107.71299999999999
 31
0.0
  0
LINE
  5
420
  8
0
 62
     7
 10
166.589
 20
114.646
 30
0.0
 11
167.1809999999999
 21
112.43600000000001
 31
0.0
  0
LINE
  5
421
  8
0
 62
     7
 10
167.1809999999999
 20
112.43600000000001
 30
0.0
 11
167.773
 21
114.646
 31
0.0
  0
LINE
  5
422
  8
0
 62
     7
 10
167.773
 20
114.646
 30
0.0
 11
166.589
 21
114.646
 31
0.0
  0
LINE
  5
423
  8
0
 62
     7
 10
167.773
 20
108.97499999999999
 30
0.0
 11
167.1809999999999
 21
111.18600000000001
 31
0.0
  0
LINE
  5
424
  8
0
 62
     7
 10
167.1809999999999
 20
111.18600000000001
 30
0.0
 11
166.58799999999999
 21
108.97499999999999
 31
0.0
  0
LINE
  5
425
  8
0
 62
     7
 10
166.58799999999999
 20
108.97499999999999
 30
0.0
 11
167.773
 21
108.97499999999999
 31
0.0
  0
LINE
  5
426
  8
0
 62
     7
 10
157.46799999999999
 20
112.43600000000001
 30
0.0
 11
173.411
 21
112.43600000000001
 31
0.0
  0
LINE
  5
427
  8
0
 62
     7
 10
157.46799999999999
 20
109.185
 30
0.0
 11
173.411
 21
109.185
 31
0.0
  0
LINE
  5
428
  8
0
 62
     7
 10
172.71100000000001
 20
116.18899999999999
 30
0.0
 11
172.71100000000001
 21
105.712
 31
0.0
  0
ARC
  5
429
  8
0
 62
     7
 10
-30.365245000000002
 20
-3517.1370000000002
 30
0.0
 40
3631.1399999999999
 50
87.155702000000005
 51
87.181341999999987
  0
ARC
  5
42A
  8
0
 62
     7
 10
-20.660017
 20
-3353.0650000000001
 30
0.0
 40
3466.7890000000002
 50
87.154496999999978
 51
87.181347000000002
  0
ARC
  5
42B
  8
0
 62
     7
 10
-27.119599999999998
 20
-3517.2979999999998
 30
0.0
 40
3631.1399999999999
 50
87.155702000000005
 51
87.181341999999987
  0
ARC
  5
42C
  8
0
 62
     7
 10
-17.414372
 20
-3353.2259999999992
 30
0.0
 40
3466.7890000000002
 50
87.154496999999978
 51
87.181347000000002
  0
ARC
  5
42D
  8
0
 62
     7
 10
155.350686
 20
109.304401
 30
0.0
 40
0.048728
 50
260.21491200000003
 51
268.363922
  0
ARC
  5
42E
  8
0
 62
     7
 10
155.34129999999999
 20
109.309316
 30
0.0
 40
0.052946
 50
263.351652
 51
271.1957470000001
  0
ARC
  5
42F
  8
0
 62
     7
 10
155.35246599999999
 20
109.589164
 30
0.0
 40
0.332887
 50
263.45101699999998
 51
267.02172100000013
  0
LINE
  5
430
  8
0
 62
     7
 10
155.31399999999999
 20
109.258
 30
0.0
 11
155.2939999999999
 21
109.26000000000001
 31
0.0
  0
LINE
  5
431
  8
0
 62
     7
 10
155.2939999999999
 20
109.26000000000001
 30
0.0
 11
155.23500000000001
 21
109.264
 31
0.0
  0
LINE
  5
432
  8
0
 62
     7
 10
155.23500000000001
 20
109.264
 30
0.0
 11
155.17500000000001
 21
109.268
 31
0.0
  0
ARC
  5
433
  8
0
 62
     7
 10
155.39294599999999
 20
113.43880799999999
 30
0.0
 40
4.176404999999999
 50
265.93335500000001
 51
267.008285
  0
LINE
  5
434
  8
0
 62
     7
 10
155.09700000000001
 20
109.273
 30
0.0
 11
155.018
 21
109.277
 31
0.0
  0
ARC
  5
435
  8
0
 62
     7
 10
155.293992
 20
116.461853
 30
0.0
 40
7.1900909999999998
 50
267.17537900000002
 51
267.80191500000001
  0
ARC
  5
436
  8
0
 62
     7
 10
154.56072499999999
 20
99.638831999999994
 30
0.0
 40
9.6491089999999993
 50
87.749261000000004
 51
88.213920999999999
  0
LINE
  5
437
  8
0
 62
     7
 10
154.86099999999999
 20
109.283
 30
0.0
 11
154.80199999999999
 21
109.285
 31
0.0
  0
ARC
  5
438
  8
0
 62
     7
 10
154.58104800000001
 20
102.70925800000001
 30
0.0
 40
6.5797689999999998
 50
88.076778000000004
 51
88.592991000000012
  0
ARC
  5
439
  8
0
 62
     7
 10
154.726418
 20
108.93585400000001
 30
0.0
 40
0.351562
 50
87.360269999999986
 51
90.730028000000004
  0
ARC
  5
43A
  8
0
 62
     7
 10
154.69508400000001
 20
108.79213900000001
 30
0.0
 40
0.4959760000000001
 50
86.896135999999984
 51
89.285539
  0
LINE
  5
43B
  8
0
 62
     7
 10
154.70099999999999
 20
109.288
 30
0.0
 11
154.69399999999999
 21
109.288
 31
0.0
  0
LINE
  5
43C
  8
0
 62
     7
 10
154.69399999999999
 20
109.288
 30
0.0
 11
154.68700000000001
 21
109.288
 31
0.0
  0
LINE
  5
43D
  8
0
 62
     7
 10
155.34899999999999
 20
109.256
 30
0.0
 11
155.70400000000001
 21
109.238
 31
0.0
  0
LINE
  5
43E
  8
0
 62
     7
 10
155.70400000000001
 20
109.238
 30
0.0
 11
156.059
 21
109.221
 31
0.0
  0
ARC
  5
43F
  8
0
 62
     7
 10
166.24684999999999
 20
311.39031
 30
0.0
 40
202.426309
 50
267.11506900000001
 51
267.21562999999998
  0
LINE
  5
440
  8
0
 62
     7
 10
156.41300000000001
 20
109.203
 30
0.0
 11
156.768
 21
109.185
 31
0.0
  0
ARC
  5
441
  8
0
 62
     7
 10
148.210354
 20
109.802564
 30
0.0
 40
0.193628
 50
187.604928
 51
265.60282699999999
  0
ARC
  5
442
  8
0
 62
     7
 10
147.28584900000001
 20
112.233081
 30
0.0
 40
0.7247390000000001
 50
355.24617699999999
 51
355.956413
  0
ARC
  5
443
  8
0
 62
     7
 10
148.20146299999999
 20
112.167372
 30
0.0
 40
0.193174
 50
91.970883999999998
 51
172.788534
  0
ARC
  5
444
  8
0
 62
     7
 10
160.43853200000001
 20
111.02931
 30
0.0
 40
12.482942
 50
174.74307300000001
 51
185.719854
  0
ARC
  5
445
  8
0
 62
     7
 10
147.933695
 20
112.19231600000001
 30
0.0
 40
0.075797
 50
352.1586529999999
 51
358.69350600000001
  0
LINE
  5
446
  8
0
 62
     7
 10
156.768
 20
109.185
 30
0.0
 11
156.768
 21
112.43600000000001
 31
0.0
  0
LINE
  5
447
  8
0
 62
     7
 10
148.19499999999999
 20
112.36
 30
0.0
 11
156.768
 21
112.43600000000001
 31
0.0
  0
ARC
  5
448
  8
0
 62
     7
 10
-30.365245000000002
 20
-3517.1370000000002
 30
0.0
 40
3631.1399999999999
 50
87.155702000000005
 51
87.181341999999987
  0
ARC
  5
449
  8
0
 62
     7
 10
-20.660017
 20
-3353.0650000000001
 30
0.0
 40
3466.7890000000002
 50
87.154496999999978
 51
87.181347000000002
  0
ARC
  5
44A
  8
0
 62
     7
 10
-27.119599999999998
 20
-3517.2979999999998
 30
0.0
 40
3631.1399999999999
 50
87.155702000000005
 51
87.181341999999987
  0
ARC
  5
44B
  8
0
 62
     7
 10
-17.414372
 20
-3353.2259999999992
 30
0.0
 40
3466.7890000000002
 50
87.154496999999978
 51
87.181347000000002
  0
ARC
  5
44C
  8
0
 62
     7
 10
155.350686
 20
109.304401
 30
0.0
 40
0.048728
 50
260.21491200000003
 51
268.363922
  0
ARC
  5
44D
  8
0
 62
     7
 10
155.34129999999999
 20
109.309316
 30
0.0
 40
0.052946
 50
263.351652
 51
271.1957470000001
  0
ARC
  5
44E
  8
0
 62
     7
 10
155.35246599999999
 20
109.589164
 30
0.0
 40
0.332887
 50
263.45101699999998
 51
267.02172100000013
  0
LINE
  5
44F
  8
0
 62
     7
 10
155.31399999999999
 20
109.258
 30
0.0
 11
155.2939999999999
 21
109.26000000000001
 31
0.0
  0
LINE
  5
450
  8
0
 62
     7
 10
155.2939999999999
 20
109.26000000000001
 30
0.0
 11
155.23500000000001
 21
109.264
 31
0.0
  0
LINE
  5
451
  8
0
 62
     7
 10
155.23500000000001
 20
109.264
 30
0.0
 11
155.17500000000001
 21
109.268
 31
0.0
  0
ARC
  5
452
  8
0
 62
     7
 10
155.39294599999999
 20
113.43880799999999
 30
0.0
 40
4.176404999999999
 50
265.93335500000001
 51
267.008285
  0
LINE
  5
453
  8
0
 62
     7
 10
155.09700000000001
 20
109.273
 30
0.0
 11
155.018
 21
109.277
 31
0.0
  0
ARC
  5
454
  8
0
 62
     7
 10
155.293992
 20
116.461853
 30
0.0
 40
7.1900909999999998
 50
267.17537900000002
 51
267.80191500000001
  0
ARC
  5
455
  8
0
 62
     7
 10
154.56072499999999
 20
99.638831999999994
 30
0.0
 40
9.6491089999999993
 50
87.749261000000004
 51
88.213920999999999
  0
LINE
  5
456
  8
0
 62
     7
 10
154.86099999999999
 20
109.283
 30
0.0
 11
154.80199999999999
 21
109.285
 31
0.0
  0
ARC
  5
457
  8
0
 62
     7
 10
154.58104800000001
 20
102.70925800000001
 30
0.0
 40
6.5797689999999998
 50
88.076778000000004
 51
88.592991000000012
  0
ARC
  5
458
  8
0
 62
     7
 10
154.726418
 20
108.93585400000001
 30
0.0
 40
0.351562
 50
87.360269999999986
 51
90.730028000000004
  0
ARC
  5
459
  8
0
 62
     7
 10
154.69508400000001
 20
108.79213900000001
 30
0.0
 40
0.4959760000000001
 50
86.896135999999984
 51
89.285539
  0
LINE
  5
45A
  8
0
 62
     7
 10
154.70099999999999
 20
109.288
 30
0.0
 11
154.69399999999999
 21
109.288
 31
0.0
  0
LINE
  5
45B
  8
0
 62
     7
 10
154.69399999999999
 20
109.288
 30
0.0
 11
154.68700000000001
 21
109.288
 31
0.0
  0
LINE
  5
45C
  8
0
 62
     7
 10
155.34899999999999
 20
109.256
 30
0.0
 11
155.70400000000001
 21
109.238
 31
0.0
  0
LINE
  5
45D
  8
0
 62
     7
 10
155.70400000000001
 20
109.238
 30
0.0
 11
156.059
 21
109.221
 31
0.0
  0
ARC
  5
45E
  8
0
 62
     7
 10
166.24684999999999
 20
311.39031
 30
0.0
 40
202.426309
 50
267.11506900000001
 51
267.21562999999998
  0
LINE
  5
45F
  8
0
 62
     7
 10
156.41300000000001
 20
109.203
 30
0.0
 11
156.768
 21
109.185
 31
0.0
  0
ARC
  5
460
  8
0
 62
     7
 10
148.210354
 20
109.802564
 30
0.0
 40
0.193628
 50
187.604928
 51
265.60282699999999
  0
ARC
  5
461
  8
0
 62
     7
 10
147.28584900000001
 20
112.233081
 30
0.0
 40
0.7247390000000001
 50
355.24617699999999
 51
355.956413
  0
ARC
  5
462
  8
0
 62
     7
 10
148.20146299999999
 20
112.167372
 30
0.0
 40
0.193174
 50
91.970883999999998
 51
172.788534
  0
ARC
  5
463
  8
0
 62
     7
 10
160.43853200000001
 20
111.02931
 30
0.0
 40
12.482942
 50
174.74307300000001
 51
185.719854
  0
ARC
  5
464
  8
0
 62
     7
 10
147.933695
 20
112.19231600000001
 30
0.0
 40
0.075797
 50
352.1586529999999
 51
358.69350600000001
  0
LINE
  5
465
  8
0
 62
     7
 10
156.768
 20
112.417
 30
0.0
 11
156.768
 21
112.43600000000001
 31
0.0
  0
LINE
  5
466
  8
0
 62
     7
 10
148.19499999999999
 20
112.36
 30
0.0
 11
156.768
 21
112.43600000000001
 31
0.0
  0
LINE
  5
467
  8
0
 62
     7
 10
135.13399999999999
 20
151.279
 30
0.0
 11
144.65799999999999
 21
151.279
 31
0.0
  0
LINE
  5
468
  8
0
 62
     7
 10
135.327
 20
160.09100000000001
 30
0.0
 11
144.65799999999999
 21
160.09100000000001
 31
0.0
  0
LINE
  5
469
  8
0
 62
     7
 10
144.55000000000001
 20
157.88
 30
0.0
 11
143.958
 21
160.09100000000001
 31
0.0
  0
LINE
  5
46A
  8
0
 62
     7
 10
143.958
 20
160.09100000000001
 30
0.0
 11
143.36500000000001
 21
157.88
 31
0.0
  0
LINE
  5
46B
  8
0
 62
     7
 10
143.36500000000001
 20
157.88
 30
0.0
 11
144.55000000000001
 21
157.88
 31
0.0
  0
LINE
  5
46C
  8
0
 62
     7
 10
143.36500000000001
 20
153.49000000000001
 30
0.0
 11
143.958
 21
151.279
 31
0.0
  0
LINE
  5
46D
  8
0
 62
     7
 10
143.958
 20
151.279
 30
0.0
 11
144.55000000000001
 21
153.49000000000001
 31
0.0
  0
LINE
  5
46E
  8
0
 62
     7
 10
144.55000000000001
 20
153.49000000000001
 30
0.0
 11
143.36500000000001
 21
153.49000000000001
 31
0.0
  0
LINE
  5
46F
  8
0
 62
     7
 10
143.958
 20
160.09100000000001
 30
0.0
 11
143.958
 21
151.279
 31
0.0
  0
LINE
  5
470
  8
0
 62
     7
 10
133.49000000000001
 20
160.09100000000001
 30
0.0
 11
133.49000000000001
 21
165.30799999999999
 31
0.0
  0
LINE
  5
471
  8
0
 62
     7
 10
133.01499999999999
 20
160.09100000000001
 30
0.0
 11
133.01499999999999
 21
165.30799999999999
 31
0.0
  0
LINE
  5
472
  8
0
 62
     7
 10
132.89099999999999
 20
165.39699999999999
 30
0.0
 11
133.614
 21
165.62299999999999
 31
0.0
  0
LINE
  5
473
  8
0
 62
     7
 10
132.89099999999999
 20
165.00200000000001
 30
0.0
 11
133.614
 21
165.22800000000001
 31
0.0
  0
LINE
  5
474
  8
0
 62
     7
 10
132.89099999999999
 20
164.607
 30
0.0
 11
133.614
 21
164.834
 31
0.0
  0
LINE
  5
475
  8
0
 62
     7
 10
132.89099999999999
 20
164.21299999999999
 30
0.0
 11
133.614
 21
164.43899999999999
 31
0.0
  0
LINE
  5
476
  8
0
 62
     7
 10
132.89099999999999
 20
163.81800000000001
 30
0.0
 11
133.614
 21
164.04400000000001
 31
0.0
  0
LINE
  5
477
  8
0
 62
     7
 10
132.89099999999999
 20
163.423
 30
0.0
 11
133.614
 21
163.649
 31
0.0
  0
LINE
  5
478
  8
0
 62
     7
 10
132.89099999999999
 20
163.02799999999999
 30
0.0
 11
133.614
 21
163.255
 31
0.0
  0
LINE
  5
479
  8
0
 62
     7
 10
132.89099999999999
 20
162.63399999999999
 30
0.0
 11
133.614
 21
162.86000000000001
 31
0.0
  0
LINE
  5
47A
  8
0
  6
AIGENLINE001
 62
     7
 10
133.25200000000001
 20
159.68199999999999
 30
0.0
 11
133.25200000000001
 21
166.465
 31
0.0
  0
LINE
  5
47B
  8
0
 62
     7
 10
133.49000000000001
 20
165.30799999999999
 30
0.0
 11
133.25200000000001
 21
165.96600000000001
 31
0.0
  0
LINE
  5
47C
  8
0
 62
     7
 10
133.01499999999999
 20
165.30799999999999
 30
0.0
 11
133.25200000000001
 21
165.96600000000001
 31
0.0
  0
LINE
  5
47D
  8
0
 62
     7
 10
132.89099999999999
 20
161.84399999999999
 30
0.0
 11
133.614
 21
162.071
 31
0.0
  0
LINE
  5
47E
  8
0
 62
     7
 10
132.89099999999999
 20
162.239
 30
0.0
 11
133.614
 21
162.465
 31
0.0
  0
LINE
  5
47F
  8
0
 62
     7
 10
133.01499999999999
 20
161.59100000000001
 30
0.0
 11
133.49000000000001
 21
161.59100000000001
 31
0.0
  0
LINE
  5
480
  8
0
 62
     7
 10
130.49000000000001
 20
160.09100000000001
 30
0.0
 11
130.49000000000001
 21
165.30799999999999
 31
0.0
  0
LINE
  5
481
  8
0
 62
     7
 10
130.01499999999999
 20
160.09100000000001
 30
0.0
 11
130.01499999999999
 21
165.30799999999999
 31
0.0
  0
LINE
  5
482
  8
0
 62
     7
 10
129.89099999999999
 20
165.39699999999999
 30
0.0
 11
130.614
 21
165.62299999999999
 31
0.0
  0
LINE
  5
483
  8
0
 62
     7
 10
129.89099999999999
 20
165.00200000000001
 30
0.0
 11
130.614
 21
165.22800000000001
 31
0.0
  0
LINE
  5
484
  8
0
 62
     7
 10
129.89099999999999
 20
164.607
 30
0.0
 11
130.614
 21
164.834
 31
0.0
  0
LINE
  5
485
  8
0
 62
     7
 10
129.89099999999999
 20
164.21299999999999
 30
0.0
 11
130.614
 21
164.43899999999999
 31
0.0
  0
LINE
  5
486
  8
0
 62
     7
 10
129.89099999999999
 20
163.81800000000001
 30
0.0
 11
130.614
 21
164.04400000000001
 31
0.0
  0
LINE
  5
487
  8
0
 62
     7
 10
129.89099999999999
 20
163.423
 30
0.0
 11
130.614
 21
163.649
 31
0.0
  0
LINE
  5
488
  8
0
 62
     7
 10
129.89099999999999
 20
163.02799999999999
 30
0.0
 11
130.614
 21
163.255
 31
0.0
  0
LINE
  5
489
  8
0
 62
     7
 10
129.89099999999999
 20
162.63399999999999
 30
0.0
 11
130.614
 21
162.86000000000001
 31
0.0
  0
LINE
  5
48A
  8
0
  6
AIGENLINE001
 62
     7
 10
131.75200000000001
 20
107.474
 30
0.0
 11
131.75200000000001
 21
114.405
 31
0.0
  0
LINE
  5
48B
  8
0
  6
AIGENLINE001
 62
     7
 10
31.751899999999999
 20
107.474
 30
0.0
 11
31.751899999999999
 21
114.405
 31
0.0
  0
LINE
  5
48C
  8
0
  6
AIGENLINE001
 62
     7
 10
131.75200000000001
 20
149.798
 30
0.0
 11
131.75200000000001
 21
161.31899999999999
 31
0.0
  0
LINE
  5
48D
  8
0
  6
AIGENLINE001
 62
     7
 10
31.751899999999999
 20
149.798
 30
0.0
 11
31.751899999999999
 21
161.31899999999999
 31
0.0
  0
LINE
  5
48E
  8
0
  6
AIGENLINE001
 62
     7
 10
130.25200000000001
 20
159.68199999999999
 30
0.0
 11
130.25200000000001
 21
166.465
 31
0.0
  0
LINE
  5
48F
  8
0
 62
     7
 10
130.49000000000001
 20
165.30799999999999
 30
0.0
 11
130.25200000000001
 21
165.96600000000001
 31
0.0
  0
LINE
  5
490
  8
0
 62
     7
 10
130.01499999999999
 20
165.30799999999999
 30
0.0
 11
130.25200000000001
 21
165.96600000000001
 31
0.0
  0
LINE
  5
491
  8
0
 62
     7
 10
129.89099999999999
 20
161.84399999999999
 30
0.0
 11
130.614
 21
162.071
 31
0.0
  0
LINE
  5
492
  8
0
 62
     7
 10
129.89099999999999
 20
162.239
 30
0.0
 11
130.614
 21
162.465
 31
0.0
  0
LINE
  5
493
  8
0
 62
     7
 10
130.01499999999999
 20
161.59100000000001
 30
0.0
 11
130.49000000000001
 21
161.59100000000001
 31
0.0
  0
LINE
  5
494
  8
0
 62
     7
 10
130.25200000000001
 20
167.166
 30
0.0
 11
130.25200000000001
 21
173.20699999999999
 31
0.0
  0
LINE
  5
495
  8
0
 62
     7
 10
133.25200000000001
 20
173.20699999999999
 30
0.0
 11
133.25200000000001
 21
167.166
 31
0.0
  0
LINE
  5
496
  8
0
 62
     7
 10
36.838500000000003
 20
180.03299999999999
 30
0.0
 11
34.6267
 21
179.44
 31
0.0
  0
LINE
  5
497
  8
0
 62
     7
 10
34.6267
 20
179.44
 30
0.0
 11
36.838500000000003
 21
178.84800000000001
 31
0.0
  0
LINE
  5
498
  8
0
 62
     7
 10
36.838500000000003
 20
178.84800000000001
 30
0.0
 11
36.838500000000003
 21
180.03299999999999
 31
0.0
  0
LINE
  5
499
  8
0
 62
     7
 10
131.089
 20
180.03299999999999
 30
0.0
 11
128.87700000000001
 21
179.44
 31
0.0
  0
LINE
  5
49A
  8
0
 62
     7
 10
128.87700000000001
 20
179.44
 30
0.0
 11
131.089
 21
178.84800000000001
 31
0.0
  0
LINE
  5
49B
  8
0
 62
     7
 10
131.089
 20
178.84800000000001
 30
0.0
 11
131.089
 21
180.03299999999999
 31
0.0
  0
LINE
  5
49C
  8
0
 62
     7
 10
126.666
 20
178.84800000000001
 30
0.0
 11
128.87700000000001
 21
179.44
 31
0.0
  0
LINE
  5
49D
  8
0
 62
     7
 10
128.87700000000001
 20
179.44
 30
0.0
 11
126.666
 21
180.03299999999999
 31
0.0
  0
LINE
  5
49E
  8
0
 62
     7
 10
126.666
 20
180.03299999999999
 30
0.0
 11
126.666
 21
178.84800000000001
 31
0.0
  0
LINE
  5
49F
  8
0
 62
     7
 10
132.416
 20
178.84800000000001
 30
0.0
 11
134.62700000000001
 21
179.44
 31
0.0
  0
LINE
  5
4A0
  8
0
 62
     7
 10
134.62700000000001
 20
179.44
 30
0.0
 11
132.416
 21
180.03299999999999
 31
0.0
  0
LINE
  5
4A1
  8
0
 62
     7
 10
132.416
 20
180.03299999999999
 30
0.0
 11
132.416
 21
178.84800000000001
 31
0.0
  0
LINE
  5
4A2
  8
0
 62
     7
 10
135.464
 20
173.09999999999999
 30
0.0
 11
133.25200000000001
 21
172.50700000000001
 31
0.0
  0
LINE
  5
4A3
  8
0
 62
     7
 10
133.25200000000001
 20
172.50700000000001
 30
0.0
 11
135.464
 21
171.91499999999999
 31
0.0
  0
LINE
  5
4A4
  8
0
 62
     7
 10
135.464
 20
171.91499999999999
 30
0.0
 11
135.464
 21
173.09999999999999
 31
0.0
  0
LINE
  5
4A5
  8
0
 62
     7
 10
128.041
 20
171.91499999999999
 30
0.0
 11
130.25200000000001
 21
172.50700000000001
 31
0.0
  0
LINE
  5
4A6
  8
0
 62
     7
 10
130.25200000000001
 20
172.50700000000001
 30
0.0
 11
128.041
 21
173.09999999999999
 31
0.0
  0
LINE
  5
4A7
  8
0
 62
     7
 10
128.041
 20
173.09999999999999
 30
0.0
 11
128.041
 21
171.91499999999999
 31
0.0
  0
LINE
  5
4A8
  8
0
 62
     7
 10
126.637
 20
172.50700000000001
 30
0.0
 11
136.65700000000001
 21
172.50700000000001
 31
0.0
  0
LINE
  5
4A9
  8
0
 62
     7
 10
128.87700000000001
 20
160.791
 30
0.0
 11
128.87700000000001
 21
180.13999999999999
 31
0.0
  0
LINE
  5
4AA
  8
0
 62
     7
 10
33.4893
 20
160.09100000000001
 30
0.0
 11
33.4893
 21
165.30799999999999
 31
0.0
  0
LINE
  5
4AB
  8
0
 62
     7
 10
33.014200000000002
 20
160.09100000000001
 30
0.0
 11
33.014200000000002
 21
165.30799999999999
 31
0.0
  0
LINE
  5
4AC
  8
0
 62
     7
 10
32.8902
 20
165.39699999999999
 30
0.0
 11
33.613700000000001
 21
165.62299999999999
 31
0.0
  0
LINE
  5
4AD
  8
0
 62
     7
 10
32.8902
 20
165.00200000000001
 30
0.0
 11
33.613700000000001
 21
165.22800000000001
 31
0.0
  0
LINE
  5
4AE
  8
0
 62
     7
 10
32.8902
 20
164.607
 30
0.0
 11
33.613700000000001
 21
164.834
 31
0.0
  0
LINE
  5
4AF
  8
0
 62
     7
 10
32.8902
 20
164.21299999999999
 30
0.0
 11
33.613700000000001
 21
164.43899999999999
 31
0.0
  0
LINE
  5
4B0
  8
0
 62
     7
 10
32.8902
 20
163.81800000000001
 30
0.0
 11
33.613700000000001
 21
164.04400000000001
 31
0.0
  0
LINE
  5
4B1
  8
0
 62
     7
 10
32.8902
 20
163.423
 30
0.0
 11
33.613700000000001
 21
163.649
 31
0.0
  0
LINE
  5
4B2
  8
0
 62
     7
 10
32.8902
 20
163.02799999999999
 30
0.0
 11
33.613700000000001
 21
163.255
 31
0.0
  0
LINE
  5
4B3
  8
0
 62
     7
 10
32.8902
 20
162.63399999999999
 30
0.0
 11
33.613700000000001
 21
162.86000000000001
 31
0.0
  0
LINE
  5
4B4
  8
0
  6
AIGENLINE001
 62
     7
 10
33.251899999999999
 20
159.68199999999999
 30
0.0
 11
33.251899999999999
 21
166.465
 31
0.0
  0
LINE
  5
4B5
  8
0
 62
     7
 10
33.4893
 20
165.30799999999999
 30
0.0
 11
33.251899999999999
 21
165.96600000000001
 31
0.0
  0
LINE
  5
4B6
  8
0
 62
     7
 10
33.014200000000002
 20
165.30799999999999
 30
0.0
 11
33.251899999999999
 21
165.96600000000001
 31
0.0
  0
LINE
  5
4B7
  8
0
 62
     7
 10
32.8902
 20
161.84399999999999
 30
0.0
 11
33.613700000000001
 21
162.071
 31
0.0
  0
LINE
  5
4B8
  8
0
 62
     7
 10
32.8902
 20
162.239
 30
0.0
 11
33.613700000000001
 21
162.465
 31
0.0
  0
LINE
  5
4B9
  8
0
 62
     7
 10
33.014200000000002
 20
161.59100000000001
 30
0.0
 11
33.4893
 21
161.59100000000001
 31
0.0
  0
LINE
  5
4BA
  8
0
 62
     7
 10
30.4893
 20
160.09100000000001
 30
0.0
 11
30.4893
 21
165.30799999999999
 31
0.0
  0
LINE
  5
4BB
  8
0
 62
     7
 10
30.014199999999999
 20
160.09100000000001
 30
0.0
 11
30.014199999999999
 21
165.30799999999999
 31
0.0
  0
LINE
  5
4BC
  8
0
 62
     7
 10
29.8902
 20
165.39699999999999
 30
0.0
 11
30.613700000000001
 21
165.62299999999999
 31
0.0
  0
LINE
  5
4BD
  8
0
 62
     7
 10
29.8902
 20
165.00200000000001
 30
0.0
 11
30.613700000000001
 21
165.22800000000001
 31
0.0
  0
LINE
  5
4BE
  8
0
 62
     7
 10
29.8902
 20
164.607
 30
0.0
 11
30.613700000000001
 21
164.834
 31
0.0
  0
LINE
  5
4BF
  8
0
 62
     7
 10
29.8902
 20
164.21299999999999
 30
0.0
 11
30.613700000000001
 21
164.43899999999999
 31
0.0
  0
LINE
  5
4C0
  8
0
 62
     7
 10
29.8902
 20
163.81800000000001
 30
0.0
 11
30.613700000000001
 21
164.04400000000001
 31
0.0
  0
LINE
  5
4C1
  8
0
 62
     7
 10
29.8902
 20
163.423
 30
0.0
 11
30.613700000000001
 21
163.649
 31
0.0
  0
LINE
  5
4C2
  8
0
 62
     7
 10
29.8902
 20
163.02799999999999
 30
0.0
 11
30.613700000000001
 21
163.255
 31
0.0
  0
LINE
  5
4C3
  8
0
 62
     7
 10
29.8902
 20
162.63399999999999
 30
0.0
 11
30.613700000000001
 21
162.86000000000001
 31
0.0
  0
LINE
  5
4C4
  8
0
  6
AIGENLINE001
 62
     7
 10
30.251899999999999
 20
159.68199999999999
 30
0.0
 11
30.251899999999999
 21
166.465
 31
0.0
  0
LINE
  5
4C5
  8
0
 62
     7
 10
30.4893
 20
165.30799999999999
 30
0.0
 11
30.251899999999999
 21
165.96600000000001
 31
0.0
  0
LINE
  5
4C6
  8
0
 62
     7
 10
30.014199999999999
 20
165.30799999999999
 30
0.0
 11
30.251899999999999
 21
165.96600000000001
 31
0.0
  0
LINE
  5
4C7
  8
0
 62
     7
 10
29.8902
 20
161.84399999999999
 30
0.0
 11
30.613700000000001
 21
162.071
 31
0.0
  0
LINE
  5
4C8
  8
0
 62
     7
 10
29.8902
 20
162.239
 30
0.0
 11
30.613700000000001
 21
162.465
 31
0.0
  0
LINE
  5
4C9
  8
0
 62
     7
 10
30.014199999999999
 20
161.59100000000001
 30
0.0
 11
30.4893
 21
161.59100000000001
 31
0.0
  0
LINE
  5
4CA
  8
0
 62
     7
 10
30.251899999999999
 20
167.166
 30
0.0
 11
30.251899999999999
 21
173.20699999999999
 31
0.0
  0
LINE
  5
4CB
  8
0
 62
     7
 10
33.251899999999999
 20
173.20699999999999
 30
0.0
 11
33.251899999999999
 21
167.166
 31
0.0
  0
LINE
  5
4CC
  8
0
 62
     7
 10
31.088200000000001
 20
180.03299999999999
 30
0.0
 11
28.8766
 21
179.44
 31
0.0
  0
LINE
  5
4CD
  8
0
 62
     7
 10
28.8766
 20
179.44
 30
0.0
 11
31.088200000000001
 21
178.84800000000001
 31
0.0
  0
LINE
  5
4CE
  8
0
 62
     7
 10
31.088200000000001
 20
178.84800000000001
 30
0.0
 11
31.088200000000001
 21
180.03299999999999
 31
0.0
  0
LINE
  5
4CF
  8
0
 62
     7
 10
32.415100000000002
 20
178.84800000000001
 30
0.0
 11
34.6267
 21
179.44
 31
0.0
  0
LINE
  5
4D0
  8
0
 62
     7
 10
34.6267
 20
179.44
 30
0.0
 11
32.415100000000002
 21
180.03299999999999
 31
0.0
  0
LINE
  5
4D1
  8
0
 62
     7
 10
32.415100000000002
 20
180.03299999999999
 30
0.0
 11
32.415100000000002
 21
178.84800000000001
 31
0.0
  0
LINE
  5
4D2
  8
0
 62
     7
 10
28.8766
 20
179.44
 30
0.0
 11
134.62700000000001
 21
179.44
 31
0.0
  0
LINE
  5
4D3
  8
0
 62
     7
 10
35.463500000000003
 20
173.09999999999999
 30
0.0
 11
33.251899999999999
 21
172.50700000000001
 31
0.0
  0
LINE
  5
4D4
  8
0
 62
     7
 10
33.251899999999999
 20
172.50700000000001
 30
0.0
 11
35.463500000000003
 21
171.91499999999999
 31
0.0
  0
LINE
  5
4D5
  8
0
 62
     7
 10
35.463500000000003
 20
171.91499999999999
 30
0.0
 11
35.463500000000003
 21
173.09999999999999
 31
0.0
  0
LINE
  5
4D6
  8
0
 62
     7
 10
28.040299999999998
 20
171.91499999999999
 30
0.0
 11
30.251899999999999
 21
172.50700000000001
 31
0.0
  0
LINE
  5
4D7
  8
0
 62
     7
 10
30.251899999999999
 20
172.50700000000001
 30
0.0
 11
28.040299999999998
 21
173.09999999999999
 31
0.0
  0
LINE
  5
4D8
  8
0
 62
     7
 10
28.040299999999998
 20
173.09999999999999
 30
0.0
 11
28.040299999999998
 21
171.91499999999999
 31
0.0
  0
LINE
  5
4D9
  8
0
 62
     7
 10
26.446100000000001
 20
172.50700000000001
 30
0.0
 11
37.059100000000001
 21
172.50700000000001
 31
0.0
  0
LINE
  5
4DA
  8
0
 62
     7
 10
134.62700000000001
 20
160.791
 30
0.0
 11
134.62700000000001
 21
188.55699999999999
 31
0.0
  0
LINE
  5
4DB
  8
0
 62
     7
 10
34.6267
 20
160.791
 30
0.0
 11
34.6267
 21
180.13999999999999
 31
0.0
  0
LINE
  5
4DC
  8
0
 62
     7
 10
28.8766
 20
160.791
 30
0.0
 11
28.8766
 21
188.55699999999999
 31
0.0
  0
LINE
  5
4DD
  8
0
 62
     7
 10
31.088200000000001
 20
188.44999999999999
 30
0.0
 11
28.8766
 21
187.857
 31
0.0
  0
LINE
  5
4DE
  8
0
 62
     7
 10
28.8766
 20
187.857
 30
0.0
 11
31.088200000000001
 21
187.26499999999999
 31
0.0
  0
LINE
  5
4DF
  8
0
 62
     7
 10
31.088200000000001
 20
187.26499999999999
 30
0.0
 11
31.088200000000001
 21
188.44999999999999
 31
0.0
  0
LINE
  5
4E0
  8
0
 62
     7
 10
132.66200000000001
 20
187.33099999999999
 30
0.0
 11
134.87299999999999
 21
187.923
 31
0.0
  0
LINE
  5
4E1
  8
0
 62
     7
 10
134.87299999999999
 20
187.923
 30
0.0
 11
132.66200000000001
 21
188.51599999999999
 31
0.0
  0
LINE
  5
4E2
  8
0
 62
     7
 10
132.66200000000001
 20
188.51599999999999
 30
0.0
 11
132.66200000000001
 21
187.33099999999999
 31
0.0
  0
LINE
  5
4E3
  8
0
 62
     7
 10
28.8766
 20
187.857
 30
0.0
 11
134.62700000000001
 21
187.857
 31
0.0
  0
LINE
  5
4E4
  8
0
 62
     7
 10
128.952
 20
151.53299999999999
 30
0.0
 11
128.952
 21
151.535
 31
0.0
  0
LINE
  5
4E5
  8
0
 62
     7
 10
128.952
 20
151.535
 30
0.0
 11
128.952
 21
151.53800000000001
 31
0.0
  0
ARC
  5
4E6
  8
0
 62
     7
 10
128.91832500000001
 20
151.54335699999999
 30
0.0
 40
0.034142
 50
351.78446300000002
 51
1.0628690000000001
  0
ARC
  5
4E7
  8
0
 62
     7
 10
129.01768899999999
 20
151.54271800000001
 30
0.0
 40
0.06524
 50
171.59057200000001
 51
178.88210599999999
  0
LINE
  5
4E8
  8
0
 62
     7
 10
128.953
 20
151.55199999999999
 30
0.0
 11
128.95400000000001
 21
151.56999999999999
 31
0.0
  0
ARC
  5
4E9
  8
0
 62
     7
 10
129.33598799999999
 20
151.55140900000001
 30
0.0
 40
0.382247
 50
173.896705
 51
177.23792
  0
ARC
  5
4EA
  8
0
 62
     7
 10
135.98440500000001
 20
151.119496
 30
0.0
 40
7.0443660000000001
 50
175.91058000000001
 51
176.15354500000001
  0
ARC
  5
4EB
  8
0
 62
     7
 10
130.438751
 20
151.53610699999999
 30
0.0
 40
1.483258
 50
175.34530599999999
 51
176.68602300000001
  0
LINE
  5
4EC
  8
0
 62
     7
 10
128.96000000000001
 20
151.65600000000001
 30
0.0
 11
128.96299999999999
 21
151.696
 31
0.0
  0
LINE
  5
4ED
  8
0
 62
     7
 10
128.96299999999999
 20
151.696
 30
0.0
 11
128.96600000000001
 21
151.739
 31
0.0
  0
ARC
  5
4EE
  8
0
 62
     7
 10
124.04828000000001
 20
152.08795599999999
 30
0.0
 40
4.9300090000000001
 50
355.93689799999999
 51
356.61498599999999
  0
LINE
  5
4EF
  8
0
 62
     7
 10
128.97
 20
151.797
 30
0.0
 11
128.97300000000001
 21
151.86000000000001
 31
0.0
  0
ARC
  5
4F0
  8
0
 62
     7
 10
122.516659
 20
152.25332900000001
 30
0.0
 40
6.4684169999999988
 50
356.51759399999997
 51
357.122747
  0
ARC
  5
4F1
  8
0
 62
     7
 10
121.430992
 20
152.34704300000001
 30
0.0
 40
7.5575210000000004
 50
356.826324
 51
357.396433
  0
ARC
  5
4F2
  8
0
 62
     7
 10
124.601927
 20
152.23414600000001
 30
0.0
 40
4.384843
 50
356.98796800000002
 51
358.02209299999998
  0
ARC
  5
4F3
  8
0
 62
     7
 10
172.38283799999999
 20
150.503681
 30
0.0
 40
43.427401000000003
 50
177.806489
 51
177.91610700000001
  0
ARC
  5
4F4
  8
0
 62
     7
 10
103.641013
 20
152.951302
 30
0.0
 40
25.358412000000001
 50
358.22499900000008
 51
358.52714100000009
  0
ARC
  5
4F5
  8
0
 62
     7
 10
118.095961
 20
152.56225900000001
 30
0.0
 40
10.898254
 50
358.61847899999998
 51
359.32497100000001
  0
LINE
  5
4F6
  8
0
 62
     7
 10
128.99299999999999
 20
152.434
 30
0.0
 11
128.994
 21
152.48400000000001
 31
0.0
  0
LINE
  5
4F7
  8
0
 62
     7
 10
128.994
 20
152.48400000000001
 30
0.0
 11
128.994
 21
152.53100000000001
 31
0.0
  0
LINE
  5
4F8
  8
0
 62
     7
 10
128.994
 20
152.53100000000001
 30
0.0
 11
128.994
 21
152.57499999999999
 31
0.0
  0
LINE
  5
4F9
  8
0
 62
     7
 10
128.994
 20
152.57499999999999
 30
0.0
 11
128.994
 21
152.60599999999999
 31
0.0
  0
LINE
  5
4FA
  8
0
 62
     7
 10
128.994
 20
152.60599999999999
 30
0.0
 11
128.994
 21
152.63999999999999
 31
0.0
  0
LINE
  5
4FB
  8
0
 62
     7
 10
128.994
 20
152.63999999999999
 30
0.0
 11
128.994
 21
152.678
 31
0.0
  0
LINE
  5
4FC
  8
0
 62
     7
 10
128.994
 20
152.678
 30
0.0
 11
128.994
 21
152.71799999999999
 31
0.0
  0
ARC
  5
4FD
  8
0
 62
     7
 10
120.61914299999999
 20
152.65377100000001
 30
0.0
 40
8.3752519999999997
 50
0.43999
 51
1.242583999999999
  0
ARC
  5
4FE
  8
0
 62
     7
 10
78.411989000000005
 20
151.821054
 30
0.0
 40
50.590604999999996
 50
1.148854
 51
1.2778350000000001
  0
ARC
  5
4FF
  8
0
 62
     7
 10
112.069146
 20
152.476563
 30
0.0
 40
16.927468999999999
 50
1.6001620000000001
 51
1.9740779999999989
  0
LINE
  5
500
  8
0
 62
     7
 10
128.98699999999999
 20
153.06
 30
0.0
 11
128.982
 21
153.166
 31
0.0
  0
LINE
  5
501
  8
0
 62
     7
 10
128.982
 20
153.166
 30
0.0
 11
128.977
 21
153.27000000000001
 31
0.0
  0
ARC
  5
502
  8
0
 62
     7
 10
118.985839
 20
152.77829
 30
0.0
 40
10.003503
 50
2.8154289999999991
 51
3.2965919999999991
  0
ARC
  5
503
  8
0
 62
     7
 10
124.608582
 20
153.126992
 30
0.0
 40
4.370082
 50
2.9715599999999989
 51
4.0101219999999991
  0
LINE
  5
504
  8
0
 62
     7
 10
128.96799999999999
 20
153.43299999999999
 30
0.0
 11
128.96299999999999
 21
153.50700000000001
 31
0.0
  0
LINE
  5
505
  8
0
 62
     7
 10
128.96299999999999
 20
153.50700000000001
 30
0.0
 11
128.958
 21
153.57400000000001
 31
0.0
  0
ARC
  5
506
  8
0
 62
     7
 10
135.02404999999999
 20
154.06842700000001
 30
0.0
 40
6.0858610000000004
 50
184.06445600000001
 51
184.66135800000001
  0
LINE
  5
507
  8
0
 62
     7
 10
128.953
 20
153.637
 30
0.0
 11
128.94900000000001
 21
153.696
 31
0.0
  0
LINE
  5
508
  8
0
 62
     7
 10
128.94900000000001
 20
153.696
 30
0.0
 11
128.94499999999999
 21
153.739
 31
0.0
  0
LINE
  5
509
  8
0
 62
     7
 10
128.94499999999999
 20
153.739
 30
0.0
 11
128.94200000000001
 21
153.77699999999999
 31
0.0
  0
LINE
  5
50A
  8
0
 62
     7
 10
128.94200000000001
 20
153.77699999999999
 30
0.0
 11
128.93899999999999
 21
153.81200000000001
 31
0.0
  0
LINE
  5
50B
  8
0
 62
     7
 10
128.93899999999999
 20
153.81200000000001
 30
0.0
 11
128.93600000000001
 21
153.84100000000001
 31
0.0
  0
LINE
  5
50C
  8
0
 62
     7
 10
128.93600000000001
 20
153.84100000000001
 30
0.0
 11
128.934
 21
153.863
 31
0.0
  0
LINE
  5
50D
  8
0
 62
     7
 10
128.934
 20
153.863
 30
0.0
 11
128.93199999999999
 21
153.88
 31
0.0
  0
ARC
  5
50E
  8
0
 62
     7
 10
128.89559
 20
153.88118499999999
 30
0.0
 40
0.036905
 50
358.352982
 51
8.0066769999999998
  0
LINE
  5
50F
  8
0
 62
     7
 10
128.93199999999999
 20
153.886
 30
0.0
 11
128.93199999999999
 21
153.89099999999999
 31
0.0
  0
LINE
  5
510
  8
0
 62
     7
 10
128.93199999999999
 20
153.89099999999999
 30
0.0
 11
128.93100000000001
 21
153.89599999999999
 31
0.0
  0
LINE
  5
511
  8
0
 62
     7
 10
128.93100000000001
 20
153.89599999999999
 30
0.0
 11
128.93100000000001
 21
153.899
 31
0.0
  0
ARC
  5
512
  8
0
 62
     7
 10
129.17315400000001
 20
151.49949000000001
 30
0.0
 40
0.220923
 50
182.62155899999999
 51
267.89149400000002
  0
ARC
  5
513
  8
0
 62
     7
 10
133.521165
 20
152.316958
 30
0.0
 40
1.0389399999999991
 50
272.10206799999997
 51
357.41217799999998
  0
LINE
  5
514
  8
0
 62
     7
 10
128.93100000000001
 20
153.899
 30
0.0
 11
128.87700000000001
 21
160.09100000000001
 31
0.0
  0
LINE
  5
515
  8
0
 62
     7
 10
129.16499999999999
 20
151.279
 30
0.0
 11
133.559
 21
151.279
 31
0.0
  0
LINE
  5
516
  8
0
 62
     7
 10
128.952
 20
151.489
 30
0.0
 11
128.952
 21
151.53299999999999
 31
0.0
  0
LINE
  5
517
  8
0
 62
     7
 10
134.62700000000001
 20
160.09100000000001
 30
0.0
 11
128.87700000000001
 21
160.09100000000001
 31
0.0
  0
LINE
  5
518
  8
0
 62
     7
 10
134.559
 20
152.27000000000001
 30
0.0
 11
134.62700000000001
 21
160.09100000000001
 31
0.0
  0
LINE
  5
519
  8
0
 62
     7
 10
34.572800000000001
 20
153.899
 30
0.0
 11
34.572800000000001
 21
153.89599999999999
 31
0.0
  0
ARC
  5
51A
  8
0
 62
     7
 10
34.600973000000003
 20
153.89203499999999
 30
0.0
 40
0.028537
 50
171.02156600000001
 51
181.08806299999989
  0
ARC
  5
51B
  8
0
 62
     7
 10
34.601469000000002
 20
153.88696299999989
 30
0.0
 40
0.02938
 50
171.129189
 51
181.24266299999999
  0
ARC
  5
51C
  8
0
 62
     7
 10
34.608744000000002
 20
153.8791149999999
 30
0.0
 40
0.03735
 50
168.86857499999999
 51
178.45100299999999
  0
LINE
  5
51D
  8
0
 62
     7
 10
34.571399999999997
 20
153.88
 30
0.0
 11
34.57
 21
153.863
 31
0.0
  0
LINE
  5
51E
  8
0
 62
     7
 10
34.57
 20
153.863
 30
0.0
 11
34.568000000000012
 21
153.84100000000001
 31
0.0
  0
LINE
  5
51F
  8
0
 62
     7
 10
34.568000000000012
 20
153.84100000000001
 30
0.0
 11
34.565600000000003
 21
153.81200000000001
 31
0.0
  0
LINE
  5
520
  8
0
 62
     7
 10
34.565600000000003
 20
153.81200000000001
 30
0.0
 11
34.562399999999997
 21
153.77699999999999
 31
0.0
  0
LINE
  5
521
  8
0
 62
     7
 10
34.562399999999997
 20
153.77699999999999
 30
0.0
 11
34.558999999999997
 21
153.739
 31
0.0
  0
ARC
  5
522
  8
0
 62
     7
 10
31.432931
 20
153.968208
 30
0.0
 40
3.134487
 50
355.01451100000003
 51
355.80106599999999
  0
ARC
  5
523
  8
0
 62
     7
 10
39.703665999999998
 20
153.24352500000001
 30
0.0
 40
5.1679360000000001
 50
174.97916000000001
 51
175.63258500000001
  0
ARC
  5
524
  8
0
 62
     7
 10
40.616467999999998
 20
153.14249799999999
 30
0.0
 40
6.0858610000000004
 50
175.33864199999999
 51
175.93554399999999
  0
ARC
  5
525
  8
0
 62
     7
 10
40.773684000000003
 20
153.09402600000001
 30
0.0
 40
6.2462279999999986
 50
175.59425200000001
 51
176.21364800000001
  0
ARC
  5
526
  8
0
 62
     7
 10
42.216448999999997
 20
152.96843899999999
 30
0.0
 40
7.6941949999999988
 50
175.98996199999999
 51
176.54142300000001
  0
ARC
  5
527
  8
0
 62
     7
 10
45.563772999999998
 20
152.72022200000001
 30
0.0
 40
11.050492
 50
176.30378400000001
 51
176.714494
  0
ARC
  5
528
  8
0
 62
     7
 10
48.178702999999999
 20
152.52680799999999
 30
0.0
 40
13.672276999999999
 50
176.53332499999999
 51
176.88545500000001
  0
ARC
  5
529
  8
0
 62
     7
 10
49.912337999999991
 20
152.49874800000001
 30
0.0
 40
15.405018
 50
177.13157100000001
 51
177.51575199999999
  0
ARC
  5
52A
  8
0
 62
     7
 10
39.875293999999997
 20
152.90575699999999
 30
0.0
 40
5.3598410000000003
 50
177.21191999999999
 51
178.35445300000001
  0
ARC
  5
52B
  8
0
 62
     7
 10
43.017503999999988
 20
152.73920200000001
 30
0.0
 40
8.5058790000000002
 50
177.84079399999999
 51
178.584926
  0
ARC
  5
52C
  8
0
 62
     7
 10
62.276055000000007
 20
152.220294
 30
0.0
 40
27.771405999999999
 50
178.49587500000001
 51
178.730853
  0
ARC
  5
52D
  8
0
 62
     7
 10
44.222233000000003
 20
152.662655
 30
0.0
 40
9.7123069999999991
 50
178.980895
 51
179.67297099999999
  0
ARC
  5
52E
  8
0
 62
     7
 10
35.759419000000001
 20
152.687253
 30
0.0
 40
1.249716
 50
178.58621199999999
 51
180.43439699999999
  0
ARC
  5
52F
  8
0
 62
     7
 10
35.599547000000001
 20
152.64900299999999
 30
0.0
 40
1.090187
 50
178.487471
 51
180.46126000000001
  0
LINE
  5
530
  8
0
 62
     7
 10
34.509399999999999
 20
152.63999999999999
 30
0.0
 11
34.509399999999999
 21
152.60599999999999
 31
0.0
  0
LINE
  5
531
  8
0
 62
     7
 10
34.509399999999999
 20
152.60599999999999
 30
0.0
 11
34.509399999999999
 21
152.57499999999999
 31
0.0
  0
ARC
  5
532
  8
0
 62
     7
 10
37.030614999999997
 20
152.57307399999999
 30
0.0
 40
2.5212209999999988
 50
179.96144000000001
 51
180.9479979999999
  0
ARC
  5
533
  8
0
 62
     7
 10
37.514316000000001
 20
152.52969200000001
 30
0.0
 40
3.0045759999999988
 50
179.96815100000001
 51
180.868269
  0
LINE
  5
534
  8
0
 62
     7
 10
34.510100000000001
 20
152.48400000000001
 30
0.0
 11
34.510399999999997
 21
152.434
 31
0.0
  0
ARC
  5
535
  8
0
 62
     7
 10
47.375962000000001
 20
152.63056499999999
 30
0.0
 40
12.867037
 50
180.87594300000001
 51
181.47436300000001
  0
ARC
  5
536
  8
0
 62
     7
 10
50.021417999999997
 20
152.672282
 30
0.0
 40
15.512713
 50
181.37699499999999
 51
181.870904
  0
ARC
  5
537
  8
0
 62
     7
 10
38.259019000000002
 20
152.26400699999999
 30
0.0
 40
3.7433320000000001
 50
181.50283400000001
 51
182.77457000000001
  0
ARC
  5
538
  8
0
 62
     7
 10
46.336295
 20
152.55806699999999
 30
0.0
 40
11.825773999999999
 50
182.30327199999991
 51
182.68670700000001
  0
LINE
  5
539
  8
0
 62
     7
 10
34.523499999999999
 20
152.00399999999999
 30
0.0
 11
34.527000000000001
 21
151.929
 31
0.0
  0
LINE
  5
53A
  8
0
 62
     7
 10
34.527000000000001
 20
151.929
 30
0.0
 11
34.530799999999999
 21
151.86000000000001
 31
0.0
  0
ARC
  5
53B
  8
0
 62
     7
 10
28.785664000000001
 20
151.48516000000001
 30
0.0
 40
5.7573339999999993
 50
3.1052309999999999
 51
3.7372059999999991
  0
ARC
  5
53C
  8
0
 62
     7
 10
37.048687000000001
 20
151.93087399999999
 30
0.0
 40
2.517703
 50
183.04726099999999
 51
184.378985
  0
ARC
  5
53D
  8
0
 62
     7
 10
35.946627999999997
 20
151.80715000000001
 30
0.0
 40
1.4099589999999991
 50
182.78514699999999
 51
184.5387629999999
  0
ARC
  5
53E
  8
0
 62
     7
 10
35.741748999999999
 20
151.76101600000001
 30
0.0
 40
1.2024410000000001
 50
183.11974499999991
 51
184.97945799999999
  0
ARC
  5
53F
  8
0
 62
     7
 10
36.082569999999997
 20
151.74580900000001
 30
0.0
 40
1.541304999999999
 50
183.3163689999999
 51
184.612979
  0
ARC
  5
540
  8
0
 62
     7
 10
16.39425499999999
 20
150.34778
 30
0.0
 40
18.196660999999999
 50
3.9208889999999998
 51
4.0149460000000001
  0
ARC
  5
541
  8
0
 62
     7
 10
34.955697999999998
 20
151.61245199999999
 30
0.0
 40
0.4078840000000001
 50
182.867109
 51
185.998266
  0
LINE
  5
542
  8
0
 62
     7
 10
34.549999999999997
 20
151.56999999999999
 30
0.0
 11
34.551099999999998
 21
151.55199999999999
 31
0.0
  0
ARC
  5
543
  8
0
 62
     7
 10
34.489212999999999
 20
151.54553999999999
 30
0.0
 40
0.062232
 50
358.57360299999999
 51
6.1982839999999992
  0
ARC
  5
544
  8
0
 62
     7
 10
34.519688000000002
 20
151.53924000000001
 30
0.0
 40
0.032091
 50
358.63983200000001
 51
8.5128360000000001
  0
LINE
  5
545
  8
0
 62
     7
 10
34.5518
 20
151.53800000000001
 30
0.0
 11
34.55210000000001
 21
151.535
 31
0.0
  0
LINE
  5
546
  8
0
 62
     7
 10
34.55210000000001
 20
151.535
 30
0.0
 11
34.55210000000001
 21
151.53299999999999
 31
0.0
  0
ARC
  5
547
  8
0
 62
     7
 10
34.330872999999997
 20
151.499697
 30
0.0
 40
0.221138
 50
272.15969999999999
 51
357.32728700000001
  0
ARC
  5
548
  8
0
 62
     7
 10
29.982641999999998
 20
152.316889
 30
0.0
 40
1.038856
 50
182.58426499999999
 51
267.921269
  0
LINE
  5
549
  8
0
 62
     7
 10
28.8766
 20
160.09100000000001
 30
0.0
 11
34.626899999999999
 21
160.09100000000001
 31
0.0
  0
LINE
  5
54A
  8
0
 62
     7
 10
28.944800000000001
 20
152.27000000000001
 30
0.0
 11
28.8766
 21
160.09100000000001
 31
0.0
  0
LINE
  5
54B
  8
0
 62
     7
 10
34.572800000000001
 20
153.899
 30
0.0
 11
34.626899999999999
 21
160.09100000000001
 31
0.0
  0
LINE
  5
54C
  8
0
 62
     7
 10
34.339199999999998
 20
151.279
 30
0.0
 11
29.945
 21
151.279
 31
0.0
  0
LINE
  5
54D
  8
0
 62
     7
 10
34.5518
 20
151.489
 30
0.0
 11
34.55210000000001
 21
151.53299999999999
 31
0.0
  0
LINE
  5
54E
  8
0
 62
     7
 10
128.95599999999999
 20
151.59100000000001
 30
0.0
 11
34.548299999999998
 21
151.59100000000001
 31
0.0
  0
LINE
  5
54F
  8
0
 62
     7
 10
128.93600000000001
 20
153.84100000000001
 30
0.0
 11
34.571399999999997
 21
153.84100000000001
 31
0.0
  0
LINE
  5
550
  8
0
 62
     7
 10
172.119
 20
114.646
 30
0.0
 11
172.71100000000001
 21
112.43600000000001
 31
0.0
  0
LINE
  5
551
  8
0
 62
     7
 10
172.71100000000001
 20
112.43600000000001
 30
0.0
 11
173.304
 21
114.646
 31
0.0
  0
LINE
  5
552
  8
0
 62
     7
 10
173.304
 20
114.646
 30
0.0
 11
172.119
 21
114.646
 31
0.0
  0
LINE
  5
553
  8
0
 62
     7
 10
173.303
 20
106.97499999999999
 30
0.0
 11
172.71100000000001
 21
109.185
 31
0.0
  0
LINE
  5
554
  8
0
 62
     7
 10
172.71100000000001
 20
109.185
 30
0.0
 11
172.11799999999999
 21
106.97499999999999
 31
0.0
  0
LINE
  5
555
  8
0
 62
     7
 10
172.11799999999999
 20
106.97499999999999
 30
0.0
 11
173.303
 21
106.97499999999999
 31
0.0
  0
LINE
  5
556
  8
0
 62
     7
 10
100.268
 20
156.05199999999999
 30
0.0
 11
100.86
 21
153.84100000000001
 31
0.0
  0
LINE
  5
557
  8
0
 62
     7
 10
100.86
 20
153.84100000000001
 30
0.0
 11
101.453
 21
156.05199999999999
 31
0.0
  0
LINE
  5
558
  8
0
 62
     7
 10
101.453
 20
156.05199999999999
 30
0.0
 11
100.268
 21
156.05199999999999
 31
0.0
  0
LINE
  5
559
  8
0
 62
     7
 10
101.452
 20
149.381
 30
0.0
 11
100.86
 21
151.59100000000001
 31
0.0
  0
LINE
  5
55A
  8
0
 62
     7
 10
100.86
 20
151.59100000000001
 30
0.0
 11
100.267
 21
149.381
 31
0.0
  0
LINE
  5
55B
  8
0
 62
     7
 10
100.267
 20
149.381
 30
0.0
 11
101.452
 21
149.381
 31
0.0
  0
LINE
  5
55C
  8
0
 62
     7
 10
100.86
 20
147.596
 30
0.0
 11
100.86
 21
161.083
 31
0.0
  0
TEXT
  5
55D
  8
_________2
 62
     7
 10
22.214099999999998
 20
40.677199999999999
 30
0.0
 40
4.2168199999999993
  1
※壁取付部には厚さ30mm以上の補強木を入れてください。
 41
0.5
  0
LINE
  5
55E
  8
_________2
 62
     7
 10
205.30099999999999
 20
127.411
 30
0.0
 11
183.55000000000001
 21
127.411
 31
0.0
  0
LINE
  5
55F
  8
_________2
 62
     7
 10
100.3
 20
-4.0903900000000002
 30
0.0
 11
100.3
 21
-21.070699999999999
 31
0.0
  0
LINE
  5
560
  8
_________2
 62
     7
 10
100.3
 20
275.93099999999998
 30
0.0
 11
100.3
 21
258.911
 31
0.0
  0
LINE
  5
561
  8
_________2
 62
     7
 10
17.049499999999998
 20
127.411
 30
0.0
 11
-4.7001699999999991
 21
127.411
 31
0.0
  0
LINE
  5
562
  8
_________2
 62
     7
 10
76.741699999999994
 20
29.805399999999999
 30
0.0
 11
74.554699999999997
 21
29.805399999999999
 31
0.0
  0
LINE
  5
563
  8
_________2
 62
     7
 10
77.234399999999994
 20
29.805399999999999
 30
0.0
 11
76.982200000000006
 21
29.805399999999999
 31
0.0
  0
LINE
  5
564
  8
_________2
 62
     7
 10
77.727000000000004
 20
29.805399999999999
 30
0.0
 11
80.651899999999983
 21
29.805399999999999
 31
0.0
  0
LINE
  5
565
  8
_________2
 62
     7
 10
77.234399999999994
 20
29.805399999999999
 30
0.0
 11
77.485900000000001
 21
29.805399999999999
 31
0.0
  0
LINE
  5
566
  8
_________2
 62
     7
 10
70.837500000000006
 20
29.805399999999999
 30
0.0
 11
68.650499999999994
 21
29.805399999999999
 31
0.0
  0
LINE
  5
567
  8
_________2
 62
     7
 10
71.330100000000002
 20
29.805399999999999
 30
0.0
 11
71.0779
 21
29.805399999999999
 31
0.0
  0
LINE
  5
568
  8
_________2
 62
     7
 10
71.330100000000002
 20
30.298100000000002
 30
0.0
 11
71.330100000000002
 21
32.484999999999999
 31
0.0
  0
LINE
  5
569
  8
_________2
 62
     7
 10
71.330100000000002
 20
29.805399999999999
 30
0.0
 11
71.330100000000002
 21
30.057600000000001
 31
0.0
  0
LINE
  5
56A
  8
_________2
 62
     7
 10
71.822800000000001
 20
29.805399999999999
 30
0.0
 11
74.009
 21
29.805399999999999
 31
0.0
  0
LINE
  5
56B
  8
_________2
 62
     7
 10
71.330100000000002
 20
29.805399999999999
 30
0.0
 11
71.582300000000004
 21
29.805399999999999
 31
0.0
  0
LINE
  5
56C
  8
_________2
 62
     7
 10
71.330100000000002
 20
29.313500000000001
 30
0.0
 11
71.330100000000002
 21
27.1265
 31
0.0
  0
LINE
  5
56D
  8
_________2
 62
     7
 10
71.330100000000002
 20
29.805399999999999
 30
0.0
 11
71.330100000000002
 21
29.553899999999999
 31
0.0
  0
LINE
  5
56E
  8
_________2
 62
     7
 10
75.041200000000003
 20
28.585899999999999
 30
0.0
 11
80.219199999999987
 21
27.7211
 31
0.0
  0
LINE
  5
56F
  8
_________2
 62
     7
 10
75.041200000000003
 20
31.024999999999999
 30
0.0
 11
80.219199999999987
 21
31.8904
 31
0.0
  0
LINE
  5
570
  8
_________2
 62
     7
 10
80.219199999999987
 20
27.7211
 30
0.0
 11
80.219199999999987
 21
31.8904
 31
0.0
  0
LINE
  5
571
  8
_________2
 62
     7
 10
75.041200000000003
 20
28.585899999999999
 30
0.0
 11
75.041200000000003
 21
31.024999999999999
 31
0.0
  0
ARC
  5
572
  8
_________2
 62
     7
 10
71.283212000000006
 20
29.758524999999999
 30
0.0
 40
1.267347
 50
2.1211329999999999
 51
87.878856999999996
  0
ARC
  5
573
  8
_________2
 62
     7
 10
71.376634999999993
 20
29.758917
 30
0.0
 40
1.2669410000000001
 50
92.104055000000017
 51
177.895915
  0
ARC
  5
574
  8
_________2
 62
     7
 10
71.37704699999999
 20
29.852360000000001
 30
0.0
 40
1.2673680000000001
 50
182.12203600000001
 51
267.877993
  0
ARC
  5
575
  8
_________2
 62
     7
 10
71.283212000000006
 20
29.852339000000001
 30
0.0
 40
1.267347
 50
272.12114300000002
 51
357.87886700000001
  0
ARC
  5
576
  8
_________2
 62
     7
 10
71.249432999999996
 20
29.725460999999999
 30
0.0
 40
2.1664590000000001
 50
2.1154579999999998
 51
87.865593999999987
  0
ARC
  5
577
  8
_________2
 62
     7
 10
71.330119999999994
 20
29.805432
 30
0.0
 40
2.0849849999999992
 50
90.0
 51
179.99996999999999
  0
ARC
  5
578
  8
_________2
 62
     7
 10
71.409462000000005
 20
29.885489
 30
0.0
 40
2.165807
 50
182.1183979999999
 51
267.90056900000002
  0
ARC
  5
579
  8
_________2
 62
     7
 10
71.250129999999999
 20
29.885421000000001
 30
0.0
 40
2.1657630000000001
 50
272.11662699999999
 51
357.88338299999998
  0
TEXT
  5
57A
  8
_________2
 62
     7
 10
104.605
 20
1.68018
 30
0.0
 40
3.0923400000000001
  1
図番
 41
0.5
  0
LINE
  5
57B
  8
_________2
 62
     7
 10
103.55
 20
5.9094100000000003
 30
0.0
 11
183.55000000000001
 21
5.9094100000000003
 31
0.0
  0
TEXT
  5
57C
  8
_________2
 62
     7
 10
104.605
 20
11.68
 30
0.0
 40
3.0923400000000001
  1
品番
 41
0.5
  0
TEXT
  5
57D
  8
_________2
 62
     7
 10
104.605
 20
31.8188
 30
0.0
 40
3.0923400000000001
  1
名称
 41
0.5
  0
TEXT
  5
57E
  8
_________2
 62
     7
 10
91.845058333333341
 20
26.822600000000001
 30
0.0
 40
3.6545800000000002
  1
mm
 41
0.5
 72
     1
 11
93.367800000000003
 21
26.822600000000001
 31
0.0
  0
TEXT
  5
57F
  8
_________2
 62
     7
 10
85.643900000000016
 20
31.8188
 30
0.0
 40
3.0923400000000001
  1
単位
 41
0.5
  0
TEXT
  5
580
  8
_________2
 62
     7
 10
85.643900000000016
 20
19.4115
 30
0.0
 40
3.0923400000000001
  1
尺度
 41
0.5
  0
TEXT
  5
581
  8
_________2
 62
     7
 10
90.548758666666686
 20
13.2186
 30
0.0
 40
3.6545800000000002
  1
1 ： 8
 41
0.5
 72
     1
 11
93.959699999999998
 21
13.2186
 31
0.0
  0
TEXT
  5
582
  8
_________2
 62
     7
 10
136.4985375
 20
9.1085499999999993
 30
0.0
 40
3.9357000000000002
  1
EC026080
 41
0.5
 72
     1
 11
143.55000000000001
 21
9.1085499999999993
 31
0.0
  0
TEXT
  5
583
  8
_________2
 62
     7
 10
136.59853749999999
 20
-0.8919409999999999
 30
0.0
 40
3.9357000000000002
  1
EC026080
 41
0.5
 72
     1
 11
143.65000000000001
 21
-0.8919409999999999
 31
0.0
  0
TEXT
  5
584
  8
_________2
 62
     7
 10
109.179
 20
24.226400000000002
 30
0.0
 40
3.9357000000000002
  1
トレンド　タオルバー
 41
0.5
  0
TEXT
  5
585
  8
_________2
 62
     7
 10
39.425300333333333
 20
13.6037
 30
0.0
 40
3.6545800000000002
  1
早川
 41
0.5
 72
     1
 11
41.313499999999998
 21
13.6037
 31
0.0
  0
TEXT
  5
586
  8
_________2
 62
     7
 10
20.790390666666671
 20
13.6037
 30
0.0
 40
3.6545800000000002
  1
菅原
 41
0.5
 72
     1
 11
22.7395
 21
13.6037
 31
0.0
  0
TEXT
  5
587
  8
_________2
 62
     7
 10
67.785799999999995
 20
13.2186
 30
0.0
 40
3.6545800000000002
  1
15.12.24
 41
0.5
  0
TEXT
  5
588
  8
_________2
 62
     7
 10
66.593100000000007
 20
19.4115
 30
0.0
 40
3.0923400000000001
  1
日付
 41
0.5
  0
TEXT
  5
589
  8
_________2
 62
     7
 10
29.639399999999998
 20
19.4115
 30
0.0
 40
3.0923400000000001
  1
検図
 41
0.5
  0
TEXT
  5
58A
  8
_________2
 62
     7
 10
18.021799999999999
 20
5.2121199999999988
 30
0.0
 40
3.0923400000000001
  1
備考
 41
0.5
  0
TEXT
  5
58B
  8
_________2
 62
     7
 10
18.021799999999999
 20
19.4115
 30
0.0
 40
3.0923400000000001
  1
製図
 41
0.5
  0
TEXT
  5
58C
  8
_________2
 62
     7
 10
23.78916533333334
 20
27.9375
 30
0.0
 40
4.4979399999999989
  1
セラトレーディング株式会社
 41
0.5
 72
     1
 11
41.181199999999997
 21
27.9375
 31
0.0
  0
LINE
  5
58D
  8
_________2
 62
     7
 10
183.55000000000001
 20
-4.0903900000000002
 30
0.0
 11
17.049499999999998
 21
-4.0903900000000002
 31
0.0
  0
LINE
  5
58E
  8
_________2
 62
     7
 10
17.049499999999998
 20
-4.0903900000000002
 30
0.0
 11
17.049499999999998
 21
258.911
 31
0.0
  0
LINE
  5
58F
  8
_________2
 62
     7
 10
17.049499999999998
 20
258.911
 30
0.0
 11
183.55000000000001
 21
258.911
 31
0.0
  0
LINE
  5
590
  8
_________2
 62
     7
 10
183.55000000000001
 20
258.911
 30
0.0
 11
183.55000000000001
 21
-4.0903900000000002
 31
0.0
  0
LINE
  5
591
  8
_________2
 62
     7
 10
65.549899999999994
 20
9.4096499999999992
 30
0.0
 11
65.549899999999994
 21
35.909500000000001
 31
0.0
  0
LINE
  5
592
  8
_________2
 62
     7
 10
84.550399999999996
 20
9.4096499999999992
 30
0.0
 11
84.550399999999996
 21
35.909500000000001
 31
0.0
  0
LINE
  5
593
  8
_________2
 62
     7
 10
103.55
 20
-4.0903900000000002
 30
0.0
 11
103.55
 21
35.909500000000001
 31
0.0
  0
LINE
  5
594
  8
_________2
 62
     7
 10
28.550000000000001
 20
9.4096499999999992
 30
0.0
 11
28.550000000000001
 21
23.4099
 31
0.0
  0
LINE
  5
595
  8
_________2
 62
     7
 10
17.049499999999998
 20
9.4096499999999992
 30
0.0
 11
103.55
 21
9.4096499999999992
 31
0.0
  0
LINE
  5
596
  8
_________2
 62
     7
 10
17.049499999999998
 20
23.4099
 30
0.0
 11
103.55
 21
23.4099
 31
0.0
  0
LINE
  5
597
  8
_________2
 62
     7
 10
103.55
 20
15.9092
 30
0.0
 11
183.55000000000001
 21
15.9092
 31
0.0
  0
LINE
  5
598
  8
_________2
 62
     7
 10
17.049499999999998
 20
35.909500000000001
 30
0.0
 11
183.55000000000001
 21
35.909500000000001
 31
0.0
  0
ENDSEC
  0
EOF
