  0
SECTION
  2
HEADER
  9
$ACADVER
  1
AC1009
  9
$INSBASE
 10
0.0
 20
0.0
 30
0.0
  9
$EXTMIN
 10
-4.70052
 20
-21.071400000000001
 30
0.0
  9
$EXTMAX
 10
205.30099999999999
 20
275.93099999999998
 30
0.0
  9
$LIMMIN
 10
0.0
 20
0.0
  9
$LIMMAX
 10
12.0
 20
9.0
  9
$ORTHOMODE
 70
     0
  9
$REGENMODE
 70
     1
  9
$FILLMODE
 70
     1
  9
$QTEXTMODE
 70
     0
  9
$MIRRTEXT
 70
     1
  9
$DRAGMODE
 70
     2
  9
$LTSCALE
 40
1.0
  9
$OSMODE
 70
    37
  9
$ATTMODE
 70
     1
  9
$TEXTSIZE
 40
0.0
  9
$TRACEWID
 40
0.05
  9
$TEXTSTYLE
  7
STANDARD
  9
$CLAYER
  8
0
  9
$CELTYPE
  6
CONTINUOUS
  9
$CECOLOR
 62
   256
  9
$DIMSCALE
 40
1.0
  9
$DIMASZ
 40
0.18
  9
$DIMEXO
 40
0.0625
  9
$DIMDLI
 40
0.38
  9
$DIMRND
 40
0.0
  9
$DIMDLE
 40
0.0
  9
$DIMEXE
 40
0.18
  9
$DIMTP
 40
0.0
  9
$DIMTM
 40
0.0
  9
$DIMTXT
 40
0.18
  9
$DIMCEN
 40
0.09
  9
$DIMTSZ
 40
0.0
  9
$DIMTOL
 70
     0
  9
$DIMLIM
 70
     0
  9
$DIMTIH
 70
     1
  9
$DIMTOH
 70
     1
  9
$DIMSE1
 70
     0
  9
$DIMSE2
 70
     0
  9
$DIMTAD
 70
     0
  9
$DIMZIN
 70
     0
  9
$DIMBLK
  1

  9
$DIMASO
 70
     1
  9
$DIMSHO
 70
     1
  9
$DIMPOST
  1

  9
$DIMAPOST
  1

  9
$DIMALT
 70
     0
  9
$DIMALTD
 70
     2
  9
$DIMALTF
 40
25.399999999999999
  9
$DIMLFAC
 40
1.0
  9
$DIMTOFL
 70
     0
  9
$DIMTVP
 40
0.0
  9
$DIMTIX
 70
     0
  9
$DIMSOXD
 70
     0
  9
$DIMSAH
 70
     0
  9
$DIMBLK1
  1

  9
$DIMBLK2
  1

  9
$DIMSTYLE
  2
STANDARD
  9
$DIMCLRD
 70
     0
  9
$DIMCLRE
 70
     0
  9
$DIMCLRT
 70
     0
  9
$DIMTFAC
 40
1.0
  9
$DIMGAP
 40
0.09
  9
$LUNITS
 70
     2
  9
$LUPREC
 70
     4
  9
$SKETCHINC
 40
0.1
  9
$FILLETRAD
 40
0.0
  9
$AUNITS
 70
     0
  9
$AUPREC
 70
     0
  9
$MENU
  1
.
  9
$ELEVATION
 40
0.0
  9
$PELEVATION
 40
0.0
  9
$THICKNESS
 40
0.0
  9
$LIMCHECK
 70
     0
  9
$BLIPMODE
 70
     0
  9
$CHAMFERA
 40
0.0
  9
$CHAMFERB
 40
0.0
  9
$SKPOLY
 70
     0
  9
$TDCREATE
 40
2444972.375
  9
$TDUPDATE
 40
2457436.2560922219
  9
$TDINDWG
 40
0.0000259259
  9
$TDUSRTIMER
 40
0.0000259259
  9
$USRTIMER
 70
     1
  9
$ANGBASE
 50
0.0
  9
$ANGDIR
 70
     0
  9
$PDMODE
 70
     0
  9
$PDSIZE
 40
0.0
  9
$PLINEWID
 40
0.0
  9
$COORDS
 70
     1
  9
$SPLFRAME
 70
     0
  9
$SPLINETYPE
 70
     6
  9
$SPLINESEGS
 70
     8
  9
$ATTDIA
 70
     1
  9
$ATTREQ
 70
     1
  9
$HANDLING
 70
     1
  9
$HANDSEED
  5
34C
  9
$SURFTAB1
 70
     6
  9
$SURFTAB2
 70
     6
  9
$SURFTYPE
 70
     6
  9
$SURFU
 70
     6
  9
$SURFV
 70
     6
  9
$UCSNAME
  2

  9
$UCSORG
 10
0.0
 20
0.0
 30
0.0
  9
$UCSXDIR
 10
1.0
 20
0.0
 30
0.0
  9
$UCSYDIR
 10
0.0
 20
1.0
 30
0.0
  9
$PUCSNAME
  2

  9
$PUCSORG
 10
0.0
 20
0.0
 30
0.0
  9
$PUCSXDIR
 10
1.0
 20
0.0
 30
0.0
  9
$PUCSYDIR
 10
0.0
 20
1.0
 30
0.0
  9
$USERI1
 70
     0
  9
$USERI2
 70
     0
  9
$USERI3
 70
     0
  9
$USERI4
 70
     0
  9
$USERI5
 70
     0
  9
$USERR1
 40
0.0
  9
$USERR2
 40
0.0
  9
$USERR3
 40
0.0
  9
$USERR4
 40
0.0
  9
$USERR5
 40
0.0
  9
$WORLDVIEW
 70
     1
  9
$SHADEDGE
 70
     3
  9
$SHADEDIF
 70
    70
  9
$TILEMODE
 70
     1
  9
$MAXACTVP
 70
    48
  9
$PLIMCHECK
 70
     0
  9
$PEXTMIN
 10
1.0000000000000000E+020
 20
1.0000000000000000E+020
 30
1.0000000000000000E+020
  9
$PEXTMAX
 10
-1.0000000000000000E+020
 20
-1.0000000000000000E+020
 30
-1.0000000000000000E+020
  9
$PLIMMIN
 10
0.0
 20
0.0
  9
$PLIMMAX
 10
12.0
 20
9.0
  9
$UNITMODE
 70
     0
  9
$VISRETAIN
 70
     1
  9
$PLINEGEN
 70
     0
  9
$PSLTSCALE
 70
     1
  0
ENDSEC
  0
SECTION
  2
TABLES
  0
TABLE
  2
VPORT
 70
     1
  0
VPORT
  2
*ACTIVE
 70
     0
 10
0.0
 20
0.0
 11
1.0
 21
1.0
 12
165.72805692007461
 22
127.4298
 13
0.0
 23
0.0
 14
1.0
 24
1.0
 15
0.0
 25
0.0
 16
0.0
 26
0.0
 36
1.0
 17
0.0
 27
0.0
 37
0.0
 40
283.5288175207607
 41
2.1001926782273599
 42
50.0
 43
0.0
 44
0.0
 50
0.0
 51
0.0
 71
     0
 72
   100
 73
     1
 74
     1
 75
     0
 76
     0
 77
     0
 78
     0
  0
ENDTAB
  0
TABLE
  2
LTYPE
 70
     3
  0
LTYPE
  2
CONTINUOUS
 70
     0
  3
Solid line
 72
    65
 73
     0
 40
0.0
  0
LTYPE
  2
AIGENLINE001
 70
     0
  3
generate AI->DXF Converter
 72
    65
 73
     4
 40
5.8561449999999988
 49
3.5278
 49
-0.776115
 49
0.776115
 49
-0.776115
  0
LTYPE
  2
AIGENLINE002
 70
     0
  3
generate AI->DXF Converter
 72
    65
 73
     2
 40
1.5522299999999991
 49
0.776115
 49
-0.776115
  0
ENDTAB
  0
TABLE
  2
LAYER
 70
     2
  0
LAYER
  2
0
 70
     0
 62
     7
  6
CONTINUOUS
  0
LAYER
  2
_________2
 70
     0
 62
     7
  6
CONTINUOUS
  0
ENDTAB
  0
TABLE
  2
STYLE
 70
     1
  0
STYLE
  2
STANDARD
 70
     0
 40
0.0
 41
0.0
 50
0.0
 71
     0
 42
0.0
  3
TXT
  4
EXTFONT.SHX
  0
ENDTAB
  0
TABLE
  2
VIEW
 70
     0
  0
ENDTAB
  0
TABLE
  2
UCS
 70
     0
  0
ENDTAB
  0
TABLE
  2
APPID
 70
     3
  0
APPID
  2
ACAD
 70
     0
  0
APPID
  2
ACAD_NAV_VCDISPLAY
 70
     0
  0
APPID
  2
ACAD_MLEADERVER
 70
     0
  0
ENDTAB
  0
TABLE
  2
DIMSTYLE
 70
     1
  0
DIMSTYLE
  2
STANDARD
 70
     0
  3

  4

  5

  6

  7

 40
1.0
 41
0.18
 42
0.0625
 43
0.38
 44
0.18
 45
0.0
 46
0.0
 47
0.0
 48
0.0
140
0.18
141
0.09
142
0.0
143
25.399999999999999
144
1.0
145
0.0
146
1.0
147
0.09
 71
     0
 72
     0
 73
     1
 74
     1
 75
     0
 76
     0
 77
     0
 78
     0
170
     0
171
     2
172
     0
173
     0
174
     0
175
     0
176
     0
177
     0
178
     0
  0
ENDTAB
  0
ENDSEC
  0
SECTION
  2
BLOCKS
  0
BLOCK
  8
0
  2
$MODEL_SPACE
 70
     0
 10
0.0
 20
0.0
 30
0.0
  3
$MODEL_SPACE
  1

  0
ENDBLK
  5
1A
  8
0
  0
BLOCK
 67
     1
  8
0
  2
$PAPER_SPACE
 70
     0
 10
0.0
 20
0.0
 30
0.0
  3
$PAPER_SPACE
  1

  0
ENDBLK
  5
17
 67
     1
  8
0
  0
ENDSEC
  0
SECTION
  2
ENTITIES
  0
TEXT
  5
23
  8
0
 62
     7
 10
86.68369100000001
 20
185.761
 30
0.0
 40
3.0923400000000001
  1
（%%c6\U+00D730 樹脂プラグ付）
 41
0.5
 72
     2
 11
108.89700000000001
 21
185.761
 31
0.0
  0
TEXT
  5
24
  8
0
 62
     7
 10
77.303593000000006
 20
190.833
 30
0.0
 40
3.0923400000000001
  1
%%c3.8\U+00D750 十字穴付SUS丸頭木ネジ
 41
0.5
 72
     2
 11
108.89700000000001
 21
190.833
 31
0.0
  0
TEXT
  5
25
  8
0
 62
     7
 10
60.553424999999997
 20
210.28899999999999
 30
0.0
 40
3.0923400000000001
  1
46
 41
0.5
 72
     1
 11
61.841900000000003
 21
210.28899999999999
 31
0.0
  0
TEXT
  5
26
  8
0
 62
     7
 10
60.565125000000002
 20
202.00299999999999
 30
0.0
 40
3.0923400000000001
  1
24
 41
0.5
 72
     1
 11
61.8536
 21
202.00299999999999
 31
0.0
  0
TEXT
  5
27
  8
0
 62
     7
 10
47.276000000000003
 20
158.97905
 30
0.0
 40
3.0923400000000001
  1
%%c8
 50
90.0
 41
0.5
 72
     2
 11
47.276000000000003
 21
161.55600000000001
 31
0.0
  0
TEXT
  5
28
  8
0
 62
     7
 10
86.348799999999997
 20
157.82952499999999
 30
0.0
 40
3.0923400000000001
  1
46
 50
90.0
 41
0.5
 72
     1
 11
86.348799999999997
 21
159.11799999999999
 31
0.0
  0
TEXT
  5
29
  8
0
 62
     7
 10
160.893
 20
104.6610675
 30
0.0
 40
3.0923400000000001
  1
10
 50
90.0
 41
0.5
 72
     1
 11
160.893
 21
105.563
 31
0.0
  0
TEXT
  5
2A
  8
0
 62
     7
 10
167.97
 20
100.638525
 30
0.0
 40
3.0923400000000001
  1
25
 50
90.0
 41
0.5
 72
     1
 11
167.97
 21
101.92700000000001
 31
0.0
  0
TEXT
  5
2B
  8
0
 62
     7
 10
60.565125000000002
 20
137.70400000000001
 30
0.0
 40
3.0923400000000001
  1
76
 41
0.5
 72
     1
 11
61.8536
 21
137.70400000000001
 31
0.0
  0
LINE
  5
2C
  8
0
 62
     7
 10
68.803799999999995
 20
170.49299999999999
 30
0.0
 11
68.803799999999995
 21
191.36099999999999
 31
0.0
  0
LINE
  5
2D
  8
0
 62
     7
 10
66.903499999999994
 20
170.49299999999999
 30
0.0
 11
66.903499999999994
 21
191.36099999999999
 31
0.0
  0
LINE
  5
2E
  8
0
 62
     7
 10
66.406700000000001
 20
191.715
 30
0.0
 11
69.300600000000003
 21
192.62
 31
0.0
  0
LINE
  5
2F
  8
0
 62
     7
 10
66.406700000000001
 20
190.136
 30
0.0
 11
69.300600000000003
 21
191.041
 31
0.0
  0
LINE
  5
30
  8
0
 62
     7
 10
66.406700000000001
 20
188.55699999999999
 30
0.0
 11
69.300600000000003
 21
189.46199999999999
 31
0.0
  0
LINE
  5
31
  8
0
 62
     7
 10
66.406700000000001
 20
186.97800000000001
 30
0.0
 11
69.300600000000003
 21
187.8829999999999
 31
0.0
  0
LINE
  5
32
  8
0
 62
     7
 10
66.406700000000001
 20
185.399
 30
0.0
 11
69.300600000000003
 21
186.30500000000001
 31
0.0
  0
LINE
  5
33
  8
0
 62
     7
 10
66.406700000000001
 20
183.81999999999999
 30
0.0
 11
69.300600000000003
 21
184.72499999999999
 31
0.0
  0
LINE
  5
34
  8
0
 62
     7
 10
66.406700000000001
 20
182.2409999999999
 30
0.0
 11
69.300600000000003
 21
183.14599999999999
 31
0.0
  0
LINE
  5
35
  8
0
 62
     7
 10
66.406700000000001
 20
180.66200000000001
 30
0.0
 11
69.300600000000003
 21
181.56700000000001
 31
0.0
  0
LINE
  5
36
  8
0
  6
AIGENLINE001
 62
     7
 10
61.8536
 20
92.533100000000005
 30
0.0
 11
61.8536
 21
110.348
 31
0.0
  0
LINE
  5
37
  8
0
  6
AIGENLINE001
 62
     7
 10
61.8536
 20
145.40600000000001
 30
0.0
 11
61.8536
 21
173.98099999999999
 31
0.0
  0
LINE
  5
38
  8
0
  6
AIGENLINE001
 62
     7
 10
67.853700000000003
 20
168.85499999999999
 30
0.0
 11
67.853700000000003
 21
195.989
 31
0.0
  0
LINE
  5
39
  8
0
 62
     7
 10
68.803799999999995
 20
191.36099999999999
 30
0.0
 11
67.853700000000003
 21
193.99299999999999
 31
0.0
  0
LINE
  5
3A
  8
0
 62
     7
 10
66.903499999999994
 20
191.36099999999999
 30
0.0
 11
67.853700000000003
 21
193.99299999999999
 31
0.0
  0
LINE
  5
3B
  8
0
 62
     7
 10
66.406700000000001
 20
177.50399999999999
 30
0.0
 11
69.300600000000003
 21
178.41
 31
0.0
  0
LINE
  5
3C
  8
0
 62
     7
 10
66.406700000000001
 20
179.084
 30
0.0
 11
69.300600000000003
 21
179.988
 31
0.0
  0
LINE
  5
3D
  8
0
 62
     7
 10
66.903499999999994
 20
176.49299999999999
 30
0.0
 11
68.803799999999995
 21
176.49299999999999
 31
0.0
  0
LINE
  5
3E
  8
0
 62
     7
 10
56.803800000000003
 20
170.49299999999999
 30
0.0
 11
56.803800000000003
 21
191.36099999999999
 31
0.0
  0
LINE
  5
3F
  8
0
 62
     7
 10
54.903500000000001
 20
170.49299999999999
 30
0.0
 11
54.903500000000001
 21
191.36099999999999
 31
0.0
  0
LINE
  5
40
  8
0
 62
     7
 10
54.406700000000001
 20
191.715
 30
0.0
 11
57.300600000000003
 21
192.62
 31
0.0
  0
LINE
  5
41
  8
0
 62
     7
 10
54.406700000000001
 20
190.136
 30
0.0
 11
57.300600000000003
 21
191.041
 31
0.0
  0
LINE
  5
42
  8
0
 62
     7
 10
54.406700000000001
 20
188.55699999999999
 30
0.0
 11
57.300600000000003
 21
189.46199999999999
 31
0.0
  0
LINE
  5
43
  8
0
 62
     7
 10
54.406700000000001
 20
186.97800000000001
 30
0.0
 11
57.300600000000003
 21
187.8829999999999
 31
0.0
  0
LINE
  5
44
  8
0
 62
     7
 10
54.406700000000001
 20
185.399
 30
0.0
 11
57.300600000000003
 21
186.30500000000001
 31
0.0
  0
LINE
  5
45
  8
0
 62
     7
 10
54.406700000000001
 20
183.81999999999999
 30
0.0
 11
57.300600000000003
 21
184.72499999999999
 31
0.0
  0
LINE
  5
46
  8
0
 62
     7
 10
54.406700000000001
 20
182.2409999999999
 30
0.0
 11
57.300600000000003
 21
183.14599999999999
 31
0.0
  0
LINE
  5
47
  8
0
 62
     7
 10
54.406700000000001
 20
180.66200000000001
 30
0.0
 11
57.300600000000003
 21
181.56700000000001
 31
0.0
  0
LINE
  5
48
  8
0
  6
AIGENLINE001
 62
     7
 10
55.8536
 20
168.85499999999999
 30
0.0
 11
55.8536
 21
195.989
 31
0.0
  0
LINE
  5
49
  8
0
 62
     7
 10
56.803800000000003
 20
191.36099999999999
 30
0.0
 11
55.8536
 21
193.99299999999999
 31
0.0
  0
LINE
  5
4A
  8
0
 62
     7
 10
54.903500000000001
 20
191.36099999999999
 30
0.0
 11
55.8536
 21
193.99299999999999
 31
0.0
  0
LINE
  5
4B
  8
0
 62
     7
 10
54.406700000000001
 20
177.50399999999999
 30
0.0
 11
57.300600000000003
 21
178.41
 31
0.0
  0
LINE
  5
4C
  8
0
 62
     7
 10
54.406700000000001
 20
179.084
 30
0.0
 11
57.300600000000003
 21
179.988
 31
0.0
  0
LINE
  5
4D
  8
0
 62
     7
 10
54.903500000000001
 20
176.49299999999999
 30
0.0
 11
56.803800000000003
 21
176.49299999999999
 31
0.0
  0
LINE
  5
4E
  8
0
 62
     7
 10
50.340699999999991
 20
171.19300000000001
 30
0.0
 11
50.340699999999991
 21
210.28899999999999
 31
0.0
  0
LINE
  5
4F
  8
0
 62
     7
 10
73.343100000000007
 20
210.28899999999999
 30
0.0
 11
73.343100000000007
 21
171.19300000000001
 31
0.0
  0
LINE
  5
50
  8
0
 62
     7
 10
52.5518
 20
210.17400000000001
 30
0.0
 11
50.3401
 21
209.58199999999999
 31
0.0
  0
LINE
  5
51
  8
0
 62
     7
 10
50.3401
 20
209.58199999999999
 30
0.0
 11
52.5518
 21
208.989
 31
0.0
  0
LINE
  5
52
  8
0
 62
     7
 10
52.5518
 20
208.989
 30
0.0
 11
52.5518
 21
210.17400000000001
 31
0.0
  0
LINE
  5
53
  8
0
 62
     7
 10
71.132699999999986
 20
209.00399999999999
 30
0.0
 11
73.344499999999996
 21
209.596
 31
0.0
  0
LINE
  5
54
  8
0
 62
     7
 10
73.344499999999996
 20
209.596
 30
0.0
 11
71.132699999999986
 21
210.18899999999999
 31
0.0
  0
LINE
  5
55
  8
0
 62
     7
 10
71.132699999999986
 20
210.18899999999999
 30
0.0
 11
71.132699999999986
 21
209.00399999999999
 31
0.0
  0
LINE
  5
56
  8
0
 62
     7
 10
50.340699999999991
 20
209.589
 30
0.0
 11
73.343100000000007
 21
209.589
 31
0.0
  0
LINE
  5
57
  8
0
 62
     7
 10
55.8536
 20
196.68899999999999
 30
0.0
 11
55.8536
 21
202.00299999999999
 31
0.0
  0
LINE
  5
58
  8
0
 62
     7
 10
67.853700000000003
 20
202.00299999999999
 30
0.0
 11
67.853700000000003
 21
196.68899999999999
 31
0.0
  0
LINE
  5
59
  8
0
 62
     7
 10
58.064700000000002
 20
201.88800000000001
 30
0.0
 11
55.852899999999998
 21
201.29599999999999
 31
0.0
  0
LINE
  5
5A
  8
0
 62
     7
 10
55.852899999999998
 20
201.29599999999999
 30
0.0
 11
58.064700000000002
 21
200.703
 31
0.0
  0
LINE
  5
5B
  8
0
 62
     7
 10
58.064700000000002
 20
200.703
 30
0.0
 11
58.064700000000002
 21
201.88800000000001
 31
0.0
  0
LINE
  5
5C
  8
0
 62
     7
 10
65.643299999999996
 20
200.71799999999999
 30
0.0
 11
67.855000000000004
 21
201.31
 31
0.0
  0
LINE
  5
5D
  8
0
 62
     7
 10
67.855000000000004
 20
201.31
 30
0.0
 11
65.643299999999996
 21
201.90299999999999
 31
0.0
  0
LINE
  5
5E
  8
0
 62
     7
 10
65.643299999999996
 20
201.90299999999999
 30
0.0
 11
65.643299999999996
 21
200.71799999999999
 31
0.0
  0
LINE
  5
5F
  8
0
 62
     7
 10
55.8536
 20
201.303
 30
0.0
 11
67.853700000000003
 21
201.303
 31
0.0
  0
LINE
  5
60
  8
0
 62
     7
 10
75.806399999999996
 20
189.65199999999999
 30
0.0
 11
108.89700000000001
 21
189.65199999999999
 31
0.0
  0
LINE
  5
61
  8
0
 62
     7
 10
70.445099999999996
 20
185.12899999999999
 30
0.0
 11
69.300600000000003
 21
183.14599999999999
 31
0.0
  0
LINE
  5
62
  8
0
 62
     7
 10
69.300600000000003
 20
183.14599999999999
 30
0.0
 11
71.283600000000007
 21
184.291
 31
0.0
  0
LINE
  5
63
  8
0
 62
     7
 10
71.283600000000007
 20
184.291
 30
0.0
 11
70.445099999999996
 21
185.12899999999999
 31
0.0
  0
LINE
  5
64
  8
0
 62
     7
 10
69.300600000000003
 20
183.14599999999999
 30
0.0
 11
75.806399999999996
 21
189.65199999999999
 31
0.0
  0
ARC
  5
65
  8
0
 62
     7
 10
112.380414
 20
102.54736
 30
0.0
 40
3.750008999999999
 50
179.99996999999999
 51
270.00002000000001
  0
ARC
  5
66
  8
0
 62
     7
 10
112.380414
 20
102.547361
 30
0.0
 40
3.7500110000000002
 50
270.00002000000001
 51
359.99999000000003
  0
ARC
  5
67
  8
0
 62
     7
 10
112.380414
 20
102.54736
 30
0.0
 40
3.7500110000000002
 50
0.00001
 51
89.999980000000008
  0
ARC
  5
68
  8
0
 62
     7
 10
112.380415
 20
102.54736
 30
0.0
 40
3.7500110000000002
 50
90.0
 51
179.99996999999999
  0
ARC
  5
69
  8
0
 62
     7
 10
71.324826999999999
 20
102.54203
 30
0.0
 40
9.5289760000000001
 50
0.032053
 51
22.481372
  0
ARC
  5
6A
  8
0
 62
     7
 10
79.895669999999996
 20
106.145189
 30
0.0
 40
0.102228
 50
90.168233000000001
 51
134.199769
  0
ARC
  5
6B
  8
0
 62
     7
 10
78.112054999999984
 20
104.64853100000001
 30
0.0
 40
0.100936
 50
270.06924600000002
 51
314.77494799999999
  0
ARC
  5
6C
  8
0
 62
     7
 10
78.111013999999997
 20
100.444012
 30
0.0
 40
0.103465
 50
45.799794999999989
 51
89.356010999999995
  0
ARC
  5
6D
  8
0
 62
     7
 10
79.895471999999998
 20
98.947361000000015
 30
0.0
 40
0.100057
 50
224.739791
 51
269.94153
  0
ARC
  5
6E
  8
0
 62
     7
 10
80.035557999999995
 20
98.949651000000003
 30
0.0
 40
0.102361
 50
270.97986300000002
 51
336.79406799999998
  0
ARC
  5
6F
  8
0
 62
     7
 10
80.035768000000004
 20
106.145157
 30
0.0
 40
0.102271
 50
23.384696000000002
 51
89.136540999999994
  0
ARC
  5
70
  8
0
 62
     7
 10
71.326971
 20
102.55261
 30
0.0
 40
9.5268320000000006
 50
337.51606600000002
 51
359.96843200000001
  0
LINE
  5
71
  8
0
 62
     7
 10
80.037300000000002
 20
98.847300000000004
 30
0.0
 11
79.895399999999995
 21
98.847300000000004
 31
0.0
  0
LINE
  5
72
  8
0
 62
     7
 10
80.037300000000002
 20
106.247
 30
0.0
 11
79.895399999999995
 21
106.247
 31
0.0
  0
LINE
  5
73
  8
0
 62
     7
 10
78.183099999999996
 20
104.577
 30
0.0
 11
79.824399999999997
 21
106.218
 31
0.0
  0
LINE
  5
74
  8
0
 62
     7
 10
73.046800000000005
 20
100.547
 30
0.0
 11
78.112200000000001
 21
100.547
 31
0.0
  0
LINE
  5
75
  8
0
 62
     7
 10
73.046800000000005
 20
104.548
 30
0.0
 11
78.112200000000001
 21
104.548
 31
0.0
  0
LINE
  5
76
  8
0
 62
     7
 10
78.183099999999996
 20
100.518
 30
0.0
 11
79.824399999999997
 21
98.876900000000006
 31
0.0
  0
ARC
  5
77
  8
0
 62
     7
 10
64.468911000000006
 20
104.137755
 30
0.0
 40
8.5846549999999997
 50
359.35531600000002
 51
0.390037
  0
ARC
  5
78
  8
0
 62
     7
 10
68.661438000000004
 20
104.11729200000001
 30
0.0
 40
4.3922449999999991
 50
356.71763600000003
 51
359.006865
  0
ARC
  5
79
  8
0
 62
     7
 10
56.111514
 20
104.692661
 30
0.0
 40
16.955137000000001
 50
356.56231300000002
 51
357.20473700000002
  0
ARC
  5
7A
  8
0
 62
     7
 10
17.072631000000001
 20
106.721873
 30
0.0
 40
56.046337999999999
 50
356.67161099999998
 51
356.88467200000002
  0
ARC
  5
7B
  8
0
 62
     7
 10
95.740372999999977
 20
102.164016
 30
0.0
 40
22.753335
 50
176.71484699999999
 51
177.25953899999999
  0
ARC
  5
7C
  8
0
 62
     7
 10
99.435548999999995
 20
102.00021099999999
 30
0.0
 40
26.452120000000001
 50
177.28781499999999
 51
177.791979
  0
ARC
  5
7D
  8
0
 62
     7
 10
85.875955000000005
 20
102.55869300000001
 30
0.0
 40
12.881126
 50
177.95056
 51
178.980718
  0
ARC
  5
7E
  8
0
 62
     7
 10
86.955207999999999
 20
102.5476
 30
0.0
 40
13.960407999999999
 50
179.01398999999989
 51
180.0024159999999
  0
ARC
  5
7F
  8
0
 62
     7
 10
86.913293999999979
 20
102.546072
 30
0.0
 40
13.918494000000001
 50
179.99609599999999
 51
180.98749900000001
  0
ARC
  5
80
  8
0
 62
     7
 10
85.86985
 20
102.535175
 30
0.0
 40
12.875019
 50
181.01903799999999
 51
182.04968400000001
  0
ARC
  5
81
  8
0
 62
     7
 10
88.496310999999992
 20
102.623839
 30
0.0
 40
15.502972
 50
182.02998299999999
 51
182.89022299999991
  0
ARC
  5
82
  8
0
 62
     7
 10
94.946019999999976
 20
102.88820800000001
 30
0.0
 40
21.957892000000001
 50
182.73059499999999
 51
183.295019
  0
ARC
  5
83
  8
0
 62
     7
 10
2.5838849999999991
 20
97.439925000000002
 30
0.0
 40
70.564824000000002
 50
3.231790999999999
 51
3.4010310000000001
  0
ARC
  5
84
  8
0
 62
     7
 10
21.595967999999999
 20
98.610729000000006
 30
0.0
 40
51.517065000000002
 50
2.912741
 51
3.1237689999999989
  0
ARC
  5
85
  8
0
 62
     7
 10
64.114854000000008
 20
100.806884
 30
0.0
 40
8.9415710000000015
 50
1.5808319999999989
 51
2.7030750000000001
  0
ARC
  5
86
  8
0
 62
     7
 10
68.769269999999992
 20
100.966674
 30
0.0
 40
4.2846339999999987
 50
359.09329000000002
 51
1.1619250000000001
  0
ARC
  5
87
  8
0
 62
     7
 10
72.738520999999992
 20
100.564178
 30
0.0
 40
0.318386
 50
353.32020799999998
 51
356.99179199999998
  0
ARC
  5
88
  8
0
 62
     7
 10
72.928629000000001
 20
100.52819599999999
 30
0.0
 40
0.12612
 50
351.508869
 51
359.52192000000002
  0
ARC
  5
89
  8
0
 62
     7
 10
72.814216999999999
 20
100.525049
 30
0.0
 40
0.23965
 50
352.82188500000001
 51
356.29745200000002
  0
ARC
  5
8A
  8
0
 62
     7
 10
72.972856999999991
 20
100.496289
 30
0.0
 40
0.07914
 50
352.38528000000002
 51
359.141931
  0
ARC
  5
8B
  8
0
 62
     7
 10
73.099153000000001
 20
100.475275
 30
0.0
 40
0.048997
 50
167.59290999999999
 51
176.14684800000001
  0
ARC
  5
8C
  8
0
 62
     7
 10
73.037079000000006
 20
100.479252
 30
0.0
 40
0.013205
 50
336.98264899999998
 51
357.02812
  0
LINE
  5
8D
  8
0
 62
     7
 10
73.049199999999999
 20
100.474
 30
0.0
 11
73.048500000000004
 21
100.473
 31
0.0
  0
LINE
  5
8E
  8
0
 62
     7
 10
73.048500000000004
 20
104.623
 30
0.0
 11
73.048900000000003
 21
104.622
 31
0.0
  0
LINE
  5
8F
  8
0
 62
     7
 10
73.048900000000003
 20
104.622
 30
0.0
 11
73.049199999999999
 21
104.621
 31
0.0
  0
LINE
  5
90
  8
0
 62
     7
 10
73.049199999999999
 20
104.621
 30
0.0
 11
73.049899999999994
 21
104.62
 31
0.0
  0
LINE
  5
91
  8
0
 62
     7
 10
73.049899999999994
 20
104.62
 30
0.0
 11
73.049899999999994
 21
104.617
 31
0.0
  0
ARC
  5
92
  8
0
 62
     7
 10
73.038290000000003
 20
104.61276100000001
 30
0.0
 40
0.012327
 50
358.15511600000002
 51
19.337206999999999
  0
ARC
  5
93
  8
0
 62
     7
 10
73.021084000000002
 20
104.605874
 30
0.0
 40
0.030232
 50
1.853499
 51
12.396532000000001
  0
ARC
  5
94
  8
0
 62
     7
 10
73.000138000000007
 20
104.59825600000001
 30
0.0
 40
0.051879
 50
1.8839250000000001
 51
9.5372599999999998
  0
ARC
  5
95
  8
0
 62
     7
 10
72.986998999999983
 20
104.58812
 30
0.0
 40
0.06606
 50
1.9044970000000001
 51
10.326509
  0
LINE
  5
96
  8
0
 62
     7
 10
73.052999999999983
 20
104.59
 30
0.0
 11
73.054100000000005
 21
104.58
 31
0.0
  0
LINE
  5
97
  8
0
 62
     7
 10
73.054100000000005
 20
104.58
 30
0.0
 11
73.054699999999997
 21
104.569
 31
0.0
  0
ARC
  5
98
  8
0
 62
     7
 10
72.916143000000005
 20
104.555103
 30
0.0
 40
0.139327
 50
1.304522999999999
 51
5.8481440000000013
  0
ARC
  5
99
  8
0
 62
     7
 10
72.973379000000008
 20
104.544945
 30
0.0
 40
0.08313
 50
1.8273489999999999
 51
9.2277300000000011
  0
ARC
  5
9A
  8
0
 62
     7
 10
71.511605000000003
 20
104.19555699999999
 30
0.0
 40
1.5417620000000001
 50
0.02364
 51
2.0981830000000001
  0
LINE
  5
9B
  8
0
 62
     7
 10
73.052300000000002
 20
104.252
 30
0.0
 11
73.051299999999998
 21
104.304
 31
0.0
  0
ARC
  5
9C
  8
0
 62
     7
 10
75.210548000000003
 20
104.389421
 30
0.0
 40
2.1609219999999998
 50
180.948891
 51
182.25567100000001
  0
ARC
  5
9D
  8
0
 62
     7
 10
71.453626
 20
104.352546
 30
0.0
 40
1.596295999999999
 50
0.039096
 51
1.6839550000000001
  0
ARC
  5
9E
  8
0
 62
     7
 10
75.325301999999994
 20
104.45778900000001
 30
0.0
 40
2.276816999999999
 50
180.41028700000001
 51
181.46813399999999
  0
ARC
  5
9F
  8
0
 62
     7
 10
74.873230000000007
 20
104.493616
 30
0.0
 40
1.825429999999999
 50
180.44680199999999
 51
181.63649100000001
  0
ARC
  5
A0
  8
0
 62
     7
 10
74.671444999999991
 20
104.529087
 30
0.0
 40
1.6243510000000001
 50
180.538051
 51
181.753514
  0
LINE
  5
A1
  8
0
 62
     7
 10
73.047200000000004
 20
104.514
 30
0.0
 11
73.047200000000004
 21
104.538
 31
0.0
  0
LINE
  5
A2
  8
0
 62
     7
 10
73.047200000000004
 20
104.538
 30
0.0
 11
73.046499999999995
 21
104.56
 31
0.0
  0
LINE
  5
A3
  8
0
 62
     7
 10
73.046499999999995
 20
104.56
 30
0.0
 11
73.046499999999995
 21
104.57899999999999
 31
0.0
  0
ARC
  5
A4
  8
0
 62
     7
 10
73.354365000000001
 20
104.58052499999999
 30
0.0
 40
0.307891
 50
177.27956
 51
180.22971200000001
  0
ARC
  5
A5
  8
0
 62
     7
 10
73.181534999999997
 20
104.596446
 30
0.0
 40
0.13472
 50
175.863958
 51
180.55622099999999
  0
LINE
  5
A6
  8
0
 62
     7
 10
73.047200000000004
 20
104.60599999999999
 30
0.0
 11
73.047200000000004
 21
104.61499999999999
 31
0.0
  0
ARC
  5
A7
  8
0
 62
     7
 10
73.063418999999996
 20
104.615832
 30
0.0
 40
0.016287
 50
162.860264
 51
183.72006400000001
  0
LINE
  5
A8
  8
0
 62
     7
 10
73.047899999999998
 20
104.621
 30
0.0
 11
73.048500000000004
 21
104.623
 31
0.0
  0
ARC
  5
A9
  8
0
 62
     7
 10
52.195666000000003
 20
104.19555699999999
 30
0.0
 40
1.5417620000000001
 50
177.90179699999999
 51
179.97633999999999
  0
LINE
  5
AA
  8
0
 62
     7
 10
50.654899999999998
 20
104.252
 30
0.0
 11
50.655999999999999
 21
104.304
 31
0.0
  0
ARC
  5
AB
  8
0
 62
     7
 10
14.062609
 20
105.09670699999999
 30
0.0
 40
36.601939000000002
 50
358.75959899999998
 51
358.83673499999998
  0
LINE
  5
AC
  8
0
 62
     7
 10
50.656999999999989
 20
104.354
 30
0.0
 11
50.658000000000001
 21
104.399
 31
0.0
  0
LINE
  5
AD
  8
0
 62
     7
 10
50.658000000000001
 20
104.399
 30
0.0
 11
50.658700000000003
 21
104.441
 31
0.0
  0
ARC
  5
AE
  8
0
 62
     7
 10
48.834040999999992
 20
104.493616
 30
0.0
 40
1.825429999999999
 50
358.36352900000003
 51
359.55321800000002
  0
ARC
  5
AF
  8
0
 62
     7
 10
49.035825000000003
 20
104.529087
 30
0.0
 40
1.6243510000000001
 50
358.24650600000001
 51
359.46196900000001
  0
LINE
  5
B0
  8
0
 62
     7
 10
50.6601
 20
104.514
 30
0.0
 11
50.6601
 21
104.538
 31
0.0
  0
ARC
  5
B1
  8
0
 62
     7
 10
50.299545000000002
 20
104.554872
 30
0.0
 40
0.36094
 50
357.36747500000001
 51
0.8137649999999999
  0
LINE
  5
B2
  8
0
 62
     7
 10
50.660400000000003
 20
104.56
 30
0.0
 11
50.660800000000002
 21
104.57899999999999
 31
0.0
  0
ARC
  5
B3
  8
0
 62
     7
 10
50.867779999999989
 20
104.591718
 30
0.0
 40
0.207359
 50
179.054857
 51
183.43587099999999
  0
ARC
  5
B4
  8
0
 62
     7
 10
50.525734999999997
 20
104.596446
 30
0.0
 40
0.134721
 50
359.44381900000002
 51
4.1360019999999986
  0
LINE
  5
B5
  8
0
 62
     7
 10
50.6601
 20
104.60599999999999
 30
0.0
 11
50.6601
 21
104.61499999999999
 31
0.0
  0
ARC
  5
B6
  8
0
 62
     7
 10
50.643852000000003
 20
104.615832
 30
0.0
 40
0.016287
 50
356.27997499999998
 51
17.139697000000002
  0
LINE
  5
B7
  8
0
 62
     7
 10
50.659399999999998
 20
104.621
 30
0.0
 11
50.658700000000003
 21
104.623
 31
0.0
  0
ARC
  5
B8
  8
0
 62
     7
 10
59.238030000000002
 20
104.137754
 30
0.0
 40
8.584325999999999
 50
179.60992400000001
 51
180.64472399999991
  0
ARC
  5
B9
  8
0
 62
     7
 10
55.045833000000002
 20
104.11729200000001
 30
0.0
 40
4.3922449999999991
 50
180.993155
 51
183.28238400000001
  0
ARC
  5
BA
  8
0
 62
     7
 10
75.856480000000005
 20
105.09672
 30
0.0
 40
25.225736000000001
 50
182.79693
 51
183.22868399999999
  0
ARC
  5
BB
  8
0
 62
     7
 10
80.101966000000004
 20
105.277038
 30
0.0
 40
29.474698
 50
183.113843
 51
183.51901799999999
  0
ARC
  5
BC
  8
0
 62
     7
 10
27.966896999999999
 20
102.164016
 30
0.0
 40
22.753335
 50
2.7404410000000001
 51
3.2851330000000001
  0
ARC
  5
BD
  8
0
 62
     7
 10
24.271720999999999
 20
102.00021099999999
 30
0.0
 40
26.452120000000001
 50
2.2080009999999999
 51
2.7121650000000002
  0
ARC
  5
BE
  8
0
 62
     7
 10
12.084168999999999
 20
101.86903700000001
 30
0.0
 40
38.637160999999999
 50
1.362622999999999
 51
1.706059999999999
  0
ARC
  5
BF
  8
0
 62
     7
 10
36.751502000000002
 20
102.547595
 30
0.0
 40
13.960969
 50
359.99762299999998
 51
0.9859709999999999
  0
ARC
  5
C0
  8
0
 62
     7
 10
36.793420000000012
 20
102.546077
 30
0.0
 40
13.919051
 50
359.012541
 51
0.003865
  0
ARC
  5
C1
  8
0
 62
     7
 10
24.961997
 20
102.918359
 30
0.0
 40
25.755682
 50
358.12284899999997
 51
358.63807500000001
  0
ARC
  5
C2
  8
0
 62
     7
 10
37.772922999999999
 20
102.494612
 30
0.0
 40
12.937751
 50
357.10927599999991
 51
358.14001999999999
  0
ARC
  5
C3
  8
0
 62
     7
 10
28.761251000000001
 20
102.88820800000001
 30
0.0
 40
21.957892000000001
 50
356.70500099999998
 51
357.26942500000001
  0
ARC
  5
C4
  8
0
 62
     7
 10
121.123386
 20
97.439925000000002
 30
0.0
 40
70.564824000000002
 50
176.598949
 51
176.76819
  0
ARC
  5
C5
  8
0
 62
     7
 10
63.529935000000002
 20
100.645019
 30
0.0
 40
12.882364000000001
 50
176.559766
 51
177.403685
  0
ARC
  5
C6
  8
0
 62
     7
 10
59.592416
 20
100.806884
 30
0.0
 40
8.9415710000000015
 50
177.29690500000001
 51
178.41914800000001
  0
ARC
  5
C7
  8
0
 62
     7
 10
54.937918999999987
 20
100.966674
 30
0.0
 40
4.2845519999999988
 50
178.83803499999999
 51
180.90674999999999
  0
ARC
  5
C8
  8
0
 62
     7
 10
72.265730000000005
 20
107.186049
 30
0.0
 40
0.8050729999999999
 50
84.099260000000001
 51
88.964262999999988
  0
ARC
  5
C9
  8
0
 62
     7
 10
72.279060000000001
 20
107.284386
 30
0.0
 40
0.7058930000000001
 50
78.812304999999995
 51
84.354928000000001
  0
ARC
  5
CA
  8
0
 62
     7
 10
72.270060999999998
 20
107.254775
 30
0.0
 40
0.736694
 50
73.658119999999997
 51
78.572528000000005
  0
ARC
  5
CB
  8
0
 62
     7
 10
72.301929999999984
 20
107.33442599999999
 30
0.0
 40
0.6513460000000001
 50
67.904467000000011
 51
74.376808999999994
  0
ARC
  5
CC
  8
0
 62
     7
 10
72.318814000000003
 20
107.34791199999999
 30
0.0
 40
0.6325880000000002
 50
62.630103000000013
 51
68.862043
  0
ARC
  5
CD
  8
0
 62
     7
 10
72.268372999999997
 20
107.237765
 30
0.0
 40
0.753616
 50
57.864759999999997
 51
63.074376000000001
  0
ARC
  5
CE
  8
0
 62
     7
 10
72.316119
 20
107.309444
 30
0.0
 40
0.6675250000000002
 50
51.734051999999998
 51
58.062455000000007
  0
ARC
  5
CF
  8
0
 62
     7
 10
72.298990000000003
 20
107.273804
 30
0.0
 40
0.7061690000000001
 50
47.31406599999999
 51
52.433715999999997
  0
ARC
  5
D0
  8
0
 62
     7
 10
72.316051999999999
 20
107.286404
 30
0.0
 40
0.685351
 50
42.351514999999992
 51
47.648475000000012
  0
ARC
  5
D1
  8
0
 62
     7
 10
72.305188999999984
 20
107.27053100000001
 30
0.0
 40
0.7040860000000001
 50
36.695340999999999
 51
42.710553999999988
  0
ARC
  5
D2
  8
0
 62
     7
 10
72.289668000000006
 20
107.253491
 30
0.0
 40
0.726727
 50
31.230526000000008
 51
37.041347000000002
  0
ARC
  5
D3
  8
0
 62
     7
 10
72.197963999999985
 20
107.19986900000001
 30
0.0
 40
0.8329459999999999
 50
26.753315000000001
 51
31.113877000000009
  0
ARC
  5
D4
  8
0
 62
     7
 10
72.074574999999996
 20
107.15615
 30
0.0
 40
0.9629479999999999
 50
22.026312000000001
 51
25.771266000000001
  0
ARC
  5
D5
  8
0
 62
     7
 10
72.276324000000002
 20
107.244434
 30
0.0
 40
0.7428399999999999
 50
15.824932
 51
21.549766999999999
  0
ARC
  5
D6
  8
0
 62
     7
 10
72.425415000000001
 20
107.277067
 30
0.0
 40
0.590574
 50
10.088305
 51
16.723443
  0
ARC
  5
D7
  8
0
 62
     7
 10
72.155477000000005
 20
107.224887
 30
0.0
 40
0.8654879999999998
 50
5.8197320000000001
 51
10.359026999999999
  0
LINE
  5
D8
  8
0
 62
     7
 10
73.048500000000004
 20
100.473
 30
0.0
 11
73.047899999999998
 21
100.474
 31
0.0
  0
ARC
  5
D9
  8
0
 62
     7
 10
73.064938999999995
 20
100.479412
 30
0.0
 40
0.017795
 50
177.17218800000001
 51
196.24748399999999
  0
LINE
  5
DA
  8
0
 62
     7
 10
73.047200000000004
 20
100.48
 30
0.0
 11
73.047200000000004
 21
100.489
 31
0.0
  0
ARC
  5
DB
  8
0
 62
     7
 10
73.153980000000004
 20
100.497758
 30
0.0
 40
0.107181
 50
178.84049099999999
 51
184.73933
  0
ARC
  5
DC
  8
0
 62
     7
 10
73.253806999999995
 20
100.512355
 30
0.0
 40
0.207359
 50
179.054857
 51
183.43587099999999
  0
LINE
  5
DD
  8
0
 62
     7
 10
73.046499999999995
 20
100.51600000000001
 30
0.0
 11
73.046499999999995
 21
100.535
 31
0.0
  0
LINE
  5
DE
  8
0
 62
     7
 10
73.046499999999995
 20
100.535
 30
0.0
 11
73.047200000000004
 21
100.557
 31
0.0
  0
LINE
  5
DF
  8
0
 62
     7
 10
73.047200000000004
 20
100.557
 30
0.0
 11
73.047200000000004
 21
100.58199999999999
 31
0.0
  0
ARC
  5
E0
  8
0
 62
     7
 10
73.980506999999974
 20
100.580142
 30
0.0
 40
0.933342
 50
177.79650599999999
 51
179.91192899999999
  0
ARC
  5
E1
  8
0
 62
     7
 10
74.185855000000004
 20
100.61429099999999
 30
0.0
 40
1.138001
 50
178.00415599999999
 51
179.91255100000001
  0
ARC
  5
E2
  8
0
 62
     7
 10
74.360376000000002
 20
100.65343900000001
 30
0.0
 40
1.311831999999999
 50
178.142763
 51
179.97881599999999
  0
ARC
  5
E3
  8
0
 62
     7
 10
69.909338000000005
 20
100.766272
 30
0.0
 40
3.1406830000000001
 50
358.71708999999998
 51
359.546807
  0
ARC
  5
E4
  8
0
 62
     7
 10
70.890674000000004
 20
100.82648
 30
0.0
 40
2.1609219999999998
 50
357.744348
 51
359.051129
  0
LINE
  5
E5
  8
0
 62
     7
 10
73.051299999999998
 20
100.791
 30
0.0
 11
73.052300000000002
 21
100.843
 31
0.0
  0
ARC
  5
E6
  8
0
 62
     7
 10
56.092236999999997
 20
101.185052
 30
0.0
 40
16.963543999999999
 50
358.84481899999997
 51
359.03335800000002
  0
ARC
  5
E7
  8
0
 62
     7
 10
72.115530000000007
 20
98.077993000000006
 30
0.0
 40
1.3118449999999999
 50
281.60844100000003
 51
284.23307599999998
  0
ARC
  5
E8
  8
0
 62
     7
 10
72.215333999999999
 20
97.583145000000002
 30
0.0
 40
0.808033
 50
286.00084399999997
 51
290.24289199999998
  0
ARC
  5
E9
  8
0
 62
     7
 10
72.244893999999988
 20
97.513937999999996
 30
0.0
 40
0.732882
 50
289.946686
 51
294.63449400000002
  0
ARC
  5
EA
  8
0
 62
     7
 10
72.273903000000004
 20
97.460385000000002
 30
0.0
 40
0.672125
 50
294.28956799999997
 51
299.42668900000001
  0
ARC
  5
EB
  8
0
 62
     7
 10
72.210740000000001
 20
97.579300000000003
 30
0.0
 40
0.806737
 50
299.18453299999999
 51
303.42372699999999
  0
ARC
  5
EC
  8
0
 62
     7
 10
72.121510999999984
 20
97.681783999999993
 30
0.0
 40
0.941595
 50
304.52034700000002
 51
308.16456199999999
  0
ARC
  5
ED
  8
0
 62
     7
 10
72.284649999999985
 20
97.470622000000006
 30
0.0
 40
0.6747670000000001
 50
308.35267499999998
 51
313.78698500000002
  0
ARC
  5
EE
  8
0
 62
     7
 10
72.418728999999999
 20
97.352722999999997
 30
0.0
 40
0.497107
 50
312.03358400000002
 51
318.46682199999998
  0
ARC
  5
EF
  8
0
 62
     7
 10
72.276285999999999
 20
97.500989000000004
 30
0.0
 40
0.702238
 50
317.11720400000002
 51
326.90157299999998
  0
ARC
  5
F0
  8
0
 62
     7
 10
72.245855000000006
 20
97.524574999999999
 30
0.0
 40
0.740618
 50
326.65858700000001
 51
335.936396
  0
ARC
  5
F1
  8
0
 62
     7
 10
72.227351999999996
 20
97.535232999999991
 30
0.0
 40
0.761862
 50
335.77188799999999
 51
339.96824299999997
  0
ARC
  5
F2
  8
0
 62
     7
 10
71.868711000000005
 20
97.645977999999999
 30
0.0
 40
1.136895999999999
 50
340.915952
 51
344.15619800000007
  0
ARC
  5
F3
  8
0
 62
     7
 10
72.236206999999993
 20
97.530572000000006
 30
0.0
 40
0.75193
 50
344.970688
 51
349.20005099999997
  0
ARC
  5
F4
  8
0
 62
     7
 10
71.486705000000001
 20
97.633259999999993
 30
0.0
 40
1.5079169999999991
 50
350.70385700000003
 51
353.12361600000003
  0
LINE
  5
F5
  8
0
 62
     7
 10
50.658700000000003
 20
104.623
 30
0.0
 11
50.6584
 21
104.622
 31
0.0
  0
LINE
  5
F6
  8
0
 62
     7
 10
50.6584
 20
104.622
 30
0.0
 11
50.658000000000001
 21
104.621
 31
0.0
  0
LINE
  5
F7
  8
0
 62
     7
 10
50.658000000000001
 20
104.621
 30
0.0
 11
50.657299999999999
 21
104.62
 31
0.0
  0
LINE
  5
F8
  8
0
 62
     7
 10
50.657299999999999
 20
104.62
 30
0.0
 11
50.656999999999989
 21
104.617
 31
0.0
  0
ARC
  5
F9
  8
0
 62
     7
 10
50.681355000000003
 20
104.612717
 30
0.0
 40
0.024697
 50
170.383692
 51
180.81889799999999
  0
ARC
  5
FA
  8
0
 62
     7
 10
50.672885000000001
 20
104.607536
 30
0.0
 40
0.016929
 50
163.43151399999999
 51
182.318455
  0
ARC
  5
FB
  8
0
 62
     7
 10
50.679958999999997
 20
104.600973
 30
0.0
 40
0.024698
 50
166.23083199999999
 51
182.347983
  0
ARC
  5
FC
  8
0
 62
     7
 10
50.711703
 20
104.58871000000001
 30
0.0
 40
0.057532
 50
168.722106
 51
177.02782300000001
  0
ARC
  5
FD
  8
0
 62
     7
 10
50.541721000000003
 20
104.59948799999999
 30
0.0
 40
0.112797
 50
351.28213700000009
 51
356.03748100000001
  0
ARC
  5
FE
  8
0
 62
     7
 10
50.558021999999987
 20
104.58317099999999
 30
0.0
 40
0.095195
 50
353.08625799999999
 51
359.53097100000002
  0
ARC
  5
FF
  8
0
 62
     7
 10
50.79278699999999
 20
104.55758400000001
 30
0.0
 40
0.140971
 50
174.24834100000001
 51
179.018699
  0
ARC
  5
100
  8
0
 62
     7
 10
50.755367999999997
 20
104.545126
 30
0.0
 40
0.104595
 50
171.825594
 51
178.64708400000001
  0
LINE
  5
101
  8
0
 62
     7
 10
50.650799999999997
 20
100.547
 30
0.0
 11
50.651800000000001
 21
100.532
 31
0.0
  0
LINE
  5
102
  8
0
 62
     7
 10
50.651800000000001
 20
100.532
 30
0.0
 11
50.652900000000002
 21
100.51900000000001
 31
0.0
  0
ARC
  5
103
  8
0
 62
     7
 10
50.808320999999999
 20
100.529546
 30
0.0
 40
0.155793
 50
183.800275
 51
187.620949
  0
ARC
  5
104
  8
0
 62
     7
 10
50.720508000000002
 20
100.510684
 30
0.0
 40
0.066629
 50
181.54793599999999
 51
188.39158399999999
  0
ARC
  5
105
  8
0
 62
     7
 10
50.670846000000012
 20
100.499904
 30
0.0
 40
0.016287
 50
176.27993599999999
 51
197.139736
  0
ARC
  5
106
  8
0
 62
     7
 10
50.734413000000004
 20
100.496289
 30
0.0
 40
0.07914
 50
180.85808899999989
 51
187.61474000000001
  0
LINE
  5
107
  8
0
 62
     7
 10
50.655999999999999
 20
100.486
 30
0.0
 11
50.656999999999989
 21
100.479
 31
0.0
  0
ARC
  5
108
  8
0
 62
     7
 10
50.670190999999988
 20
100.479252
 30
0.0
 40
0.013205
 50
182.97190000000001
 51
203.017371
  0
LINE
  5
109
  8
0
 62
     7
 10
50.658000000000001
 20
100.474
 30
0.0
 11
50.658700000000003
 21
100.473
 31
0.0
  0
LINE
  5
10A
  8
0
 62
     7
 10
50.658700000000003
 20
100.473
 30
0.0
 11
50.659399999999998
 21
100.474
 31
0.0
  0
ARC
  5
10B
  8
0
 62
     7
 10
50.642332000000003
 20
100.479412
 30
0.0
 40
0.017795
 50
343.75255499999997
 51
2.8277719999999991
  0
LINE
  5
10C
  8
0
 62
     7
 10
50.6601
 20
100.48
 30
0.0
 11
50.6601
 21
100.489
 31
0.0
  0
ARC
  5
10D
  8
0
 62
     7
 10
50.553289999999997
 20
100.497758
 30
0.0
 40
0.107181
 50
355.26071000000007
 51
1.1594690000000001
  0
ARC
  5
10E
  8
0
 62
     7
 10
50.968336999999998
 20
100.50116199999999
 30
0.0
 40
0.307891
 50
177.27956
 51
180.22971200000001
  0
LINE
  5
10F
  8
0
 62
     7
 10
50.660800000000002
 20
100.51600000000001
 30
0.0
 11
50.660400000000003
 21
100.535
 31
0.0
  0
ARC
  5
110
  8
0
 62
     7
 10
50.063904999999998
 20
100.53677399999999
 30
0.0
 40
0.5965470000000001
 50
359.83614
 51
1.954207
  0
LINE
  5
111
  8
0
 62
     7
 10
50.6601
 20
100.557
 30
0.0
 11
50.6601
 21
100.58199999999999
 31
0.0
  0
ARC
  5
112
  8
0
 62
     7
 10
49.726764000000003
 20
100.580142
 30
0.0
 40
0.933342
 50
0.088051
 51
2.2034739999999999
  0
ARC
  5
113
  8
0
 62
     7
 10
49.521416000000002
 20
100.61429099999999
 30
0.0
 40
1.138001
 50
0.087429
 51
1.995824
  0
LINE
  5
114
  8
0
 62
     7
 10
50.658700000000003
 20
100.654
 30
0.0
 11
50.658000000000001
 21
100.696
 31
0.0
  0
LINE
  5
115
  8
0
 62
     7
 10
50.658000000000001
 20
100.696
 30
0.0
 11
50.656999999999989
 21
100.741
 31
0.0
  0
ARC
  5
116
  8
0
 62
     7
 10
87.250366000000014
 20
101.533766
 30
0.0
 40
36.601939000000002
 50
181.163285
 51
181.240421
  0
LINE
  5
117
  8
0
 62
     7
 10
50.655999999999999
 20
100.791
 30
0.0
 11
50.654899999999998
 21
100.843
 31
0.0
  0
ARC
  5
118
  8
0
 62
     7
 10
67.615032999999997
 20
101.185052
 30
0.0
 40
16.963543999999999
 50
180.96666200000001
 51
181.15520100000001
  0
ARC
  5
119
  8
0
 62
     7
 10
51.725446000000012
 20
98.454879000000005
 30
0.0
 40
1.708815999999999
 50
252.51468399999999
 51
256.5426819999999
  0
ARC
  5
11A
  8
0
 62
     7
 10
51.420392
 20
97.422747999999999
 30
0.0
 40
0.6330090000000002
 50
239.922529
 51
250.78043
  0
ARC
  5
11B
  8
0
 62
     7
 10
51.457312999999999
 20
97.512905000000003
 30
0.0
 40
0.72965
 50
235.94466
 51
240.961837
  0
ARC
  5
11C
  8
0
 62
     7
 10
51.468451000000002
 20
97.523647999999994
 30
0.0
 40
0.744794
 50
231.41359499999999
 51
235.69754900000001
  0
ARC
  5
11D
  8
0
 62
     7
 10
51.438279000000001
 20
97.493183999999985
 30
0.0
 40
0.7021790000000001
 50
227.240308
 51
231.78769700000001
  0
ARC
  5
11E
  8
0
 62
     7
 10
51.405580999999991
 20
97.463436999999999
 30
0.0
 40
0.658149
 50
221.992267
 51
227.57205500000001
  0
ARC
  5
11F
  8
0
 62
     7
 10
51.433092000000002
 20
97.502634999999998
 30
0.0
 40
0.704903
 50
213.116983
 51
222.86428000000001
  0
ARC
  5
120
  8
0
 62
     7
 10
51.461415999999993
 20
97.524574999999999
 30
0.0
 40
0.740618
 50
204.063624
 51
213.34143199999991
  0
ARC
  5
121
  8
0
 62
     7
 10
51.479919000000002
 20
97.535232999999991
 30
0.0
 40
0.761862
 50
200.03177700000001
 51
204.22813199999999
  0
ARC
  5
122
  8
0
 62
     7
 10
51.481285
 20
97.533577000000022
 30
0.0
 40
0.7625810000000001
 50
195.04818499999999
 51
199.879705
  0
ARC
  5
123
  8
0
 62
     7
 10
51.471063000000001
 20
97.530572000000006
 30
0.0
 40
0.75193
 50
190.799969
 51
195.02933200000001
  0
ARC
  5
124
  8
0
 62
     7
 10
52.220565000000001
 20
97.633259999999993
 30
0.0
 40
1.5079169999999991
 50
186.87640400000001
 51
189.29616300000001
  0
ARC
  5
125
  8
0
 62
     7
 10
51.473841
 20
106.55498799999999
 30
0.0
 40
1.4367659999999991
 50
91.868743000000009
 51
94.386848999999998
  0
ARC
  5
126
  8
0
 62
     7
 10
51.433791999999997
 20
107.272873
 30
0.0
 40
0.7180780000000001
 50
95.582183000000015
 51
101.505633
  0
ARC
  5
127
  8
0
 62
     7
 10
51.452837000000002
 20
107.170445
 30
0.0
 40
0.8222479999999999
 50
101.38236000000001
 51
105.779461
  0
ARC
  5
128
  8
0
 62
     7
 10
51.46150999999999
 20
107.174654
 30
0.0
 40
0.820611
 50
106.442149
 51
111.609039
  0
ARC
  5
129
  8
0
 62
     7
 10
51.412190000000002
 20
107.296443
 30
0.0
 40
0.689219
 50
111.52570299999999
 51
117.219002
  0
ARC
  5
12A
  8
0
 62
     7
 10
51.46416099999999
 20
107.19596
 30
0.0
 40
0.8023469999999999
 50
117.237267
 51
122.10887099999999
  0
ARC
  5
12B
  8
0
 62
     7
 10
51.364271999999993
 20
107.345726
 30
0.0
 40
0.6224150000000001
 50
121.648201
 51
127.465383
  0
ARC
  5
12C
  8
0
 62
     7
 10
51.419598000000001
 20
107.263167
 30
0.0
 40
0.721625
 50
126.964662
 51
132.851079
  0
ARC
  5
12D
  8
0
 62
     7
 10
51.422251000000003
 20
107.255155
 30
0.0
 40
0.729311
 50
132.57584399999999
 51
143.34248500000001
  0
ARC
  5
12E
  8
0
 62
     7
 10
51.42896799999999
 20
107.244167
 30
0.0
 40
0.7412760000000001
 50
142.97108600000001
 51
153.568297
  0
ARC
  5
12F
  8
0
 62
     7
 10
51.545454999999997
 20
107.195635
 30
0.0
 40
0.86723
 50
154.12284600000001
 51
158.98692299999999
  0
ARC
  5
130
  8
0
 62
     7
 10
51.410474999999991
 20
107.247298
 30
0.0
 40
0.7227000000000001
 50
158.97313700000001
 51
163.95833099999999
  0
ARC
  5
131
  8
0
 62
     7
 10
51.509070000000001
 20
107.223642
 30
0.0
 40
0.8240049999999998
 50
164.271976
 51
169.04948999999999
  0
ARC
  5
132
  8
0
 62
     7
 10
51.713256000000001
 20
107.20619600000001
 30
0.0
 40
1.028016
 50
170.256731
 51
174.056389
  0
LINE
  5
133
  8
0
 62
     7
 10
61.8536
 20
96.201499999999996
 30
0.0
 11
61.779600000000002
 21
96.201499999999996
 31
0.0
  0
ARC
  5
134
  8
0
 62
     7
 10
61.777912000000001
 20
86.100545999999994
 30
0.0
 40
10.100909
 50
89.990611000000001
 51
90.473299999999981
  0
LINE
  5
135
  8
0
 62
     7
 10
61.694499999999998
 20
96.201099999999997
 30
0.0
 11
61.599699999999999
 21
96.200800000000015
 31
0.0
  0
ARC
  5
136
  8
0
 62
     7
 10
61.720165999999999
 20
80.023504000000003
 30
0.0
 40
16.177709
 50
90.426536999999996
 51
90.860934999999998
  0
ARC
  5
137
  8
0
 62
     7
 10
61.58949599999999
 20
81.087319999999991
 30
0.0
 40
15.112486000000001
 50
90.426180000000016
 51
90.883360999999965
  0
ARC
  5
138
  8
0
 62
     7
 10
61.568302000000003
 20
80.650987999999984
 30
0.0
 40
15.548463999999999
 50
90.780479999999997
 51
91.331547
  0
ARC
  5
139
  8
0
 62
     7
 10
61.34200899999999
 20
87.706694999999996
 30
0.0
 40
8.4896320000000003
 50
90.911277999999996
 51
91.869504000000006
  0
ARC
  5
13A
  8
0
 62
     7
 10
61.292946999999991
 20
86.900120000000015
 30
0.0
 40
9.2944829999999996
 50
91.405014000000008
 51
92.212443999999991
  0
ARC
  5
13B
  8
0
 62
     7
 10
60.258021999999997
 20
111.38603500000001
 30
0.0
 40
15.213392000000001
 50
272.269273
 51
272.54717900000003
  0
ARC
  5
13C
  8
0
 62
     7
 10
61.069951000000003
 20
91.363196000000002
 30
0.0
 40
4.8259280000000002
 50
92.488570999999993
 51
93.369124999999997
  0
ARC
  5
13D
  8
0
 62
     7
 10
60.974503000000013
 20
92.906025
 30
0.0
 40
3.2801610000000001
 50
93.288542000000021
 51
94.525070000000014
  0
ARC
  5
13E
  8
0
 62
     7
 10
60.80124399999999
 20
94.825108999999983
 30
0.0
 40
1.353556999999999
 50
93.622898000000006
 51
96.316562999999988
  0
ARC
  5
13F
  8
0
 62
     7
 10
60.837026999999992
 20
94.323650999999998
 30
0.0
 40
1.8560110000000001
 50
95.711330000000004
 51
96.695543999999998
  0
ARC
  5
140
  8
0
 62
     7
 10
60.285366000000003
 20
98.250131999999994
 30
0.0
 40
2.1099349999999988
 50
278.47072400000002
 51
279.14287899999999
  0
ARC
  5
141
  8
0
 62
     7
 10
60.652779000000002
 20
95.827969999999993
 30
0.0
 40
0.33999
 50
99.584873000000016
 51
102.60255100000001
  0
ARC
  5
142
  8
0
 62
     7
 10
60.619914000000001
 20
95.983109999999996
 30
0.0
 40
0.181426
 50
103.163501
 51
108.022098
  0
ARC
  5
143
  8
0
 62
     7
 10
60.569541000000001
 20
96.134939000000017
 30
0.0
 40
0.021482
 50
105.546165
 51
129.55943199999999
  0
ARC
  5
144
  8
0
 62
     7
 10
60.598118000000007
 20
96.125992000000011
 30
0.0
 40
0.04936
 50
148.883374
 51
153.89567299999999
  0
ARC
  5
145
  8
0
 62
     7
 10
61.854613000000001
 20
50.534855
 30
0.0
 40
45.666600000000003
 50
89.685244999999995
 51
90.001215999999985
  0
LINE
  5
146
  8
0
 62
     7
 10
62.105499999999999
 20
96.200800000000015
 30
0.0
 11
62.350799999999992
 21
96.197999999999993
 31
0.0
  0
LINE
  5
147
  8
0
 62
     7
 10
62.350799999999992
 20
96.197999999999993
 30
0.0
 11
62.4452
 21
96.196600000000004
 31
0.0
  0
LINE
  5
148
  8
0
 62
     7
 10
62.4452
 20
96.196600000000004
 30
0.0
 11
62.550600000000003
 21
96.194199999999995
 31
0.0
  0
LINE
  5
149
  8
0
 62
     7
 10
62.550600000000003
 20
96.194199999999995
 30
0.0
 11
62.66149999999999
 21
96.191500000000005
 31
0.0
  0
ARC
  5
14A
  8
0
 62
     7
 10
62.145828999999999
 20
79.356391000000002
 30
0.0
 40
16.842969
 50
87.865544999999983
 51
88.245474999999985
  0
LINE
  5
14B
  8
0
 62
     7
 10
62.773099999999992
 20
96.187700000000007
 30
0.0
 11
62.858600000000003
 21
96.184200000000004
 31
0.0
  0
ARC
  5
14C
  8
0
 62
     7
 10
70.113191999999984
 20
229.08690799999999
 30
0.0
 40
133.10053199999999
 50
266.8755680000001
 51
266.90839099999999
  0
ARC
  5
14D
  8
0
 62
     7
 10
62.830418000000002
 20
94.305942999999999
 30
0.0
 40
1.8770519999999991
 50
84.800772999999992
 51
86.814819999999997
  0
ARC
  5
14E
  8
0
 62
     7
 10
62.913069999999991
 20
94.878827000000001
 30
0.0
 40
1.2993909999999991
 50
83.731493000000015
 51
86.141255000000001
  0
ARC
  5
14F
  8
0
 62
     7
 10
62.986040000000003
 20
95.415922999999992
 30
0.0
 40
0.757666
 50
81.685750999999996
 51
84.781880999999998
  0
ARC
  5
150
  8
0
 62
     7
 10
62.845807999999998
 20
94.658724000000007
 30
0.0
 40
1.527463999999999
 50
79.328011000000004
 51
80.587923999999987
  0
ARC
  5
151
  8
0
 62
     7
 10
63.12682800000001
 20
96.121903000000003
 30
0.0
 40
0.037911
 50
58.585028000000001
 51
87.209497999999996
  0
ARC
  5
152
  8
0
 62
     7
 10
63.121033999999987
 20
96.120458999999997
 30
0.0
 40
0.042371
 50
40.029510999999992
 51
52.908079999999998
  0
LINE
  5
153
  8
0
 62
     7
 10
63.153500000000001
 20
96.1477
 30
0.0
 11
63.152099999999997
 21
96.144600000000011
 31
0.0
  0
ARC
  5
154
  8
0
 62
     7
 10
63.143555000000013
 20
96.152601000000004
 30
0.0
 40
0.0117
 50
288.55086299999999
 51
316.919602
  0
ARC
  5
155
  8
0
 62
     7
 10
63.091222999999999
 20
96.254768000000013
 30
0.0
 40
0.126371
 50
292.55625300000003
 51
296.33167099999997
  0
ARC
  5
156
  8
0
 62
     7
 10
63.326149000000001
 20
95.453975999999983
 30
0.0
 40
0.7090420000000001
 50
105.245915
 51
106.17133800000001
  0
ARC
  5
157
  8
0
 62
     7
 10
63.057648
 20
96.410551999999996
 30
0.0
 40
0.284594
 50
282.02913899999999
 51
284.45191799999998
  0
LINE
  5
158
  8
0
 62
     7
 10
63.116999999999997
 20
96.132199999999997
 30
0.0
 11
63.10179999999999
 21
96.129099999999994
 31
0.0
  0
ARC
  5
159
  8
0
 62
     7
 10
63.036431000000007
 20
96.457595999999995
 30
0.0
 40
0.33493
 50
277.66960599999999
 51
281.25505600000008
  0
ARC
  5
15A
  8
0
 62
     7
 10
62.896555000000014
 20
97.308570000000003
 30
0.0
 40
1.197220999999999
 50
277.60256600000008
 51
278.86869100000001
  0
ARC
  5
15B
  8
0
 62
     7
 10
62.916387999999998
 20
97.076878000000022
 30
0.0
 40
0.9650049999999998
 50
276.13163500000002
 51
278.25532399999997
  0
ARC
  5
15C
  8
0
 62
     7
 10
55.024522999999988
 20
173.86949000000001
 30
0.0
 40
78.162059999999997
 50
275.84117199999997
 51
275.87087400000001
  0
ARC
  5
15D
  8
0
 62
     7
 10
61.950467000000003
 20
106.930712
 30
0.0
 40
10.866254
 50
275.19688200000002
 51
275.43222800000001
  0
ARC
  5
15E
  8
0
 62
     7
 10
62.531195999999987
 20
100.57695099999999
 30
0.0
 40
4.4860110000000004
 50
274.42334099999999
 51
275.16074600000002
  0
LINE
  5
15F
  8
0
 62
     7
 10
62.877200000000002
 20
96.104299999999995
 30
0.0
 11
62.822699999999998
 21
96.100500000000011
 31
0.0
  0
LINE
  5
160
  8
0
 62
     7
 10
62.822699999999998
 20
96.100500000000011
 30
0.0
 11
62.773099999999992
 21
96.097399999999993
 31
0.0
  0
ARC
  5
161
  8
0
 62
     7
 10
62.384443000000012
 20
101.905939
 30
0.0
 40
5.8215180000000002
 50
272.9045319999999
 51
273.82840900000002
  0
ARC
  5
162
  8
0
 62
     7
 10
63.329093999999998
 20
80.136348999999996
 30
0.0
 40
15.968772
 50
92.331621999999982
 51
92.697863000000012
  0
ARC
  5
163
  8
0
 62
     7
 10
62.177078999999999
 20
104.539053
 30
0.0
 40
8.4611100000000015
 50
271.96974
 51
272.71223300000003
  0
ARC
  5
164
  8
0
 62
     7
 10
62.134855000000002
 20
105.37022
 30
0.0
 40
9.2932469999999991
 50
271.33553799999999
 51
272.05377600000003
  0
ARC
  5
165
  8
0
 62
     7
 10
62.273440999999998
 20
98.061025999999998
 30
0.0
 40
1.983063999999999
 50
270.72115200000002
 51
272.25460299999997
  0
ARC
  5
166
  8
0
 62
     7
 10
62.457272000000003
 20
88.080803000000003
 30
0.0
 40
7.9988950000000001
 50
91.138062000000005
 51
91.557692000000003
  0
ARC
  5
167
  8
0
 62
     7
 10
62.779235999999997
 20
60.847859999999997
 30
0.0
 40
35.233010999999998
 50
90.877200000000002
 51
90.980858999999995
  0
ARC
  5
168
  8
0
 62
     7
 10
61.815322999999999
 20
117.732759
 30
0.0
 40
21.660056000000001
 50
270.77301399999999
 51
270.954386
  0
ARC
  5
169
  8
0
 62
     7
 10
62.015884
 20
101.27368800000001
 30
0.0
 40
5.1998220000000002
 50
270.38739900000007
 51
271.01000900000003
  0
ARC
  5
16A
  8
0
 62
     7
 10
61.953789
 20
102.00017200000001
 30
0.0
 40
5.926984
 50
270.34733199999999
 51
270.940179
  0
ARC
  5
16B
  8
0
 62
     7
 10
61.988191999999998
 20
90.144441
 30
0.0
 40
5.9288550000000004
 50
89.985252000000017
 51
90.617836000000011
  0
LINE
  5
16C
  8
0
 62
     7
 10
61.924300000000002
 20
96.072999999999993
 30
0.0
 11
61.8536
 21
96.072999999999993
 31
0.0
  0
ARC
  5
16D
  8
0
 62
     7
 10
60.603262000000001
 20
96.202717000000007
 30
0.0
 40
0.073979
 50
228.03392199999999
 51
239.312454
  0
ARC
  5
16E
  8
0
 62
     7
 10
60.599378000000002
 20
96.201385999999999
 30
0.0
 40
0.070902
 50
241.462626
 51
269.632541
  0
ARC
  5
16F
  8
0
 62
     7
 10
59.554133999999998
 20
89.482947999999993
 30
0.0
 40
6.7291410000000003
 50
80.607369000000006
 51
81.067918999999989
  0
ARC
  5
170
  8
0
 62
     7
 10
60.815691999999999
 20
97.243111000000013
 30
0.0
 40
1.133078
 50
261.710106
 51
264.83289200000002
  0
LINE
  5
171
  8
0
 62
     7
 10
60.7136
 20
96.11460000000001
 30
0.0
 11
60.77259999999999
 21
96.109099999999998
 31
0.0
  0
ARC
  5
172
  8
0
 62
     7
 10
61.385034999999988
 20
103.144324
 30
0.0
 40
7.0618089999999993
 50
265.02443799999998
 51
265.71711299999998
  0
ARC
  5
173
  8
0
 62
     7
 10
61.222230000000003
 20
101.27460600000001
 30
0.0
 40
5.1852039999999988
 50
265.968143
 51
266.81493999999998
  0
ARC
  5
174
  8
0
 62
     7
 10
61.408456999999991
 20
103.655142
 30
0.0
 40
7.5725990000000003
 50
266.40883400000001
 51
267.369505
  0
ARC
  5
175
  8
0
 62
     7
 10
61.553356000000001
 20
105.67595
 30
0.0
 40
9.5980690000000006
 50
267.05908299999999
 51
267.90104000000002
  0
ARC
  5
176
  8
0
 62
     7
 10
61.934054000000003
 20
117.00268
 30
0.0
 40
20.931170999999999
 50
267.99522300000012
 51
268.41697299999998
  0
LINE
  5
177
  8
0
 62
     7
 10
61.355800000000002
 20
96.079499999999996
 30
0.0
 11
61.475700000000003
 21
96.076700000000002
 31
0.0
  0
LINE
  5
178
  8
0
 62
     7
 10
61.475700000000003
 20
96.076700000000002
 30
0.0
 11
61.599699999999999
 21
96.074700000000007
 31
0.0
  0
LINE
  5
179
  8
0
 62
     7
 10
61.599699999999999
 20
96.074700000000007
 30
0.0
 11
61.725799999999992
 21
96.073300000000003
 31
0.0
  0
LINE
  5
17A
  8
0
 62
     7
 10
61.725799999999992
 20
96.073300000000003
 30
0.0
 11
61.8536
 21
96.072999999999993
 31
0.0
  0
ARC
  5
17B
  8
0
 62
     7
 10
99.166892000000004
 20
364.383781
 30
0.0
 40
271.833437
 50
259.86391700000001
 51
260.14222799999999
  0
ARC
  5
17C
  8
0
 62
     7
 10
62.748695999999988
 20
155.526567
 30
0.0
 40
59.825062000000003
 50
260.26049399999999
 51
261.41169600000001
  0
ARC
  5
17D
  8
0
 62
     7
 10
61.032220999999993
 20
144.82193599999999
 30
0.0
 40
48.984234999999991
 50
261.52710400000001
 51
264.77040499999998
  0
ARC
  5
17E
  8
0
 62
     7
 10
61.835677000000011
 20
151.39695499999999
 30
0.0
 40
55.605480999999997
 50
264.56348300000002
 51
267.41667000000001
  0
ARC
  5
17F
  8
0
 62
     7
 10
61.645201
 20
151.37300500000001
 30
0.0
 40
55.573290999999998
 50
267.61173700000001
 51
269.19795299999998
  0
ARC
  5
180
  8
0
 62
     7
 10
65.044376
 20
348.804914
 30
0.0
 40
253.03423599999999
 50
269.05412699999999
 51
269.27749599999999
  0
ARC
  5
181
  8
0
 62
     7
 10
24.540379000000001
 20
364.383781
 30
0.0
 40
271.833437
 50
279.85779100000002
 51
280.13610299999999
  0
ARC
  5
182
  8
0
 62
     7
 10
60.95857500000001
 20
155.526567
 30
0.0
 40
59.825062000000003
 50
278.588324
 51
279.73952600000001
  0
ARC
  5
183
  8
0
 62
     7
 10
62.675049999999992
 20
144.82193599999999
 30
0.0
 40
48.984234999999991
 50
275.22961400000003
 51
278.472916
  0
ARC
  5
184
  8
0
 62
     7
 10
61.871593999999988
 20
151.39695499999999
 30
0.0
 40
55.605480999999997
 50
272.58335
 51
275.43653699999999
  0
ARC
  5
185
  8
0
 62
     7
 10
62.062068999999987
 20
151.37300500000001
 30
0.0
 40
55.573290999999998
 50
270.80206700000002
 51
272.388283
  0
ARC
  5
186
  8
0
 62
     7
 10
58.662894999999992
 20
348.804914
 30
0.0
 40
253.03423599999999
 50
270.72252400000002
 51
270.94589200000001
  0
ARC
  5
187
  8
0
 62
     7
 10
23.727208999999998
 20
102.576791
 30
0.0
 40
49.516289999999998
 50
2.2810399999999991
 51
5.4882929999999988
  0
ARC
  5
188
  8
0
 62
     7
 10
23.182102
 20
102.556104
 30
0.0
 40
50.062472999999997
 50
354.14908800000001
 51
357.70053000000001
  0
ARC
  5
189
  8
0
 62
     7
 10
61.853634999999997
 20
-641.04099499999995
 30
0.0
 40
749.1045519999999
 50
89.202475000000021
 51
90.797505000000015
  0
ARC
  5
18A
  8
0
 62
     7
 10
99.775238000000002
 20
102.58456
 30
0.0
 40
49.31166300000001
 50
174.49791099999999
 51
177.718504
  0
ARC
  5
18B
  8
0
 62
     7
 10
100.787289
 20
102.580377
 30
0.0
 40
50.325702
 50
182.315113
 51
185.84800000000001
  0
ARC
  5
18C
  8
0
 62
     7
 10
52.380288999999998
 20
102.54245899999999
 30
0.0
 40
9.5268209999999982
 50
157.51603600000001
 51
179.97049899999999
  0
ARC
  5
18D
  8
0
 62
     7
 10
52.389575000000001
 20
102.554456
 30
0.0
 40
9.5361080000000005
 50
180.04265100000001
 51
202.472891
  0
ARC
  5
18E
  8
0
 62
     7
 10
43.671728000000002
 20
106.14482
 30
0.0
 40
0.102611
 50
90.986318999999995
 51
156.49240499999999
  0
ARC
  5
18F
  8
0
 62
     7
 10
43.811528000000003
 20
98.948010000000011
 30
0.0
 40
0.100706
 50
270.2120569999999
 51
315.10666199999997
  0
ARC
  5
190
  8
0
 62
     7
 10
43.672027999999997
 20
98.950120000000013
 30
0.0
 40
0.102837
 50
203.377227
 51
268.84888100000001
  0
ARC
  5
191
  8
0
 62
     7
 10
45.595745999999998
 20
100.44524800000001
 30
0.0
 40
0.102224
 50
90.365818999999988
 51
134.47833499999999
  0
ARC
  5
192
  8
0
 62
     7
 10
45.594366000000001
 20
104.646472
 30
0.0
 40
0.098879
 50
224.73425800000001
 51
270.42158799999999
  0
ARC
  5
193
  8
0
 62
     7
 10
43.812441999999997
 20
106.14725300000001
 30
0.0
 40
0.100165
 50
45.322310999999992
 51
90.309646999999998
  0
LINE
  5
194
  8
0
 62
     7
 10
43.669999999999987
 20
106.247
 30
0.0
 11
43.811900000000001
 21
106.247
 31
0.0
  0
LINE
  5
195
  8
0
 62
     7
 10
43.669999999999987
 20
98.847300000000004
 30
0.0
 11
43.811900000000001
 21
98.847300000000004
 31
0.0
  0
LINE
  5
196
  8
0
 62
     7
 10
50.660400000000003
 20
100.547
 30
0.0
 11
45.595100000000002
 21
100.547
 31
0.0
  0
LINE
  5
197
  8
0
 62
     7
 10
50.660400000000003
 20
104.548
 30
0.0
 11
45.595100000000002
 21
104.548
 31
0.0
  0
LINE
  5
198
  8
0
 62
     7
 10
45.524099999999997
 20
104.577
 30
0.0
 11
43.882899999999999
 21
106.218
 31
0.0
  0
LINE
  5
199
  8
0
 62
     7
 10
45.524099999999997
 20
100.518
 30
0.0
 11
43.882899999999999
 21
98.876900000000006
 31
0.0
  0
LINE
  5
19A
  8
0
 62
     7
 10
80.853800000000007
 20
150.542
 30
0.0
 11
80.853800000000007
 21
136.304
 31
0.0
  0
LINE
  5
19B
  8
0
 62
     7
 10
42.853499999999997
 20
150.542
 30
0.0
 11
42.853499999999997
 21
136.304
 31
0.0
  0
LINE
  5
19C
  8
0
 62
     7
 10
45.064900000000002
 20
137.596
 30
0.0
 11
42.853499999999997
 21
137.00399999999999
 31
0.0
  0
LINE
  5
19D
  8
0
 62
     7
 10
42.853499999999997
 20
137.00399999999999
 30
0.0
 11
45.064900000000002
 21
136.411
 31
0.0
  0
LINE
  5
19E
  8
0
 62
     7
 10
45.064900000000002
 20
136.411
 30
0.0
 11
45.064900000000002
 21
137.596
 31
0.0
  0
LINE
  5
19F
  8
0
 62
     7
 10
78.642399999999995
 20
136.411
 30
0.0
 11
80.853800000000007
 21
137.00399999999999
 31
0.0
  0
LINE
  5
1A0
  8
0
 62
     7
 10
80.853800000000007
 20
137.00399999999999
 30
0.0
 11
78.642399999999995
 21
137.596
 31
0.0
  0
LINE
  5
1A1
  8
0
 62
     7
 10
78.642399999999995
 20
137.596
 30
0.0
 11
78.642399999999995
 21
136.411
 31
0.0
  0
LINE
  5
1A2
  8
0
 62
     7
 10
42.853499999999997
 20
137.00399999999999
 30
0.0
 11
80.853800000000007
 21
137.00399999999999
 31
0.0
  0
LINE
  5
1A3
  8
0
 62
     7
 10
73.944599999999994
 20
170.49299999999999
 30
0.0
 11
87.748900000000006
 21
170.49299999999999
 31
0.0
  0
LINE
  5
1A4
  8
0
 62
     7
 10
71.958500000000001
 20
147.74299999999999
 30
0.0
 11
87.748900000000006
 21
147.74299999999999
 31
0.0
  0
LINE
  5
1A5
  8
0
 62
     7
 10
48.568600000000011
 20
148.78200000000001
 30
0.0
 11
47.975999999999999
 21
150.99299999999999
 31
0.0
  0
LINE
  5
1A6
  8
0
 62
     7
 10
47.975999999999999
 20
150.99299999999999
 30
0.0
 11
47.383499999999991
 21
148.78200000000001
 31
0.0
  0
LINE
  5
1A7
  8
0
 62
     7
 10
47.383499999999991
 20
148.78200000000001
 30
0.0
 11
48.568600000000011
 21
148.78200000000001
 31
0.0
  0
LINE
  5
1A8
  8
0
 62
     7
 10
47.383499999999991
 20
157.20400000000001
 30
0.0
 11
47.975999999999999
 21
154.99299999999999
 31
0.0
  0
LINE
  5
1A9
  8
0
 62
     7
 10
47.975999999999999
 20
154.99299999999999
 30
0.0
 11
48.568600000000011
 21
157.20400000000001
 31
0.0
  0
LINE
  5
1AA
  8
0
 62
     7
 10
48.568600000000011
 20
157.20400000000001
 30
0.0
 11
47.383499999999991
 21
157.20400000000001
 31
0.0
  0
LINE
  5
1AB
  8
0
 62
     7
 10
47.975999999999999
 20
161.55600000000001
 30
0.0
 11
47.975999999999999
 21
147.15299999999999
 31
0.0
  0
LINE
  5
1AC
  8
0
 62
     7
 10
87.641400000000004
 20
168.28100000000001
 30
0.0
 11
87.048800000000014
 21
170.49299999999999
 31
0.0
  0
LINE
  5
1AD
  8
0
 62
     7
 10
87.048800000000014
 20
170.49299999999999
 30
0.0
 11
86.456299999999999
 21
168.28100000000001
 31
0.0
  0
LINE
  5
1AE
  8
0
 62
     7
 10
86.456299999999999
 20
168.28100000000001
 30
0.0
 11
87.641400000000004
 21
168.28100000000001
 31
0.0
  0
LINE
  5
1AF
  8
0
 62
     7
 10
86.456299999999999
 20
149.95400000000001
 30
0.0
 11
87.048800000000014
 21
147.74299999999999
 31
0.0
  0
LINE
  5
1B0
  8
0
 62
     7
 10
87.048800000000014
 20
147.74299999999999
 30
0.0
 11
87.641400000000004
 21
149.95400000000001
 31
0.0
  0
LINE
  5
1B1
  8
0
 62
     7
 10
87.641400000000004
 20
149.95400000000001
 30
0.0
 11
86.456299999999999
 21
149.95400000000001
 31
0.0
  0
LINE
  5
1B2
  8
0
 62
     7
 10
87.048800000000014
 20
170.49299999999999
 30
0.0
 11
87.048800000000014
 21
147.74299999999999
 31
0.0
  0
LINE
  5
1B3
  8
0
 62
     7
 10
50.712499999999999
 20
150.91800000000001
 30
0.0
 11
50.712499999999999
 21
150.91900000000001
 31
0.0
  0
LINE
  5
1B4
  8
0
 62
     7
 10
50.712499999999999
 20
150.91900000000001
 30
0.0
 11
50.7121
 21
150.91900000000001
 31
0.0
  0
LINE
  5
1B5
  8
0
 62
     7
 10
50.7121
 20
150.91900000000001
 30
0.0
 11
50.711799999999997
 21
150.92099999999999
 31
0.0
  0
LINE
  5
1B6
  8
0
 62
     7
 10
50.711799999999997
 20
150.92099999999999
 30
0.0
 11
50.711100000000002
 21
150.92599999999999
 31
0.0
  0
ARC
  5
1B7
  8
0
 62
     7
 10
50.735607000000002
 20
150.932244
 30
0.0
 40
0.025229
 50
182.58908299999999
 51
193.67115899999999
  0
ARC
  5
1B8
  8
0
 62
     7
 10
51.263711999999998
 20
151.031305
 30
0.0
 40
0.562308
 50
188.06002100000001
 51
190.26471100000001
  0
ARC
  5
1B9
  8
0
 62
     7
 10
51.326326000000002
 20
151.04807500000001
 30
0.0
 40
0.6267040000000002
 50
186.931242
 51
188.77542299999999
  0
ARC
  5
1BA
  8
0
 62
     7
 10
58.591174999999993
 20
152.183673
 30
0.0
 40
7.979436999999999
 50
188.33067099999991
 51
188.730898
  0
LINE
  5
1BB
  8
0
 62
     7
 10
50.695900000000002
 20
151.02799999999999
 30
0.0
 11
50.688999999999993
 21
151.08099999999999
 31
0.0
  0
ARC
  5
1BC
  8
0
 62
     7
 10
66.468241000000006
 20
152.97645
 30
0.0
 40
15.892595999999999
 50
186.65853899999999
 51
186.848647
  0
ARC
  5
1BD
  8
0
 62
     7
 10
55.076120999999993
 20
151.638643
 30
0.0
 40
4.4222029999999988
 50
185.25546600000001
 51
186.55685399999999
  0
ARC
  5
1BE
  8
0
 62
     7
 10
55.106316
 20
151.65081799999999
 30
0.0
 40
4.4533969999999989
 50
184.08605499999999
 51
185.37586099999999
  0
ARC
  5
1BF
  8
0
 62
     7
 10
57.290056
 20
151.74916200000001
 30
0.0
 40
6.6388429999999987
 50
182.72618099999991
 51
183.58974799999999
  0
ARC
  5
1C0
  8
0
 62
     7
 10
53.159979999999997
 20
151.58694199999999
 30
0.0
 40
2.5059610000000001
 50
181.2263319999999
 51
183.51272299999991
  0
ARC
  5
1C1
  8
0
 62
     7
 10
57.531369999999988
 20
151.67812599999999
 30
0.0
 40
6.8783019999999997
 50
180.374098
 51
181.206414
  0
ARC
  5
1C2
  8
0
 62
     7
 10
57.671982999999997
 20
151.63477
 30
0.0
 40
7.0187689999999989
 50
179.19704300000001
 51
180.01268300000001
  0
ARC
  5
1C3
  8
0
 62
     7
 10
54.258445999999999
 20
155.218323
 30
0.0
 40
3.6641269999999988
 50
182.35126099999999
 51
183.13869
  0
LINE
  5
1C4
  8
0
 62
     7
 10
50.599800000000002
 20
155.018
 30
0.0
 11
50.602200000000011
 21
154.96799999999999
 31
0.0
  0
ARC
  5
1C5
  8
0
 62
     7
 10
66.28913
 20
155.63869199999999
 30
0.0
 40
15.701231
 50
182.447868
 51
182.9789899999999
  0
ARC
  5
1C6
  8
0
 62
     7
 10
-299.85770300000001
 20
139.801063
 30
0.0
 40
350.78859999999997
 50
2.4305310000000002
 51
2.4542989999999998
  0
ARC
  5
1C7
  8
0
 62
     7
 10
-2.3043379999999991
 20
152.39153300000001
 30
0.0
 40
52.96899899999999
 50
2.0585589999999989
 51
2.4732750000000001
  0
ARC
  5
1C8
  8
0
 62
     7
 10
-62.439864
 20
150.64531299999999
 30
0.0
 40
113.129203
 50
1.654245999999999
 51
1.848360999999999
  0
ARC
  5
1C9
  8
0
 62
     7
 10
-7.150567999999998
 20
152.36700099999999
 30
0.0
 40
57.813382999999988
 50
1.04417
 51
1.5304869999999999
  0
ARC
  5
1CA
  8
0
 62
     7
 10
1.035339
 20
152.582382
 30
0.0
 40
49.624955
 50
0.402106
 51
0.9677699999999999
  0
ARC
  5
1CB
  8
0
 62
     7
 10
14.806146
 20
152.616298
 30
0.0
 40
35.854303999999999
 50
359.99804999999998
 51
0.502347
  0
ARC
  5
1CC
  8
0
 62
     7
 10
2.578943999999999
 20
152.50932299999999
 30
0.0
 40
48.081621999999989
 50
359.74915099999998
 51
0.126021
  0
ARC
  5
1CD
  8
0
 62
     7
 10
-6.6715070000000001
 20
152.71518
 30
0.0
 40
57.333123999999991
 50
359.30088599999999
 51
359.58390300000002
  0
ARC
  5
1CE
  8
0
 62
     7
 10
21.708020999999999
 20
152.227397
 30
0.0
 40
28.950102000000001
 50
359.02173299999998
 51
359.58087799999998
  0
ARC
  5
1CF
  8
0
 62
     7
 10
61.782924000000001
 20
151.732033
 30
0.0
 40
11.270443
 50
358.583282
 51
0.005564
  0
ARC
  5
1D0
  8
0
 62
     7
 10
68.662885000000003
 20
151.64124799999999
 30
0.0
 40
4.3910569999999991
 50
353.353183
 51
357.54795100000001
  0
ARC
  5
1D1
  8
0
 62
     7
 10
69.877972999999997
 20
151.48795200000001
 30
0.0
 40
3.1664140000000001
 50
352.06801000000002
 51
353.56345700000003
  0
ARC
  5
1D2
  8
0
 62
     7
 10
68.626431000000011
 20
151.626758
 30
0.0
 40
4.4252779999999987
 50
351.49718300000001
 51
352.52416499999998
  0
LINE
  5
1D3
  8
0
 62
     7
 10
73.003100000000003
 20
150.97200000000001
 30
0.0
 11
72.998900000000006
 21
150.94499999999999
 31
0.0
  0
LINE
  5
1D4
  8
0
 62
     7
 10
72.998900000000006
 20
150.94499999999999
 30
0.0
 11
72.994799999999984
 21
150.91800000000001
 31
0.0
  0
ARC
  5
1D5
  8
0
 62
     7
 10
192.03535299999999
 20
153.46696299999999
 30
0.0
 40
118.994618
 50
180.698522
 51
180.83488899999989
  0
ARC
  5
1D6
  8
0
 62
     7
 10
189.11824999999999
 20
153.144285
 30
0.0
 40
116.074153
 50
180.41667899999999
 51
180.55681000000001
  0
LINE
  5
1D7
  8
0
 62
     7
 10
73.047200000000004
 20
152.30000000000001
 30
0.0
 11
73.046499999999995
 21
152.61600000000001
 31
0.0
  0
LINE
  5
1D8
  8
0
 62
     7
 10
73.046499999999995
 20
152.61600000000001
 30
0.0
 11
73.047899999999998
 21
152.93100000000001
 31
0.0
  0
ARC
  5
1D9
  8
0
 62
     7
 10
130.49664199999989
 20
152.44843700000001
 30
0.0
 40
57.450811000000002
 50
179.030449
 51
179.51906299999999
  0
ARC
  5
1DA
  8
0
 62
     7
 10
116.09493500000001
 20
152.697047
 30
0.0
 40
43.046959999999991
 50
178.38472999999999
 51
179.03695300000001
  0
ARC
  5
1DB
  8
0
 62
     7
 10
125.951615
 20
152.48513500000001
 30
0.0
 40
52.905737000000002
 50
178.04113599999999
 51
178.45621700000001
  0
ARC
  5
1DC
  8
0
 62
     7
 10
175.44742299999999
 20
150.44236699999999
 30
0.0
 40
102.443044
 50
177.630719
 51
177.84553500000001
  0
ARC
  5
1DD
  8
0
 62
     7
 10
-277.37486799999999
 20
169.698971
 30
0.0
 40
350.78859999999997
 50
357.54570100000001
 51
357.56946900000003
  0
ARC
  5
1DE
  8
0
 62
     7
 10
88.785056999999995
 20
154.152109
 30
0.0
 40
15.701231
 50
177.02100999999999
 51
177.552132
  0
ARC
  5
1DF
  8
0
 62
     7
 10
76.433890000000005
 20
154.83113700000001
 30
0.0
 40
3.3316620000000001
 50
176.789874
 51
177.64404500000001
  0
ARC
  5
1E0
  8
0
 62
     7
 10
71.382206000000011
 20
155.12562700000001
 30
0.0
 40
1.7286220000000001
 50
356.42047300000002
 51
358.08961499999998
  0
ARC
  5
1E1
  8
0
 62
     7
 10
54.727781999999998
 20
151.86788200000001
 30
0.0
 40
4.1261339999999986
 50
193.30934400000001
 51
268.59301900000003
  0
ARC
  5
1E2
  8
0
 62
     7
 10
68.979664999999983
 20
151.86766499999999
 30
0.0
 40
4.1259119999999996
 50
271.404627
 51
346.69305000000003
  0
LINE
  5
1E3
  8
0
 62
     7
 10
54.6265
 20
147.74299999999999
 30
0.0
 11
69.080799999999996
 21
147.74299999999999
 31
0.0
  0
LINE
  5
1E4
  8
0
 62
     7
 10
50.5974
 20
155.06800000000001
 30
0.0
 11
50.462699999999991
 21
170.49299999999999
 31
0.0
  0
LINE
  5
1E5
  8
0
 62
     7
 10
73.244600000000005
 20
170.49299999999999
 30
0.0
 11
50.462699999999991
 21
170.49299999999999
 31
0.0
  0
LINE
  5
1E6
  8
0
 62
     7
 10
73.109899999999996
 20
155.06800000000001
 30
0.0
 11
73.244600000000005
 21
170.49299999999999
 31
0.0
  0
ARC
  5
1E7
  8
0
 62
     7
 10
79.895669999999996
 20
156.59049099999999
 30
0.0
 40
0.102228
 50
90.168233000000001
 51
134.199769
  0
ARC
  5
1E8
  8
0
 62
     7
 10
71.323030000000003
 20
152.98731900000001
 30
0.0
 40
9.5307729999999982
 50
0.032123
 51
22.479225
  0
ARC
  5
1E9
  8
0
 62
     7
 10
80.035984999999997
 20
156.59055799999999
 30
0.0
 40
0.102169
 50
23.5596
 51
89.257824000000014
  0
ARC
  5
1EA
  8
0
 62
     7
 10
80.035363999999987
 20
149.39524299999999
 30
0.0
 40
0.102655
 50
271.08579099999997
 51
336.68814099999997
  0
ARC
  5
1EB
  8
0
 62
     7
 10
78.11196600000001
 20
155.094908
 30
0.0
 40
0.102011
 50
270.11888199999999
 51
314.24915900000002
  0
ARC
  5
1EC
  8
0
 62
     7
 10
78.110129000000001
 20
150.888398
 30
0.0
 40
0.104739
 50
45.801831
 51
88.879450000000006
  0
ARC
  5
1ED
  8
0
 62
     7
 10
79.896422999999984
 20
149.39493999999999
 30
0.0
 40
0.102339
 50
225.270692
 51
269.41062799999997
  0
ARC
  5
1EE
  8
0
 62
     7
 10
71.326971
 20
152.99791099999999
 30
0.0
 40
9.5268320000000006
 50
337.51606600000002
 51
359.96843200000001
  0
LINE
  5
1EF
  8
0
 62
     7
 10
80.037300000000002
 20
156.69300000000001
 30
0.0
 11
79.895399999999995
 21
156.69300000000001
 31
0.0
  0
LINE
  5
1F0
  8
0
 62
     7
 10
78.183099999999996
 20
150.96299999999999
 30
0.0
 11
79.824399999999997
 21
149.322
 31
0.0
  0
LINE
  5
1F1
  8
0
  6
AIGENLINE001
 62
     7
 10
40.659300000000002
 20
152.99299999999999
 30
0.0
 11
82.580500000000001
 21
152.99299999999999
 31
0.0
  0
LINE
  5
1F2
  8
0
 62
     7
 10
73.006500000000003
 20
150.99299999999999
 30
0.0
 11
78.112200000000001
 21
150.99299999999999
 31
0.0
  0
LINE
  5
1F3
  8
0
 62
     7
 10
73.106399999999994
 20
154.99299999999999
 30
0.0
 11
78.112200000000001
 21
154.99299999999999
 31
0.0
  0
LINE
  5
1F4
  8
0
 62
     7
 10
78.112200000000001
 20
154.99299999999999
 30
0.0
 11
78.112200000000001
 21
150.99299999999999
 31
0.0
  0
LINE
  5
1F5
  8
0
 62
     7
 10
78.183099999999996
 20
155.02199999999999
 30
0.0
 11
79.824399999999997
 21
156.66399999999999
 31
0.0
  0
LINE
  5
1F6
  8
0
 62
     7
 10
80.037300000000002
 20
149.29300000000001
 30
0.0
 11
79.895399999999995
 21
149.29300000000001
 31
0.0
  0
ARC
  5
1F7
  8
0
 62
     7
 10
43.672339000000001
 20
149.39588599999999
 30
0.0
 40
0.103307
 50
203.54469599999999
 51
268.68141200000002
  0
ARC
  5
1F8
  8
0
 62
     7
 10
43.811179999999993
 20
149.39414500000001
 30
0.0
 40
0.101541
 50
270.40668899999997
 51
314.91203000000002
  0
ARC
  5
1F9
  8
0
 62
     7
 10
45.595742999999999
 20
150.89174800000001
 30
0.0
 40
0.10137
 50
90.36715199999999
 51
134.951527
  0
ARC
  5
1FA
  8
0
 62
     7
 10
52.389575000000001
 20
152.99975800000001
 30
0.0
 40
9.5361080000000005
 50
180.04265100000001
 51
202.472891
  0
ARC
  5
1FB
  8
0
 62
     7
 10
43.671714000000001
 20
156.589913
 30
0.0
 40
0.10282
 50
90.976243000000011
 51
156.20629400000001
  0
ARC
  5
1FC
  8
0
 62
     7
 10
52.380294999999997
 20
152.98810399999999
 30
0.0
 40
9.5268270000000008
 50
157.51604599999999
 51
179.972566
  0
ARC
  5
1FD
  8
0
 62
     7
 10
45.594442999999998
 20
155.092795
 30
0.0
 40
0.0999
 50
225.25917899999999
 51
270.37281899999999
  0
ARC
  5
1FE
  8
0
 62
     7
 10
43.812441999999997
 20
156.59255400000001
 30
0.0
 40
0.100165
 50
45.322310999999992
 51
90.309646999999998
  0
LINE
  5
1FF
  8
0
 62
     7
 10
43.669999999999987
 20
149.29300000000001
 30
0.0
 11
43.811900000000001
 21
149.29300000000001
 31
0.0
  0
LINE
  5
200
  8
0
 62
     7
 10
45.524099999999997
 20
150.96299999999999
 30
0.0
 11
43.882899999999999
 21
149.322
 31
0.0
  0
LINE
  5
201
  8
0
 62
     7
 10
50.6008
 20
154.99299999999999
 30
0.0
 11
45.595100000000002
 21
154.99299999999999
 31
0.0
  0
LINE
  5
202
  8
0
 62
     7
 10
50.700800000000001
 20
150.99299999999999
 30
0.0
 11
45.595100000000002
 21
150.99299999999999
 31
0.0
  0
LINE
  5
203
  8
0
 62
     7
 10
45.595100000000002
 20
150.99299999999999
 30
0.0
 11
45.595100000000002
 21
154.99299999999999
 31
0.0
  0
LINE
  5
204
  8
0
 62
     7
 10
45.524099999999997
 20
155.02199999999999
 30
0.0
 11
43.882899999999999
 21
156.66399999999999
 31
0.0
  0
LINE
  5
205
  8
0
 62
     7
 10
43.669999999999987
 20
156.69300000000001
 30
0.0
 11
43.811900000000001
 21
156.69300000000001
 31
0.0
  0
LINE
  5
206
  8
0
 62
     7
 10
129.881
 20
95.790800000000004
 30
0.0
 11
128.45599999999999
 21
95.861400000000003
 31
0.0
  0
LINE
  5
207
  8
0
 62
     7
 10
128.45599999999999
 20
95.861400000000003
 30
0.0
 11
127.03
 21
95.931700000000006
 31
0.0
  0
ARC
  5
208
  8
0
 62
     7
 10
78.669319999999999
 20
-865.60272499999985
 30
0.0
 40
962.74983900000007
 50
87.120681999999988
 51
87.205606000000003
  0
LINE
  5
209
  8
0
 62
     7
 10
125.605
 20
96.002300000000005
 30
0.0
 11
124.18000000000001
 21
96.072999999999993
 31
0.0
  0
LINE
  5
20A
  8
0
 62
     7
 10
121.581
 20
96.201499999999996
 30
0.0
 11
121.608
 21
96.200800000000015
 31
0.0
  0
LINE
  5
20B
  8
0
 62
     7
 10
121.608
 20
96.200800000000015
 30
0.0
 11
121.636
 21
96.199399999999983
 31
0.0
  0
LINE
  5
20C
  8
0
 62
     7
 10
121.636
 20
96.199399999999983
 30
0.0
 11
121.717
 21
96.196600000000004
 31
0.0
  0
LINE
  5
20D
  8
0
 62
     7
 10
121.717
 20
96.196600000000004
 30
0.0
 11
121.798
 21
96.193899999999999
 31
0.0
  0
ARC
  5
20E
  8
0
 62
     7
 10
120.458054
 20
58.193568999999989
 30
0.0
 40
38.023934999999987
 50
87.627770999999996
 51
87.979995000000017
  0
LINE
  5
20F
  8
0
 62
     7
 10
122.032
 20
96.184900000000013
 30
0.0
 11
122.265
 21
96.175600000000003
 31
0.0
  0
ARC
  5
210
  8
0
 62
     7
 10
128.37733299999999
 20
232.443434
 30
0.0
 40
136.40481299999999
 50
267.431918
 51
267.56112200000001
  0
ARC
  5
211
  8
0
 62
     7
 10
119.44082400000001
 20
26.292698000000001
 30
0.0
 40
69.939644000000001
 50
87.181056999999996
 51
87.433367999999987
  0
ARC
  5
212
  8
0
 62
     7
 10
115.79068700000001
 20
-47.60486199999999
 30
0.0
 40
143.92729700000001
 50
87.053871999999998
 51
87.176498999999993
  0
ARC
  5
213
  8
0
 62
     7
 10
115.413382
 20
-48.369717999999999
 30
0.0
 40
144.710927
 50
86.798255000000012
 51
86.920245999999992
  0
LINE
  5
214
  8
0
 62
     7
 10
123.496
 20
96.115300000000005
 30
0.0
 11
123.729
 21
96.101500000000001
 31
0.0
  0
ARC
  5
215
  8
0
 62
     7
 10
121.53908300000001
 20
58.857874000000002
 30
0.0
 40
37.307997999999998
 50
86.275519999999986
 51
86.634928000000002
  0
ARC
  5
216
  8
0
 62
     7
 10
133.105018
 20
238.682242
 30
0.0
 40
142.88794799999999
 50
266.331523
 51
266.36405200000002
  0
ARC
  5
217
  8
0
 62
     7
 10
118.83874299999999
 20
13.903717
 30
0.0
 40
82.342849999999984
 50
86.319543999999993
 51
86.375992000000025
  0
LINE
  5
218
  8
0
 62
     7
 10
124.124
 20
96.076700000000002
 30
0.0
 11
124.15300000000001
 21
96.074700000000007
 31
0.0
  0
LINE
  5
219
  8
0
 62
     7
 10
124.15300000000001
 20
96.074700000000007
 30
0.0
 11
124.18000000000001
 21
96.072999999999993
 31
0.0
  0
ARC
  5
21A
  8
0
 62
     7
 10
109.60626999999999
 20
97.926694000000012
 30
0.0
 40
2.257674999999999
 50
189.74993799999999
 51
193.10430299999999
  0
ARC
  5
21B
  8
0
 62
     7
 10
108.054401
 20
97.595111000000003
 30
0.0
 40
0.671662
 50
195.570188
 51
206.74328600000001
  0
ARC
  5
21C
  8
0
 62
     7
 10
108.228328
 20
97.672443000000015
 30
0.0
 40
0.8618319999999998
 50
206.13119499999999
 51
210.343729
  0
ARC
  5
21D
  8
0
 62
     7
 10
108.20600399999999
 20
97.668413999999999
 30
0.0
 40
0.8405669999999998
 50
210.875473
 51
215.91172900000001
  0
ARC
  5
21E
  8
0
 62
     7
 10
108.409943
 20
97.844356000000005
 30
0.0
 40
1.109175
 50
217.0938120000001
 51
220.96618699999999
  0
ARC
  5
21F
  8
0
 62
     7
 10
108.241473
 20
97.726570999999993
 30
0.0
 40
0.9049979999999999
 50
222.32824600000001
 51
226.35469800000001
  0
ARC
  5
220
  8
0
 62
     7
 10
108.03862100000001
 20
97.511831000000001
 30
0.0
 40
0.6096
 50
226.22094100000001
 51
232.700784
  0
ARC
  5
221
  8
0
 62
     7
 10
108.129131
 20
97.610244999999992
 30
0.0
 40
0.742838
 50
231.74726899999999
 51
237.043691
  0
ARC
  5
222
  8
0
 62
     7
 10
108.147685
 20
97.645698999999993
 30
0.0
 40
0.7826890000000001
 50
237.315899
 51
241.85001299999999
  0
ARC
  5
223
  8
0
 62
     7
 10
108.10536500000001
 20
97.561196999999993
 30
0.0
 40
0.6882200000000001
 50
241.63749300000001
 51
247.6701810000001
  0
ARC
  5
224
  8
0
 62
     7
 10
108.086365
 20
97.48699000000002
 30
0.0
 40
0.6124520000000001
 50
246.67675500000001
 51
252.288241
  0
ARC
  5
225
  8
0
 62
     7
 10
108.15218299999999
 20
97.717744999999994
 30
0.0
 40
0.852325
 50
252.792632
 51
257.490162
  0
ARC
  5
226
  8
0
 62
     7
 10
108.10282599999999
 20
97.461984000000001
 30
0.0
 40
0.591989
 50
256.79195900000002
 51
262.82505900000001
  0
ARC
  5
227
  8
0
 62
     7
 10
108.145326
 20
97.829592000000005
 30
0.0
 40
0.9620339999999999
 50
263.04817000000003
 51
266.73617999999999
  0
LINE
  5
228
  8
0
 62
     7
 10
121.581
 20
96.201499999999996
 30
0.0
 11
118.208
 21
96.368200000000002
 31
0.0
  0
LINE
  5
229
  8
0
 62
     7
 10
118.208
 20
96.368200000000002
 30
0.0
 11
114.836
 21
96.535300000000007
 31
0.0
  0
LINE
  5
22A
  8
0
 62
     7
 10
114.836
 20
96.535300000000007
 30
0.0
 11
111.46299999999999
 21
96.702000000000012
 31
0.0
  0
LINE
  5
22B
  8
0
 62
     7
 10
111.46299999999999
 20
96.702000000000012
 30
0.0
 11
108.09099999999999
 21
96.869100000000003
 31
0.0
  0
ARC
  5
22C
  8
0
 62
     7
 10
105.999962
 20
107.297978
 30
0.0
 40
1.3504819999999991
 50
354.10769299999998
 51
355.384703
  0
ARC
  5
22D
  8
0
 62
     7
 10
157.16956099999999
 20
102.54729
 30
0.0
 40
50.039248999999998
 50
174.711602
 51
185.72416799999999
  0
ARC
  5
22E
  8
0
 62
     7
 10
108.11662800000001
 20
107.09776599999999
 30
0.0
 40
0.775976
 50
92.205531000000008
 51
172.60956100000001
  0
ARC
  5
22F
  8
0
 62
     7
 10
108.149795
 20
97.641701000000012
 30
0.0
 40
0.7748510000000001
 50
187.679248
 51
265.615205
  0
LINE
  5
230
  8
0
 62
     7
 10
108.087
 20
107.873
 30
0.0
 11
129.881
 21
108.06399999999999
 31
0.0
  0
LINE
  5
231
  8
0
 62
     7
 10
129.881
 20
108.06399999999999
 30
0.0
 11
129.881
 21
95.790800000000004
 31
0.0
  0
LINE
  5
232
  8
0
 62
     7
 10
129.881
 20
102.114
 30
0.0
 11
150.75
 21
102.114
 31
0.0
  0
LINE
  5
233
  8
0
 62
     7
 10
129.881
 20
104.014
 30
0.0
 11
150.75
 21
104.014
 31
0.0
  0
LINE
  5
234
  8
0
 62
     7
 10
151.10300000000001
 20
104.51000000000001
 30
0.0
 11
152.00899999999999
 21
101.617
 31
0.0
  0
LINE
  5
235
  8
0
 62
     7
 10
149.52500000000001
 20
104.51000000000001
 30
0.0
 11
150.429
 21
101.617
 31
0.0
  0
LINE
  5
236
  8
0
 62
     7
 10
147.94499999999999
 20
104.51000000000001
 30
0.0
 11
148.84999999999999
 21
101.617
 31
0.0
  0
LINE
  5
237
  8
0
 62
     7
 10
146.36600000000001
 20
104.51000000000001
 30
0.0
 11
147.27199999999999
 21
101.617
 31
0.0
  0
LINE
  5
238
  8
0
 62
     7
 10
144.78800000000001
 20
104.51000000000001
 30
0.0
 11
145.69200000000001
 21
101.617
 31
0.0
  0
LINE
  5
239
  8
0
 62
     7
 10
143.208
 20
104.51000000000001
 30
0.0
 11
144.114
 21
101.617
 31
0.0
  0
LINE
  5
23A
  8
0
 62
     7
 10
141.63
 20
104.51000000000001
 30
0.0
 11
142.53399999999999
 21
101.617
 31
0.0
  0
LINE
  5
23B
  8
0
 62
     7
 10
140.05099999999999
 20
104.51000000000001
 30
0.0
 11
140.95500000000001
 21
101.617
 31
0.0
  0
LINE
  5
23C
  8
0
  6
AIGENLINE001
 62
     7
 10
128.24299999999999
 20
103.063
 30
0.0
 11
155.37799999999999
 21
103.063
 31
0.0
  0
LINE
  5
23D
  8
0
 62
     7
 10
150.75
 20
102.114
 30
0.0
 11
153.381
 21
103.063
 31
0.0
  0
LINE
  5
23E
  8
0
 62
     7
 10
150.75
 20
104.014
 30
0.0
 11
153.381
 21
103.063
 31
0.0
  0
LINE
  5
23F
  8
0
 62
     7
 10
136.893
 20
104.51000000000001
 30
0.0
 11
137.797
 21
101.617
 31
0.0
  0
LINE
  5
240
  8
0
 62
     7
 10
138.471
 20
104.51000000000001
 30
0.0
 11
139.37700000000001
 21
101.617
 31
0.0
  0
LINE
  5
241
  8
0
 62
     7
 10
135.881
 20
104.014
 30
0.0
 11
135.881
 21
102.114
 31
0.0
  0
LINE
  5
242
  8
0
 62
     7
 10
162.29300000000001
 20
103.063
 30
0.0
 11
156.078
 21
103.063
 31
0.0
  0
LINE
  5
243
  8
0
 62
     7
 10
161.00800000000001
 20
105.85299999999999
 30
0.0
 11
161.601
 21
108.06399999999999
 31
0.0
  0
LINE
  5
244
  8
0
 62
     7
 10
161.601
 20
108.06399999999999
 30
0.0
 11
162.19300000000001
 21
105.85299999999999
 31
0.0
  0
LINE
  5
245
  8
0
 62
     7
 10
162.19300000000001
 20
105.85299999999999
 30
0.0
 11
161.00800000000001
 21
105.85299999999999
 31
0.0
  0
LINE
  5
246
  8
0
 62
     7
 10
162.179
 20
105.274
 30
0.0
 11
161.58600000000001
 21
103.063
 31
0.0
  0
LINE
  5
247
  8
0
 62
     7
 10
161.58600000000001
 20
103.063
 30
0.0
 11
160.994
 21
105.274
 31
0.0
  0
LINE
  5
248
  8
0
 62
     7
 10
160.994
 20
105.274
 30
0.0
 11
162.179
 21
105.274
 31
0.0
  0
LINE
  5
249
  8
0
 62
     7
 10
161.59299999999999
 20
108.06399999999999
 30
0.0
 11
161.59299999999999
 21
103.063
 31
0.0
  0
LINE
  5
24A
  8
0
 62
     7
 10
130.58099999999999
 20
108.06399999999999
 30
0.0
 11
169.37100000000001
 21
108.06399999999999
 31
0.0
  0
LINE
  5
24B
  8
0
 62
     7
 10
169.37100000000001
 20
95.790800000000004
 30
0.0
 11
130.58099999999999
 21
95.790800000000004
 31
0.0
  0
LINE
  5
24C
  8
0
 62
     7
 10
168.08600000000001
 20
105.85299999999999
 30
0.0
 11
168.678
 21
108.06399999999999
 31
0.0
  0
LINE
  5
24D
  8
0
 62
     7
 10
168.678
 20
108.06399999999999
 30
0.0
 11
169.27099999999999
 21
105.85299999999999
 31
0.0
  0
LINE
  5
24E
  8
0
 62
     7
 10
169.27099999999999
 20
105.85299999999999
 30
0.0
 11
168.08600000000001
 21
105.85299999999999
 31
0.0
  0
LINE
  5
24F
  8
0
 62
     7
 10
169.256
 20
98.001499999999993
 30
0.0
 11
168.66399999999999
 21
95.790099999999995
 31
0.0
  0
LINE
  5
250
  8
0
 62
     7
 10
168.66399999999999
 20
95.790099999999995
 30
0.0
 11
168.071
 21
98.001499999999993
 31
0.0
  0
LINE
  5
251
  8
0
 62
     7
 10
168.071
 20
98.001499999999993
 30
0.0
 11
169.256
 21
98.001499999999993
 31
0.0
  0
LINE
  5
252
  8
0
 62
     7
 10
168.67099999999999
 20
108.06399999999999
 30
0.0
 11
168.67099999999999
 21
95.790800000000004
 31
0.0
  0
LINE
  5
253
  8
0
  6
AIGENLINE001
 62
     7
 10
64.853300000000004
 20
103.063
 30
0.0
 11
70.853999999999985
 21
103.063
 31
0.0
  0
LINE
  5
254
  8
0
  6
AIGENLINE001
 62
     7
 10
67.853700000000003
 20
100.063
 30
0.0
 11
67.853700000000003
 21
106.06399999999999
 31
0.0
  0
ARC
  5
255
  8
0
  6
AIGENLINE002
 62
     7
 10
67.817406999999989
 20
103.026506
 30
0.0
 40
0.987073
 50
2.1043219999999998
 51
87.895668000000015
  0
ARC
  5
256
  8
0
  6
AIGENLINE002
 62
     7
 10
67.889891000000006
 20
103.026511
 30
0.0
 40
0.987068
 50
92.104018999999994
 51
177.895951
  0
ARC
  5
257
  8
0
  6
AIGENLINE002
 62
     7
 10
67.889895999999993
 20
103.098994
 30
0.0
 40
0.987073
 50
182.10432499999999
 51
267.89570500000002
  0
ARC
  5
258
  8
0
  6
AIGENLINE002
 62
     7
 10
67.817412000000004
 20
103.09899
 30
0.0
 40
0.987068
 50
272.10405600000001
 51
357.89595400000002
  0
LINE
  5
259
  8
0
  6
AIGENLINE001
 62
     7
 10
52.853299999999997
 20
103.063
 30
0.0
 11
58.853999999999999
 21
103.063
 31
0.0
  0
LINE
  5
25A
  8
0
  6
AIGENLINE001
 62
     7
 10
55.8536
 20
100.063
 30
0.0
 11
55.8536
 21
106.06399999999999
 31
0.0
  0
ARC
  5
25B
  8
0
  6
AIGENLINE002
 62
     7
 10
55.817374999999998
 20
103.026506
 30
0.0
 40
0.987073
 50
2.1043219999999998
 51
87.895668000000015
  0
ARC
  5
25C
  8
0
  6
AIGENLINE002
 62
     7
 10
55.88985799999999
 20
103.026511
 30
0.0
 40
0.987068
 50
92.104018999999994
 51
177.895951
  0
ARC
  5
25D
  8
0
  6
AIGENLINE002
 62
     7
 10
55.889862999999998
 20
103.098994
 30
0.0
 40
0.987073
 50
182.10432499999999
 51
267.89570500000002
  0
ARC
  5
25E
  8
0
  6
AIGENLINE002
 62
     7
 10
55.817380000000007
 20
103.09899
 30
0.0
 40
0.987068
 50
272.10405600000001
 51
357.89595400000002
  0
LINE
  5
25F
  8
_________2
 62
     7
 10
205.30099999999999
 20
127.411
 30
0.0
 11
183.55000000000001
 21
127.411
 31
0.0
  0
LINE
  5
260
  8
_________2
 62
     7
 10
100.3
 20
-4.0910799999999998
 30
0.0
 11
100.3
 21
-21.071400000000001
 31
0.0
  0
LINE
  5
261
  8
_________2
 62
     7
 10
100.3
 20
275.93099999999998
 30
0.0
 11
100.3
 21
258.911
 31
0.0
  0
LINE
  5
262
  8
_________2
 62
     7
 10
17.049499999999998
 20
127.411
 30
0.0
 11
-4.70052
 21
127.411
 31
0.0
  0
LINE
  5
263
  8
_________2
 62
     7
 10
76.741
 20
29.8047
 30
0.0
 11
74.554699999999997
 21
29.8047
 31
0.0
  0
LINE
  5
264
  8
_________2
 62
     7
 10
77.233699999999999
 20
29.8047
 30
0.0
 11
76.981499999999997
 21
29.8047
 31
0.0
  0
LINE
  5
265
  8
_________2
 62
     7
 10
77.726299999999995
 20
29.8047
 30
0.0
 11
80.651200000000003
 21
29.8047
 31
0.0
  0
LINE
  5
266
  8
_________2
 62
     7
 10
77.233699999999999
 20
29.8047
 30
0.0
 11
77.485500000000002
 21
29.8047
 31
0.0
  0
LINE
  5
267
  8
_________2
 62
     7
 10
70.837100000000007
 20
29.8047
 30
0.0
 11
68.650499999999994
 21
29.8047
 31
0.0
  0
LINE
  5
268
  8
_________2
 62
     7
 10
71.329400000000007
 20
29.8047
 30
0.0
 11
71.077600000000004
 21
29.8047
 31
0.0
  0
LINE
  5
269
  8
_________2
 62
     7
 10
71.329400000000007
 20
30.2974
 30
0.0
 11
71.329400000000007
 21
32.484400000000001
 31
0.0
  0
LINE
  5
26A
  8
_________2
 62
     7
 10
71.329400000000007
 20
29.8047
 30
0.0
 11
71.329400000000007
 21
30.056899999999999
 31
0.0
  0
LINE
  5
26B
  8
_________2
 62
     7
 10
71.822100000000006
 20
29.8047
 30
0.0
 11
74.009
 21
29.8047
 31
0.0
  0
LINE
  5
26C
  8
_________2
 62
     7
 10
71.329400000000007
 20
29.8047
 30
0.0
 11
71.581599999999995
 21
29.8047
 31
0.0
  0
LINE
  5
26D
  8
_________2
 62
     7
 10
71.329400000000007
 20
29.312799999999999
 30
0.0
 11
71.329400000000007
 21
27.125800000000002
 31
0.0
  0
LINE
  5
26E
  8
_________2
 62
     7
 10
71.329400000000007
 20
29.8047
 30
0.0
 11
71.329400000000007
 21
29.5532
 31
0.0
  0
LINE
  5
26F
  8
_________2
 62
     7
 10
75.040499999999994
 20
28.5852
 30
0.0
 11
80.218500000000006
 21
27.720400000000001
 31
0.0
  0
LINE
  5
270
  8
_________2
 62
     7
 10
75.040499999999994
 20
31.0243
 30
0.0
 11
80.218500000000006
 21
31.889700000000001
 31
0.0
  0
LINE
  5
271
  8
_________2
 62
     7
 10
80.218500000000006
 20
27.720400000000001
 30
0.0
 11
80.218500000000006
 21
31.889700000000001
 31
0.0
  0
LINE
  5
272
  8
_________2
 62
     7
 10
75.040499999999994
 20
28.5852
 30
0.0
 11
75.040499999999994
 21
31.0243
 31
0.0
  0
ARC
  5
273
  8
_________2
 62
     7
 10
71.28285600000001
 20
29.757811
 30
0.0
 40
1.2673589999999999
 50
2.122214
 51
87.893958999999995
  0
ARC
  5
274
  8
_________2
 62
     7
 10
71.375959999999992
 20
29.758213000000001
 30
0.0
 40
1.2669559999999991
 50
92.104701000000006
 51
177.89526900000001
  0
ARC
  5
275
  8
_________2
 62
     7
 10
71.376357999999996
 20
29.851671
 30
0.0
 40
1.2673680000000001
 50
182.12203600000001
 51
267.877993
  0
ARC
  5
276
  8
_________2
 62
     7
 10
71.282531999999989
 20
29.851998999999999
 30
0.0
 40
1.267695999999999
 50
272.12015300000002
 51
357.863674
  0
ARC
  5
277
  8
_________2
 62
     7
 10
71.329430000000002
 20
29.804742999999998
 30
0.0
 40
2.0849849999999992
 50
0.00001
 51
89.999980000000008
  0
ARC
  5
278
  8
_________2
 62
     7
 10
71.329603000000006
 20
29.804915000000001
 30
0.0
 40
2.084813
 50
90.004733999999999
 51
180.00474399999999
  0
ARC
  5
279
  8
_________2
 62
     7
 10
71.409106000000008
 20
29.884775999999999
 30
0.0
 40
2.1657950000000001
 50
182.11776599999999
 51
267.89173399999999
  0
ARC
  5
27A
  8
_________2
 62
     7
 10
71.249459000000002
 20
29.885429999999999
 30
0.0
 40
2.1664590000000001
 50
272.11546800000002
 51
357.86560400000002
  0
TEXT
  5
27B
  8
_________2
 62
     7
 10
104.605
 20
1.6794899999999999
 30
0.0
 40
3.0923400000000001
  1
図番
 41
0.5
  0
LINE
  5
27C
  8
_________2
 62
     7
 10
103.55
 20
5.9087199999999989
 30
0.0
 11
183.55099999999999
 21
5.9087199999999989
 31
0.0
  0
TEXT
  5
27D
  8
_________2
 62
     7
 10
104.605
 20
11.6793
 30
0.0
 40
3.0923400000000001
  1
品番
 41
0.5
  0
TEXT
  5
27E
  8
_________2
 62
     7
 10
104.605
 20
31.818100000000001
 30
0.0
 40
3.0923400000000001
  1
名称
 41
0.5
  0
TEXT
  5
27F
  8
_________2
 62
     7
 10
91.845058333333341
 20
26.821999999999999
 30
0.0
 40
3.6545800000000002
  1
mm
 41
0.5
 72
     1
 11
93.367800000000003
 21
26.821999999999999
 31
0.0
  0
TEXT
  5
280
  8
_________2
 62
     7
 10
85.643199999999993
 20
31.818100000000001
 30
0.0
 40
3.0923400000000001
  1
単位
 41
0.5
  0
TEXT
  5
281
  8
_________2
 62
     7
 10
85.643199999999993
 20
19.410799999999998
 30
0.0
 40
3.0923400000000001
  1
尺度
 41
0.5
  0
TEXT
  5
282
  8
_________2
 62
     7
 10
90.548758666666686
 20
13.2179
 30
0.0
 40
3.6545800000000002
  1
1 ： 2
 41
0.5
 72
     1
 11
93.959699999999998
 21
13.2179
 31
0.0
  0
TEXT
  5
283
  8
_________2
 62
     7
 10
138.13841249999999
 20
9.1078600000000005
 30
0.0
 40
3.9357000000000002
  1
EC0278
 41
0.5
 72
     1
 11
143.55000000000001
 21
9.1078600000000005
 31
0.0
  0
TEXT
  5
284
  8
_________2
 62
     7
 10
138.13841249999999
 20
-0.8926299999999999
 30
0.0
 40
3.9357000000000002
  1
EC0278
 41
0.5
 72
     1
 11
143.55000000000001
 21
-0.8926299999999999
 31
0.0
  0
TEXT
  5
285
  8
_________2
 62
     7
 10
22.214099999999998
 20
40.677199999999999
 30
0.0
 40
4.2168199999999993
  1
※壁取付部には厚さ30mm以上の補強木を入れてください。
 41
0.5
  0
TEXT
  5
286
  8
_________2
 62
     7
 10
109.179
 20
24.2257
 30
0.0
 40
3.9357000000000002
  1
トレンド　ダブルフック
 41
0.5
  0
TEXT
  5
287
  8
_________2
 62
     7
 10
39.425300333333333
 20
13.603
 30
0.0
 40
3.6545800000000002
  1
早川
 41
0.5
 72
     1
 11
41.313499999999998
 21
13.603
 31
0.0
  0
TEXT
  5
288
  8
_________2
 62
     7
 10
20.790090666666671
 20
13.603
 30
0.0
 40
3.6545800000000002
  1
菅原
 41
0.5
 72
     1
 11
22.7392
 21
13.603
 31
0.0
  0
TEXT
  5
289
  8
_________2
 62
     7
 10
67.785399999999996
 20
13.2179
 30
0.0
 40
3.6545800000000002
  1
15.12.24
 41
0.5
  0
TEXT
  5
28A
  8
_________2
 62
     7
 10
66.593100000000007
 20
19.410799999999998
 30
0.0
 40
3.0923400000000001
  1
日付
 41
0.5
  0
TEXT
  5
28B
  8
_________2
 62
     7
 10
29.639399999999998
 20
19.410799999999998
 30
0.0
 40
3.0923400000000001
  1
検図
 41
0.5
  0
TEXT
  5
28C
  8
_________2
 62
     7
 10
18.021100000000001
 20
5.21143
 30
0.0
 40
3.0923400000000001
  1
備考
 41
0.5
  0
TEXT
  5
28D
  8
_________2
 62
     7
 10
18.021100000000001
 20
19.410799999999998
 30
0.0
 40
3.0923400000000001
  1
製図
 41
0.5
  0
TEXT
  5
28E
  8
_________2
 62
     7
 10
23.788465333333338
 20
27.936800000000002
 30
0.0
 40
4.4979399999999989
  1
セラトレーディング株式会社
 41
0.5
 72
     1
 11
41.180500000000002
 21
27.936800000000002
 31
0.0
  0
LINE
  5
28F
  8
_________2
 62
     7
 10
183.55099999999999
 20
-4.0910799999999998
 30
0.0
 11
17.049499999999998
 21
-4.0910799999999998
 31
0.0
  0
LINE
  5
290
  8
_________2
 62
     7
 10
17.049499999999998
 20
-4.0910799999999998
 30
0.0
 11
17.049499999999998
 21
258.911
 31
0.0
  0
LINE
  5
291
  8
_________2
 62
     7
 10
17.049499999999998
 20
258.911
 30
0.0
 11
183.55099999999999
 21
258.911
 31
0.0
  0
LINE
  5
292
  8
_________2
 62
     7
 10
183.55099999999999
 20
258.911
 30
0.0
 11
183.55099999999999
 21
-4.0910799999999998
 31
0.0
  0
LINE
  5
293
  8
_________2
 62
     7
 10
65.549599999999998
 20
9.4089600000000004
 30
0.0
 11
65.549599999999998
 21
35.908799999999999
 31
0.0
  0
LINE
  5
294
  8
_________2
 62
     7
 10
84.549700000000016
 20
9.4089600000000004
 30
0.0
 11
84.549700000000016
 21
35.908799999999999
 31
0.0
  0
LINE
  5
295
  8
_________2
 62
     7
 10
103.55
 20
-4.0910799999999998
 30
0.0
 11
103.55
 21
35.908799999999999
 31
0.0
  0
LINE
  5
296
  8
_________2
 62
     7
 10
28.549299999999999
 20
9.4089600000000004
 30
0.0
 11
28.549299999999999
 21
23.409199999999998
 31
0.0
  0
LINE
  5
297
  8
_________2
 62
     7
 10
17.049499999999998
 20
9.4089600000000004
 30
0.0
 11
103.55
 21
9.4089600000000004
 31
0.0
  0
LINE
  5
298
  8
_________2
 62
     7
 10
17.049499999999998
 20
23.409199999999998
 30
0.0
 11
103.55
 21
23.409199999999998
 31
0.0
  0
LINE
  5
299
  8
_________2
 62
     7
 10
103.55
 20
15.9085
 30
0.0
 11
183.55099999999999
 21
15.9085
 31
0.0
  0
LINE
  5
29A
  8
_________2
 62
     7
 10
17.049499999999998
 20
35.908799999999999
 30
0.0
 11
183.55099999999999
 21
35.908799999999999
 31
0.0
  0
ENDSEC
  0
EOF
