  0
SECTION
  2
HEADER
  9
$ACADVER
  1
AC1009
  9
$INSBASE
 10
0.0
 20
0.0
 30
0.0
  9
$EXTMIN
 10
-4.70052
 20
-21.071400000000001
 30
0.0
  9
$EXTMAX
 10
205.30099999999999
 20
275.93099999999998
 30
0.0
  9
$LIMMIN
 10
0.0
 20
0.0
  9
$LIMMAX
 10
12.0
 20
9.0
  9
$ORTHOMODE
 70
     0
  9
$REGENMODE
 70
     1
  9
$FILLMODE
 70
     1
  9
$QTEXTMODE
 70
     0
  9
$MIRRTEXT
 70
     1
  9
$DRAGMODE
 70
     2
  9
$LTSCALE
 40
1.0
  9
$OSMODE
 70
    37
  9
$ATTMODE
 70
     1
  9
$TEXTSIZE
 40
0.0
  9
$TRACEWID
 40
0.05
  9
$TEXTSTYLE
  7
STANDARD
  9
$CLAYER
  8
0
  9
$CELTYPE
  6
CONTINUOUS
  9
$CECOLOR
 62
   256
  9
$DIMSCALE
 40
1.0
  9
$DIMASZ
 40
0.18
  9
$DIMEXO
 40
0.0625
  9
$DIMDLI
 40
0.38
  9
$DIMRND
 40
0.0
  9
$DIMDLE
 40
0.0
  9
$DIMEXE
 40
0.18
  9
$DIMTP
 40
0.0
  9
$DIMTM
 40
0.0
  9
$DIMTXT
 40
0.18
  9
$DIMCEN
 40
0.09
  9
$DIMTSZ
 40
0.0
  9
$DIMTOL
 70
     0
  9
$DIMLIM
 70
     0
  9
$DIMTIH
 70
     1
  9
$DIMTOH
 70
     1
  9
$DIMSE1
 70
     0
  9
$DIMSE2
 70
     0
  9
$DIMTAD
 70
     0
  9
$DIMZIN
 70
     0
  9
$DIMBLK
  1

  9
$DIMASO
 70
     1
  9
$DIMSHO
 70
     1
  9
$DIMPOST
  1

  9
$DIMAPOST
  1

  9
$DIMALT
 70
     0
  9
$DIMALTD
 70
     2
  9
$DIMALTF
 40
25.399999999999999
  9
$DIMLFAC
 40
1.0
  9
$DIMTOFL
 70
     0
  9
$DIMTVP
 40
0.0
  9
$DIMTIX
 70
     0
  9
$DIMSOXD
 70
     0
  9
$DIMSAH
 70
     0
  9
$DIMBLK1
  1

  9
$DIMBLK2
  1

  9
$DIMSTYLE
  2
STANDARD
  9
$DIMCLRD
 70
     0
  9
$DIMCLRE
 70
     0
  9
$DIMCLRT
 70
     0
  9
$DIMTFAC
 40
1.0
  9
$DIMGAP
 40
0.09
  9
$LUNITS
 70
     2
  9
$LUPREC
 70
     4
  9
$SKETCHINC
 40
0.1
  9
$FILLETRAD
 40
0.0
  9
$AUNITS
 70
     0
  9
$AUPREC
 70
     0
  9
$MENU
  1
.
  9
$ELEVATION
 40
0.0
  9
$PELEVATION
 40
0.0
  9
$THICKNESS
 40
0.0
  9
$LIMCHECK
 70
     0
  9
$BLIPMODE
 70
     0
  9
$CHAMFERA
 40
0.0
  9
$CHAMFERB
 40
0.0
  9
$SKPOLY
 70
     0
  9
$TDCREATE
 40
2444972.375
  9
$TDUPDATE
 40
2458941.2465133332
  9
$TDINDWG
 40
0.0000319097
  9
$TDUSRTIMER
 40
0.0000319097
  9
$USRTIMER
 70
     1
  9
$ANGBASE
 50
0.0
  9
$ANGDIR
 70
     0
  9
$PDMODE
 70
     0
  9
$PDSIZE
 40
0.0
  9
$PLINEWID
 40
0.0
  9
$COORDS
 70
     1
  9
$SPLFRAME
 70
     0
  9
$SPLINETYPE
 70
     6
  9
$SPLINESEGS
 70
     8
  9
$ATTDIA
 70
     1
  9
$ATTREQ
 70
     1
  9
$HANDLING
 70
     1
  9
$HANDSEED
  5
26B
  9
$SURFTAB1
 70
     6
  9
$SURFTAB2
 70
     6
  9
$SURFTYPE
 70
     6
  9
$SURFU
 70
     6
  9
$SURFV
 70
     6
  9
$UCSNAME
  2

  9
$UCSORG
 10
0.0
 20
0.0
 30
0.0
  9
$UCSXDIR
 10
1.0
 20
0.0
 30
0.0
  9
$UCSYDIR
 10
0.0
 20
1.0
 30
0.0
  9
$PUCSNAME
  2

  9
$PUCSORG
 10
0.0
 20
0.0
 30
0.0
  9
$PUCSXDIR
 10
1.0
 20
0.0
 30
0.0
  9
$PUCSYDIR
 10
0.0
 20
1.0
 30
0.0
  9
$USERI1
 70
     0
  9
$USERI2
 70
     0
  9
$USERI3
 70
     0
  9
$USERI4
 70
     0
  9
$USERI5
 70
     0
  9
$USERR1
 40
0.0
  9
$USERR2
 40
0.0
  9
$USERR3
 40
0.0
  9
$USERR4
 40
0.0
  9
$USERR5
 40
0.0
  9
$WORLDVIEW
 70
     1
  9
$SHADEDGE
 70
     3
  9
$SHADEDIF
 70
    70
  9
$TILEMODE
 70
     1
  9
$MAXACTVP
 70
    48
  9
$PLIMCHECK
 70
     0
  9
$PEXTMIN
 10
1.0000000000000000E+020
 20
1.0000000000000000E+020
 30
1.0000000000000000E+020
  9
$PEXTMAX
 10
-1.0000000000000000E+020
 20
-1.0000000000000000E+020
 30
-1.0000000000000000E+020
  9
$PLIMMIN
 10
0.0
 20
0.0
  9
$PLIMMAX
 10
12.0
 20
9.0
  9
$UNITMODE
 70
     0
  9
$VISRETAIN
 70
     1
  9
$PLINEGEN
 70
     0
  9
$PSLTSCALE
 70
     1
  0
ENDSEC
  0
SECTION
  2
TABLES
  0
TABLE
  2
VPORT
 70
     1
  0
VPORT
  2
*ACTIVE
 70
     0
 10
0.0
 20
0.0
 11
1.0
 21
1.0
 12
160.69134016008601
 22
127.4298
 13
0.0
 23
0.0
 14
1.0
 24
1.0
 15
0.0
 25
0.0
 16
0.0
 26
0.0
 36
1.0
 17
0.0
 27
0.0
 37
0.0
 40
279.0110506481771
 41
2.0982367758186391
 42
50.0
 43
0.0
 44
0.0
 50
0.0
 51
0.0
 71
     0
 72
   100
 73
     1
 74
     1
 75
     0
 76
     0
 77
     0
 78
     0
  0
ENDTAB
  0
TABLE
  2
LTYPE
 70
     1
  0
LTYPE
  2
CONTINUOUS
 70
     0
  3
Solid line
 72
    65
 73
     0
 40
0.0
  0
ENDTAB
  0
TABLE
  2
LAYER
 70
     4
  0
LAYER
  2
0
 70
     0
 62
     7
  6
CONTINUOUS
  0
LAYER
  2
____
 70
     0
 62
     7
  6
CONTINUOUS
  0
LAYER
  2
_________1
 70
     0
 62
     7
  6
CONTINUOUS
  0
LAYER
  2
_________2
 70
     0
 62
     7
  6
CONTINUOUS
  0
ENDTAB
  0
TABLE
  2
STYLE
 70
     1
  0
STYLE
  2
STANDARD
 70
     0
 40
0.0
 41
0.0
 50
0.0
 71
     0
 42
0.0
  3
TXT
  4
EXTFONT.SHX
  0
ENDTAB
  0
TABLE
  2
VIEW
 70
     0
  0
ENDTAB
  0
TABLE
  2
UCS
 70
     0
  0
ENDTAB
  0
TABLE
  2
APPID
 70
     3
  0
APPID
  2
ACAD
 70
     0
  0
APPID
  2
ACAD_NAV_VCDISPLAY
 70
     0
  0
APPID
  2
ACAD_MLEADERVER
 70
     0
  0
ENDTAB
  0
TABLE
  2
DIMSTYLE
 70
     1
  0
DIMSTYLE
  2
STANDARD
 70
     0
  3

  4

  5

  6

  7

 40
1.0
 41
0.18
 42
0.0625
 43
0.38
 44
0.18
 45
0.0
 46
0.0
 47
0.0
 48
0.0
140
0.18
141
0.09
142
0.0
143
25.399999999999999
144
1.0
145
0.0
146
1.0
147
0.09
 71
     0
 72
     0
 73
     1
 74
     1
 75
     0
 76
     0
 77
     0
 78
     0
170
     0
171
     2
172
     0
173
     0
174
     0
175
     0
176
     0
177
     0
178
     0
  0
ENDTAB
  0
ENDSEC
  0
SECTION
  2
BLOCKS
  0
BLOCK
  8
0
  2
$MODEL_SPACE
 70
     0
 10
0.0
 20
0.0
 30
0.0
  3
$MODEL_SPACE
  1

  0
ENDBLK
  5
1A
  8
0
  0
BLOCK
 67
     1
  8
0
  2
$PAPER_SPACE
 70
     0
 10
0.0
 20
0.0
 30
0.0
  3
$PAPER_SPACE
  1

  0
ENDBLK
  5
17
 67
     1
  8
0
  0
BLOCK
  8
____
  2
AIGNBL01010002
 70
     0
 10
0.0
 20
0.0
 30
0.0
  3
AIGNBL01010002
  1

  0
TEXT
  5
25
  8
____
 62
     7
 10
113.953
 20
175.63674499999999
 30
0.0
 40
3.0923400000000001
  1
97.5
 50
90.0
 41
0.5
 72
     1
 11
113.953
 21
177.95599999999999
 31
0.0
  0
ENDBLK
  5
26
  8
____
  0
BLOCK
  8
____
  2
AIGNBL01010003
 70
     0
 10
0.0
 20
0.0
 30
0.0
  3
AIGNBL01010003
  1

  0
TEXT
  5
29
  8
____
 62
     7
 10
33.860500000000002
 20
115.964
 30
0.0
 40
3.0923400000000001
  1
樹脂板
 41
0.5
  0
ENDBLK
  5
2A
  8
____
  0
BLOCK
  8
____
  2
AIGNBL01010004
 70
     0
 10
0.0
 20
0.0
 30
0.0
  3
AIGNBL01010004
  1

  0
TEXT
  5
2D
  8
____
 62
     7
 10
68.925735000000003
 20
155.05199999999999
 30
0.0
 40
3.0923400000000001
  1
192
 41
0.5
 72
     1
 11
70.729600000000005
 21
155.05199999999999
 31
0.0
  0
ENDBLK
  5
2E
  8
____
  0
BLOCK
  8
____
  2
AIGNBL01010005
 70
     0
 10
0.0
 20
0.0
 30
0.0
  3
AIGNBL01010005
  1

  0
TEXT
  5
31
  8
____
 62
     7
 10
113.953
 20
103.668525
 30
0.0
 40
3.0923400000000001
  1
39
 50
90.0
 41
0.5
 72
     1
 11
113.953
 21
104.95699999999999
 31
0.0
  0
ENDBLK
  5
32
  8
____
  0
BLOCK
  8
____
  2
AIGNBL01010006
 70
     0
 10
0.0
 20
0.0
 30
0.0
  3
AIGNBL01010006
  1

  0
TEXT
  5
35
  8
____
 62
     7
 10
145.60174499999999
 20
91.523700000000005
 30
0.0
 40
3.0923400000000001
  1
84.5
 41
0.5
 72
     1
 11
147.92099999999999
 21
91.523700000000005
 31
0.0
  0
ENDBLK
  5
36
  8
____
  0
BLOCK
  8
_________1
  2
AIGNBL02010002
 70
     0
 10
0.0
 20
0.0
 30
0.0
  3
AIGNBL02010002
  1

  0
LINE
  5
39
  8
_________1
 62
     7
 10
115.239
 20
191.99600000000001
 30
0.0
 11
114.646
 21
194.20699999999999
 31
0.0
  0
LINE
  5
3A
  8
_________1
 62
     7
 10
114.646
 20
194.20699999999999
 30
0.0
 11
114.054
 21
191.99600000000001
 31
0.0
  0
LINE
  5
3B
  8
_________1
 62
     7
 10
114.054
 20
191.99600000000001
 30
0.0
 11
115.239
 21
191.99600000000001
 31
0.0
  0
LINE
  5
3C
  8
_________1
 62
     7
 10
114.068
 20
163.917
 30
0.0
 11
114.661
 21
161.70500000000001
 31
0.0
  0
LINE
  5
3D
  8
_________1
 62
     7
 10
114.661
 20
161.70500000000001
 30
0.0
 11
115.253
 21
163.917
 31
0.0
  0
LINE
  5
3E
  8
_________1
 62
     7
 10
115.253
 20
163.917
 30
0.0
 11
114.068
 21
163.917
 31
0.0
  0
LINE
  5
3F
  8
_________1
 62
     7
 10
114.654
 20
194.20599999999999
 30
0.0
 11
114.654
 21
161.70599999999999
 31
0.0
  0
ENDBLK
  5
40
  8
_________1
  0
BLOCK
  8
_________1
  2
AIGNBL02010003
 70
     0
 10
0.0
 20
0.0
 30
0.0
  3
AIGNBL02010003
  1

  0
LINE
  5
43
  8
_________1
 62
     7
 10
40.939700000000002
 20
154.93799999999999
 30
0.0
 11
38.7286
 21
154.345
 31
0.0
  0
LINE
  5
44
  8
_________1
 62
     7
 10
38.7286
 20
154.345
 30
0.0
 11
40.939700000000002
 21
153.75200000000001
 31
0.0
  0
LINE
  5
45
  8
_________1
 62
     7
 10
40.939700000000002
 20
153.75200000000001
 30
0.0
 11
40.939700000000002
 21
154.93799999999999
 31
0.0
  0
LINE
  5
46
  8
_________1
 62
     7
 10
100.52
 20
153.767
 30
0.0
 11
102.73099999999999
 21
154.36000000000001
 31
0.0
  0
LINE
  5
47
  8
_________1
 62
     7
 10
102.73099999999999
 20
154.36000000000001
 30
0.0
 11
100.52
 21
154.952
 31
0.0
  0
LINE
  5
48
  8
_________1
 62
     7
 10
100.52
 20
154.952
 30
0.0
 11
100.52
 21
153.767
 31
0.0
  0
LINE
  5
49
  8
_________1
 62
     7
 10
33.860500000000002
 20
115.264
 30
0.0
 11
44.40509999999999
 21
115.264
 31
0.0
  0
LINE
  5
4A
  8
_________1
 62
     7
 10
38.729300000000002
 20
154.352
 30
0.0
 11
102.73
 21
154.352
 31
0.0
  0
ENDBLK
  5
4B
  8
_________1
  0
BLOCK
  8
_________1
  2
AIGNBL02010004
 70
     0
 10
0.0
 20
0.0
 30
0.0
  3
AIGNBL02010004
  1

  0
LINE
  5
4E
  8
_________1
 62
     7
 10
114.068
 20
100.667
 30
0.0
 11
114.661
 21
98.455600000000004
 31
0.0
  0
LINE
  5
4F
  8
_________1
 62
     7
 10
114.661
 20
98.455600000000004
 30
0.0
 11
115.253
 21
100.667
 31
0.0
  0
LINE
  5
50
  8
_________1
 62
     7
 10
115.253
 20
100.667
 30
0.0
 11
114.068
 21
100.667
 31
0.0
  0
LINE
  5
51
  8
_________1
 62
     7
 10
115.239
 20
109.246
 30
0.0
 11
114.646
 21
111.45699999999999
 31
0.0
  0
LINE
  5
52
  8
_________1
 62
     7
 10
114.646
 20
111.45699999999999
 30
0.0
 11
114.054
 21
109.246
 31
0.0
  0
LINE
  5
53
  8
_________1
 62
     7
 10
114.054
 20
109.246
 30
0.0
 11
115.239
 21
109.246
 31
0.0
  0
LINE
  5
54
  8
_________1
 62
     7
 10
114.654
 20
98.456599999999995
 30
0.0
 11
114.654
 21
111.45699999999999
 31
0.0
  0
ENDBLK
  5
55
  8
_________1
  0
BLOCK
  8
_________1
  2
AIGNBL02010005
 70
     0
 10
0.0
 20
0.0
 30
0.0
  3
AIGNBL02010005
  1

  0
LINE
  5
58
  8
_________1
 62
     7
 10
159.79300000000001
 20
90.238299999999995
 30
0.0
 11
162.005
 21
90.8309
 31
0.0
  0
LINE
  5
59
  8
_________1
 62
     7
 10
162.005
 20
90.8309
 30
0.0
 11
159.79300000000001
 21
91.423400000000001
 31
0.0
  0
LINE
  5
5A
  8
_________1
 62
     7
 10
159.79300000000001
 20
91.423400000000001
 30
0.0
 11
159.79300000000001
 21
90.238299999999995
 31
0.0
  0
LINE
  5
5B
  8
_________1
 62
     7
 10
136.048
 20
91.409000000000006
 30
0.0
 11
133.83699999999999
 21
90.816400000000002
 31
0.0
  0
LINE
  5
5C
  8
_________1
 62
     7
 10
133.83699999999999
 20
90.816400000000002
 30
0.0
 11
136.048
 21
90.223799999999997
 31
0.0
  0
LINE
  5
5D
  8
_________1
 62
     7
 10
136.048
 20
90.223799999999997
 30
0.0
 11
136.048
 21
91.409000000000006
 31
0.0
  0
LINE
  5
5E
  8
_________1
 62
     7
 10
162.00399999999999
 20
90.823599999999985
 30
0.0
 11
133.83699999999999
 21
90.823599999999985
 31
0.0
  0
ENDBLK
  5
5F
  8
_________1
  0
BLOCK
  8
_________2
  2
AIGNBL03010002
 70
     0
 10
0.0
 20
0.0
 30
0.0
  3
AIGNBL03010002
  1

  0
LINE
  5
62
  8
_________2
 62
     7
 10
76.741
 20
29.8047
 30
0.0
 11
74.554699999999997
 21
29.8047
 31
0.0
  0
LINE
  5
63
  8
_________2
 62
     7
 10
77.233699999999999
 20
29.8047
 30
0.0
 11
76.981499999999997
 21
29.8047
 31
0.0
  0
LINE
  5
64
  8
_________2
 62
     7
 10
77.726299999999995
 20
29.8047
 30
0.0
 11
80.651200000000003
 21
29.8047
 31
0.0
  0
LINE
  5
65
  8
_________2
 62
     7
 10
77.233699999999999
 20
29.8047
 30
0.0
 11
77.485500000000002
 21
29.8047
 31
0.0
  0
LINE
  5
66
  8
_________2
 62
     7
 10
70.837100000000007
 20
29.8047
 30
0.0
 11
68.650499999999994
 21
29.8047
 31
0.0
  0
LINE
  5
67
  8
_________2
 62
     7
 10
71.329400000000007
 20
29.8047
 30
0.0
 11
71.077600000000004
 21
29.8047
 31
0.0
  0
LINE
  5
68
  8
_________2
 62
     7
 10
71.329400000000007
 20
30.2974
 30
0.0
 11
71.329400000000007
 21
32.484400000000001
 31
0.0
  0
LINE
  5
69
  8
_________2
 62
     7
 10
71.329400000000007
 20
29.8047
 30
0.0
 11
71.329400000000007
 21
30.056899999999999
 31
0.0
  0
LINE
  5
6A
  8
_________2
 62
     7
 10
71.822100000000006
 20
29.8047
 30
0.0
 11
74.009
 21
29.8047
 31
0.0
  0
LINE
  5
6B
  8
_________2
 62
     7
 10
71.329400000000007
 20
29.8047
 30
0.0
 11
71.581599999999995
 21
29.8047
 31
0.0
  0
LINE
  5
6C
  8
_________2
 62
     7
 10
71.329400000000007
 20
29.312799999999999
 30
0.0
 11
71.329400000000007
 21
27.125800000000002
 31
0.0
  0
LINE
  5
6D
  8
_________2
 62
     7
 10
71.329400000000007
 20
29.8047
 30
0.0
 11
71.329400000000007
 21
29.5532
 31
0.0
  0
LINE
  5
6E
  8
_________2
 62
     7
 10
75.040499999999994
 20
28.5852
 30
0.0
 11
80.218500000000006
 21
27.720400000000001
 31
0.0
  0
LINE
  5
6F
  8
_________2
 62
     7
 10
75.040499999999994
 20
31.0243
 30
0.0
 11
80.218500000000006
 21
31.889700000000001
 31
0.0
  0
LINE
  5
70
  8
_________2
 62
     7
 10
80.218500000000006
 20
27.720400000000001
 30
0.0
 11
80.218500000000006
 21
31.889700000000001
 31
0.0
  0
LINE
  5
71
  8
_________2
 62
     7
 10
75.040499999999994
 20
28.5852
 30
0.0
 11
75.040499999999994
 21
31.0243
 31
0.0
  0
ARC
  5
72
  8
_________2
 62
     7
 10
71.28285600000001
 20
29.757811
 30
0.0
 40
1.2673589999999999
 50
2.122214
 51
87.893958999999995
  0
ARC
  5
73
  8
_________2
 62
     7
 10
71.375959999999992
 20
29.758213000000001
 30
0.0
 40
1.2669559999999991
 50
92.104701000000006
 51
177.89526900000001
  0
ARC
  5
74
  8
_________2
 62
     7
 10
71.376357999999996
 20
29.851671
 30
0.0
 40
1.2673680000000001
 50
182.12203600000001
 51
267.877993
  0
ARC
  5
75
  8
_________2
 62
     7
 10
71.282531999999989
 20
29.851998999999999
 30
0.0
 40
1.267695999999999
 50
272.12015300000002
 51
357.863674
  0
ARC
  5
76
  8
_________2
 62
     7
 10
71.329430000000002
 20
29.804742999999998
 30
0.0
 40
2.0849849999999992
 50
0.00001
 51
89.999980000000008
  0
ARC
  5
77
  8
_________2
 62
     7
 10
71.329603000000006
 20
29.804915000000001
 30
0.0
 40
2.084813
 50
90.004733999999999
 51
180.00474399999999
  0
ARC
  5
78
  8
_________2
 62
     7
 10
71.409106000000008
 20
29.884775999999999
 30
0.0
 40
2.1657950000000001
 50
182.11776599999999
 51
267.89173399999999
  0
ARC
  5
79
  8
_________2
 62
     7
 10
71.249459000000002
 20
29.885429999999999
 30
0.0
 40
2.1664590000000001
 50
272.11546800000002
 51
357.86560400000002
  0
ENDBLK
  5
7A
  8
_________2
  0
ENDSEC
  0
SECTION
  2
ENTITIES
  0
INSERT
  5
7B
  8
____
 62
     7
  2
AIGNBL01010002
 10
0.0
 20
0.0
 30
0.0
  0
INSERT
  5
7C
  8
____
 62
     7
  2
AIGNBL01010003
 10
0.0
 20
0.0
 30
0.0
  0
INSERT
  5
7D
  8
____
 62
     7
  2
AIGNBL01010004
 10
0.0
 20
0.0
 30
0.0
  0
INSERT
  5
7E
  8
____
 62
     7
  2
AIGNBL01010005
 10
0.0
 20
0.0
 30
0.0
  0
INSERT
  5
7F
  8
____
 62
     7
  2
AIGNBL01010006
 10
0.0
 20
0.0
 30
0.0
  0
LINE
  5
80
  8
_________1
 62
     7
 10
47.42669999999999
 20
108.751
 30
0.0
 11
49.034500000000001
 21
107.122
 31
0.0
  0
LINE
  5
81
  8
_________1
 62
     7
 10
49.034500000000001
 20
107.122
 30
0.0
 11
48.456800000000001
 21
109.337
 31
0.0
  0
LINE
  5
82
  8
_________1
 62
     7
 10
48.456800000000001
 20
109.337
 30
0.0
 11
47.42669999999999
 21
108.751
 31
0.0
  0
LINE
  5
83
  8
_________1
 62
     7
 10
44.40509999999999
 20
115.264
 30
0.0
 11
49.034500000000001
 21
107.122
 31
0.0
  0
ARC
  5
84
  8
_________1
 62
     7
 10
102.037813
 20
193.51427699999999
 30
0.0
 40
0.6926090000000001
 50
2.1117059999999999
 51
87.917886999999993
  0
ARC
  5
85
  8
_________1
 62
     7
 10
102.037499
 20
162.39869100000001
 30
0.0
 40
0.6929340000000001
 50
272.10713199999998
 51
357.86327499999999
  0
ARC
  5
86
  8
_________1
 62
     7
 10
39.422226000000002
 20
193.513521
 30
0.0
 40
0.6934050000000001
 50
92.171739000000017
 51
177.82823200000001
  0
ARC
  5
87
  8
_________1
 62
     7
 10
39.421436
 20
162.39834200000001
 30
0.0
 40
0.692586
 50
182.108936
 51
267.89109400000001
  0
LINE
  5
88
  8
_________1
 62
     7
 10
80.396299999999997
 20
191.53999999999999
 30
0.0
 11
80.396299999999997
 21
191.20599999999999
 31
0.0
  0
LINE
  5
89
  8
_________1
 62
     7
 10
83.396299999999997
 20
191.20599999999999
 30
0.0
 11
83.396299999999997
 21
191.53999999999999
 31
0.0
  0
LINE
  5
8A
  8
_________1
 62
     7
 10
94.562999999999974
 20
191.20599999999999
 30
0.0
 11
94.562999999999974
 21
191.53999999999999
 31
0.0
  0
LINE
  5
8B
  8
_________1
 62
     7
 10
91.562899999999999
 20
191.20599999999999
 30
0.0
 11
91.562899999999999
 21
191.53999999999999
 31
0.0
  0
LINE
  5
8C
  8
_________1
 62
     7
 10
72.229600000000005
 20
191.53999999999999
 30
0.0
 11
72.229600000000005
 21
191.20599999999999
 31
0.0
  0
LINE
  5
8D
  8
_________1
 62
     7
 10
49.896000000000001
 20
191.53999999999999
 30
0.0
 11
49.896000000000001
 21
191.20599999999999
 31
0.0
  0
LINE
  5
8E
  8
_________1
 62
     7
 10
102.73
 20
191.20599999999999
 30
0.0
 11
102.73
 21
191.53999999999999
 31
0.0
  0
LINE
  5
8F
  8
_________1
 62
     7
 10
69.229600000000005
 20
191.20599999999999
 30
0.0
 11
69.229600000000005
 21
191.53999999999999
 31
0.0
  0
LINE
  5
90
  8
_________1
 62
     7
 10
58.062600000000003
 20
191.53999999999999
 30
0.0
 11
58.062600000000003
 21
191.20599999999999
 31
0.0
  0
LINE
  5
91
  8
_________1
 62
     7
 10
61.062600000000003
 20
191.20599999999999
 30
0.0
 11
61.062600000000003
 21
191.53999999999999
 31
0.0
  0
LINE
  5
92
  8
_________1
 62
     7
 10
46.896000000000001
 20
191.53999999999999
 30
0.0
 11
49.896000000000001
 21
191.53999999999999
 31
0.0
  0
LINE
  5
93
  8
_________1
 62
     7
 10
80.396299999999997
 20
191.53999999999999
 30
0.0
 11
83.396299999999997
 21
191.53999999999999
 31
0.0
  0
LINE
  5
94
  8
_________1
 62
     7
 10
91.562899999999999
 20
191.53999999999999
 30
0.0
 11
94.562999999999974
 21
191.53999999999999
 31
0.0
  0
LINE
  5
95
  8
_________1
 62
     7
 10
49.896000000000001
 20
191.53999999999999
 30
0.0
 11
58.062600000000003
 21
191.53999999999999
 31
0.0
  0
LINE
  5
96
  8
_________1
 62
     7
 10
58.062600000000003
 20
191.53999999999999
 30
0.0
 11
61.062600000000003
 21
191.53999999999999
 31
0.0
  0
LINE
  5
97
  8
_________1
 62
     7
 10
69.229600000000005
 20
191.53999999999999
 30
0.0
 11
72.229600000000005
 21
191.53999999999999
 31
0.0
  0
LINE
  5
98
  8
_________1
 62
     7
 10
72.229600000000005
 20
191.53999999999999
 30
0.0
 11
80.396299999999997
 21
191.53999999999999
 31
0.0
  0
LINE
  5
99
  8
_________1
 62
     7
 10
94.562999999999974
 20
191.53999999999999
 30
0.0
 11
102.73
 21
191.53999999999999
 31
0.0
  0
LINE
  5
9A
  8
_________1
 62
     7
 10
83.396299999999997
 20
191.53999999999999
 30
0.0
 11
91.562899999999999
 21
191.53999999999999
 31
0.0
  0
LINE
  5
9B
  8
_________1
 62
     7
 10
61.062600000000003
 20
191.53999999999999
 30
0.0
 11
69.229600000000005
 21
191.53999999999999
 31
0.0
  0
LINE
  5
9C
  8
_________1
 62
     7
 10
102.73
 20
192.37299999999999
 30
0.0
 11
102.73
 21
191.53999999999999
 31
0.0
  0
LINE
  5
9D
  8
_________1
 62
     7
 10
102.73
 20
193.53999999999999
 30
0.0
 11
102.73
 21
192.37299999999999
 31
0.0
  0
LINE
  5
9E
  8
_________1
 62
     7
 10
102.063
 20
161.70599999999999
 30
0.0
 11
39.395899999999997
 21
161.70599999999999
 31
0.0
  0
LINE
  5
9F
  8
_________1
 62
     7
 10
38.729300000000002
 20
193.53999999999999
 30
0.0
 11
38.729300000000002
 21
192.37299999999999
 31
0.0
  0
LINE
  5
A0
  8
_________1
 62
     7
 10
39.395899999999997
 20
194.20599999999999
 30
0.0
 11
102.063
 21
194.20599999999999
 31
0.0
  0
LINE
  5
A1
  8
_________1
 62
     7
 10
38.729300000000002
 20
191.53999999999999
 30
0.0
 11
38.729300000000002
 21
191.20599999999999
 31
0.0
  0
LINE
  5
A2
  8
_________1
 62
     7
 10
38.729300000000002
 20
191.53999999999999
 30
0.0
 11
46.896000000000001
 21
191.53999999999999
 31
0.0
  0
LINE
  5
A3
  8
_________1
 62
     7
 10
46.896000000000001
 20
191.53999999999999
 30
0.0
 11
46.896000000000001
 21
191.20599999999999
 31
0.0
  0
LINE
  5
A4
  8
_________1
 62
     7
 10
38.729300000000002
 20
164.70599999999999
 30
0.0
 11
38.729300000000002
 21
191.20599999999999
 31
0.0
  0
LINE
  5
A5
  8
_________1
 62
     7
 10
38.729300000000002
 20
192.37299999999999
 30
0.0
 11
38.729300000000002
 21
191.53999999999999
 31
0.0
  0
LINE
  5
A6
  8
_________1
 62
     7
 10
46.896000000000001
 20
164.70599999999999
 30
0.0
 11
46.896000000000001
 21
191.20599999999999
 31
0.0
  0
LINE
  5
A7
  8
_________1
 62
     7
 10
83.396299999999997
 20
164.37299999999999
 30
0.0
 11
80.396299999999997
 21
164.37299999999999
 31
0.0
  0
LINE
  5
A8
  8
_________1
 62
     7
 10
72.229600000000005
 20
164.37299999999999
 30
0.0
 11
69.229600000000005
 21
164.37299999999999
 31
0.0
  0
LINE
  5
A9
  8
_________1
 62
     7
 10
80.396299999999997
 20
164.37299999999999
 30
0.0
 11
72.229600000000005
 21
164.37299999999999
 31
0.0
  0
LINE
  5
AA
  8
_________1
 62
     7
 10
102.73
 20
164.37299999999999
 30
0.0
 11
102.73
 21
164.70599999999999
 31
0.0
  0
LINE
  5
AB
  8
_________1
 62
     7
 10
102.73
 20
163.53999999999999
 30
0.0
 11
102.73
 21
164.37299999999999
 31
0.0
  0
LINE
  5
AC
  8
_________1
 62
     7
 10
72.229600000000005
 20
164.70599999999999
 30
0.0
 11
72.229600000000005
 21
164.37299999999999
 31
0.0
  0
LINE
  5
AD
  8
_________1
 62
     7
 10
91.562899999999999
 20
164.37299999999999
 30
0.0
 11
91.562899999999999
 21
164.70599999999999
 31
0.0
  0
LINE
  5
AE
  8
_________1
 62
     7
 10
83.396299999999997
 20
164.37299999999999
 30
0.0
 11
83.396299999999997
 21
164.70599999999999
 31
0.0
  0
LINE
  5
AF
  8
_________1
 62
     7
 10
80.396299999999997
 20
164.70599999999999
 30
0.0
 11
80.396299999999997
 21
164.37299999999999
 31
0.0
  0
LINE
  5
B0
  8
_________1
 62
     7
 10
94.562999999999974
 20
164.37299999999999
 30
0.0
 11
94.562999999999974
 21
164.70599999999999
 31
0.0
  0
LINE
  5
B1
  8
_________1
 62
     7
 10
94.562999999999974
 20
164.37299999999999
 30
0.0
 11
91.562899999999999
 21
164.37299999999999
 31
0.0
  0
LINE
  5
B2
  8
_________1
 62
     7
 10
102.73
 20
164.37299999999999
 30
0.0
 11
94.562999999999974
 21
164.37299999999999
 31
0.0
  0
LINE
  5
B3
  8
_________1
 62
     7
 10
91.562899999999999
 20
164.37299999999999
 30
0.0
 11
83.396299999999997
 21
164.37299999999999
 31
0.0
  0
LINE
  5
B4
  8
_________1
 62
     7
 10
102.73
 20
191.20599999999999
 30
0.0
 11
102.73
 21
164.70599999999999
 31
0.0
  0
LINE
  5
B5
  8
_________1
 62
     7
 10
94.562999999999974
 20
191.20599999999999
 30
0.0
 11
94.562999999999974
 21
164.70599999999999
 31
0.0
  0
LINE
  5
B6
  8
_________1
 62
     7
 10
91.562899999999999
 20
191.20599999999999
 30
0.0
 11
91.562899999999999
 21
164.70599999999999
 31
0.0
  0
LINE
  5
B7
  8
_________1
 62
     7
 10
102.73
 20
162.37299999999999
 30
0.0
 11
102.73
 21
163.53999999999999
 31
0.0
  0
LINE
  5
B8
  8
_________1
 62
     7
 10
83.396299999999997
 20
164.70599999999999
 30
0.0
 11
83.396299999999997
 21
191.20599999999999
 31
0.0
  0
LINE
  5
B9
  8
_________1
 62
     7
 10
80.396299999999997
 20
164.70599999999999
 30
0.0
 11
80.396299999999997
 21
191.20599999999999
 31
0.0
  0
LINE
  5
BA
  8
_________1
 62
     7
 10
49.896000000000001
 20
191.20599999999999
 30
0.0
 11
49.896000000000001
 21
164.70599999999999
 31
0.0
  0
LINE
  5
BB
  8
_________1
 62
     7
 10
58.062600000000003
 20
191.20599999999999
 30
0.0
 11
58.062600000000003
 21
164.70599999999999
 31
0.0
  0
LINE
  5
BC
  8
_________1
 62
     7
 10
61.062600000000003
 20
164.70599999999999
 30
0.0
 11
61.062600000000003
 21
191.20599999999999
 31
0.0
  0
LINE
  5
BD
  8
_________1
 62
     7
 10
69.229600000000005
 20
164.70599999999999
 30
0.0
 11
69.229600000000005
 21
191.20599999999999
 31
0.0
  0
LINE
  5
BE
  8
_________1
 62
     7
 10
72.229600000000005
 20
164.70599999999999
 30
0.0
 11
72.229600000000005
 21
191.20599999999999
 31
0.0
  0
LINE
  5
BF
  8
_________1
 62
     7
 10
38.729300000000002
 20
164.70599999999999
 30
0.0
 11
38.729300000000002
 21
164.37299999999999
 31
0.0
  0
LINE
  5
C0
  8
_________1
 62
     7
 10
38.729300000000002
 20
163.53999999999999
 30
0.0
 11
38.729300000000002
 21
164.37299999999999
 31
0.0
  0
LINE
  5
C1
  8
_________1
 62
     7
 10
49.896000000000001
 20
164.37299999999999
 30
0.0
 11
46.896000000000001
 21
164.37299999999999
 31
0.0
  0
LINE
  5
C2
  8
_________1
 62
     7
 10
46.896000000000001
 20
164.37299999999999
 30
0.0
 11
38.729300000000002
 21
164.37299999999999
 31
0.0
  0
LINE
  5
C3
  8
_________1
 62
     7
 10
58.062600000000003
 20
164.37299999999999
 30
0.0
 11
49.896000000000001
 21
164.37299999999999
 31
0.0
  0
LINE
  5
C4
  8
_________1
 62
     7
 10
38.729300000000002
 20
162.37299999999999
 30
0.0
 11
38.729300000000002
 21
163.53999999999999
 31
0.0
  0
LINE
  5
C5
  8
_________1
 62
     7
 10
69.229600000000005
 20
164.37299999999999
 30
0.0
 11
61.062600000000003
 21
164.37299999999999
 31
0.0
  0
LINE
  5
C6
  8
_________1
 62
     7
 10
61.062600000000003
 20
164.37299999999999
 30
0.0
 11
58.062600000000003
 21
164.37299999999999
 31
0.0
  0
LINE
  5
C7
  8
_________1
 62
     7
 10
58.062600000000003
 20
164.70599999999999
 30
0.0
 11
58.062600000000003
 21
164.37299999999999
 31
0.0
  0
LINE
  5
C8
  8
_________1
 62
     7
 10
46.896000000000001
 20
164.70599999999999
 30
0.0
 11
46.896000000000001
 21
164.37299999999999
 31
0.0
  0
LINE
  5
C9
  8
_________1
 62
     7
 10
69.229600000000005
 20
164.37299999999999
 30
0.0
 11
69.229600000000005
 21
164.70599999999999
 31
0.0
  0
LINE
  5
CA
  8
_________1
 62
     7
 10
61.062600000000003
 20
164.37299999999999
 30
0.0
 11
61.062600000000003
 21
164.70599999999999
 31
0.0
  0
LINE
  5
CB
  8
_________1
 62
     7
 10
49.896000000000001
 20
164.70599999999999
 30
0.0
 11
49.896000000000001
 21
164.37299999999999
 31
0.0
  0
ARC
  5
CC
  8
_________1
 62
     7
 10
39.068984
 20
110.517318
 30
0.0
 40
0.173032
 50
92.046005000000008
 51
177.95396500000001
  0
ARC
  5
CD
  8
_________1
 62
     7
 10
39.242285000000003
 20
103.133005
 30
0.0
 40
0.346456
 50
182.104355
 51
267.836454
  0
ARC
  5
CE
  8
_________1
 62
     7
 10
101.883095
 20
103.133421
 30
0.0
 40
0.3468739999999999
 50
272.17061999999999
 51
357.82938999999999
  0
ARC
  5
CF
  8
_________1
 62
     7
 10
102.05679499999999
 20
110.5173139999999
 30
0.0
 40
0.173036
 50
2.047461999999999
 51
87.952528000000015
  0
LINE
  5
D0
  8
_________1
 62
     7
 10
101.563
 20
110.95699999999999
 30
0.0
 11
101.23
 21
110.95699999999999
 31
0.0
  0
LINE
  5
D1
  8
_________1
 62
     7
 10
101.23
 20
110.95699999999999
 30
0.0
 11
91.562899999999999
 21
110.95699999999999
 31
0.0
  0
LINE
  5
D2
  8
_________1
 62
     7
 10
91.562899999999999
 20
110.95699999999999
 30
0.0
 11
49.562800000000003
 21
110.95699999999999
 31
0.0
  0
LINE
  5
D3
  8
_________1
 62
     7
 10
49.562800000000003
 20
110.95699999999999
 30
0.0
 11
39.895800000000001
 21
110.95699999999999
 31
0.0
  0
LINE
  5
D4
  8
_________1
 62
     7
 10
39.895800000000001
 20
110.95699999999999
 30
0.0
 11
39.5627
 21
110.95699999999999
 31
0.0
  0
LINE
  5
D5
  8
_________1
 62
     7
 10
39.5627
 20
110.724
 30
0.0
 11
39.5627
 21
110.95699999999999
 31
0.0
  0
LINE
  5
D6
  8
_________1
 62
     7
 10
38.896099999999997
 20
103.12
 30
0.0
 11
38.896099999999997
 21
110.523
 31
0.0
  0
LINE
  5
D7
  8
_________1
 62
     7
 10
39.5627
 20
110.69
 30
0.0
 11
39.062800000000003
 21
110.69
 31
0.0
  0
LINE
  5
D8
  8
_________1
 62
     7
 10
101.896
 20
102.78700000000001
 30
0.0
 11
39.229199999999999
 21
102.78700000000001
 31
0.0
  0
LINE
  5
D9
  8
_________1
 62
     7
 10
101.563
 20
110.95699999999999
 30
0.0
 11
101.563
 21
110.724
 31
0.0
  0
LINE
  5
DA
  8
_________1
 62
     7
 10
102.063
 20
110.69
 30
0.0
 11
101.563
 21
110.69
 31
0.0
  0
LINE
  5
DB
  8
_________1
 62
     7
 10
102.23
 20
103.12
 30
0.0
 11
102.23
 21
110.523
 31
0.0
  0
LINE
  5
DC
  8
_________1
 62
     7
 10
49.562800000000003
 20
110.724
 30
0.0
 11
49.562800000000003
 21
110.69
 31
0.0
  0
LINE
  5
DD
  8
_________1
 62
     7
 10
91.562899999999999
 20
110.724
 30
0.0
 11
91.562899999999999
 21
110.69
 31
0.0
  0
LINE
  5
DE
  8
_________1
 62
     7
 10
39.5627
 20
110.69
 30
0.0
 11
39.5627
 21
110.724
 31
0.0
  0
LINE
  5
DF
  8
_________1
 62
     7
 10
101.563
 20
110.69
 30
0.0
 11
101.563
 21
110.724
 31
0.0
  0
LINE
  5
E0
  8
_________1
 62
     7
 10
49.562800000000003
 20
110.52200000000001
 30
0.0
 11
49.562800000000003
 21
110.69
 31
0.0
  0
LINE
  5
E1
  8
_________1
 62
     7
 10
91.562899999999999
 20
110.69
 30
0.0
 11
91.562899999999999
 21
110.52200000000001
 31
0.0
  0
LINE
  5
E2
  8
_________1
 62
     7
 10
49.562800000000003
 20
110.52200000000001
 30
0.0
 11
91.562899999999999
 21
110.52200000000001
 31
0.0
  0
LINE
  5
E3
  8
_________1
 62
     7
 10
49.562800000000003
 20
110.724
 30
0.0
 11
91.562899999999999
 21
110.724
 31
0.0
  0
ARC
  5
E4
  8
_________1
 62
     7
 10
39.068984
 20
110.517318
 30
0.0
 40
0.173032
 50
92.046005000000008
 51
177.95396500000001
  0
ARC
  5
E5
  8
_________1
 62
     7
 10
39.242285000000003
 20
103.133005
 30
0.0
 40
0.346456
 50
182.104355
 51
267.836454
  0
ARC
  5
E6
  8
_________1
 62
     7
 10
101.883095
 20
103.133421
 30
0.0
 40
0.3468739999999999
 50
272.17061999999999
 51
357.82938999999999
  0
ARC
  5
E7
  8
_________1
 62
     7
 10
102.05679499999999
 20
110.5173139999999
 30
0.0
 40
0.173036
 50
2.047461999999999
 51
87.952528000000015
  0
LINE
  5
E8
  8
_________1
 62
     7
 10
101.563
 20
110.95699999999999
 30
0.0
 11
101.23
 21
110.95699999999999
 31
0.0
  0
LINE
  5
E9
  8
_________1
 62
     7
 10
101.23
 20
110.95699999999999
 30
0.0
 11
91.562899999999999
 21
110.95699999999999
 31
0.0
  0
LINE
  5
EA
  8
_________1
 62
     7
 10
91.562899999999999
 20
110.95699999999999
 30
0.0
 11
49.562800000000003
 21
110.95699999999999
 31
0.0
  0
LINE
  5
EB
  8
_________1
 62
     7
 10
49.562800000000003
 20
110.95699999999999
 30
0.0
 11
39.895800000000001
 21
110.95699999999999
 31
0.0
  0
LINE
  5
EC
  8
_________1
 62
     7
 10
39.895800000000001
 20
110.95699999999999
 30
0.0
 11
39.5627
 21
110.95699999999999
 31
0.0
  0
LINE
  5
ED
  8
_________1
 62
     7
 10
39.5627
 20
110.724
 30
0.0
 11
39.895800000000001
 21
110.724
 31
0.0
  0
LINE
  5
EE
  8
_________1
 62
     7
 10
39.5627
 20
110.724
 30
0.0
 11
39.5627
 21
110.95699999999999
 31
0.0
  0
LINE
  5
EF
  8
_________1
 62
     7
 10
38.896099999999997
 20
103.12
 30
0.0
 11
38.896099999999997
 21
110.523
 31
0.0
  0
LINE
  5
F0
  8
_________1
 62
     7
 10
39.5627
 20
110.69
 30
0.0
 11
39.062800000000003
 21
110.69
 31
0.0
  0
LINE
  5
F1
  8
_________1
 62
     7
 10
101.896
 20
102.78700000000001
 30
0.0
 11
39.229199999999999
 21
102.78700000000001
 31
0.0
  0
LINE
  5
F2
  8
_________1
 62
     7
 10
101.563
 20
110.95699999999999
 30
0.0
 11
101.563
 21
110.724
 31
0.0
  0
LINE
  5
F3
  8
_________1
 62
     7
 10
101.563
 20
110.724
 30
0.0
 11
101.23
 21
110.724
 31
0.0
  0
LINE
  5
F4
  8
_________1
 62
     7
 10
102.063
 20
110.69
 30
0.0
 11
101.563
 21
110.69
 31
0.0
  0
LINE
  5
F5
  8
_________1
 62
     7
 10
102.23
 20
103.12
 30
0.0
 11
102.23
 21
110.523
 31
0.0
  0
LINE
  5
F6
  8
_________1
 62
     7
 10
49.562800000000003
 20
110.724
 30
0.0
 11
49.562800000000003
 21
110.69
 31
0.0
  0
LINE
  5
F7
  8
_________1
 62
     7
 10
91.562899999999999
 20
110.724
 30
0.0
 11
91.562899999999999
 21
110.69
 31
0.0
  0
LINE
  5
F8
  8
_________1
 62
     7
 10
39.5627
 20
110.69
 30
0.0
 11
39.5627
 21
110.724
 31
0.0
  0
LINE
  5
F9
  8
_________1
 62
     7
 10
101.563
 20
110.69
 30
0.0
 11
101.563
 21
110.724
 31
0.0
  0
LINE
  5
FA
  8
_________1
 62
     7
 10
91.562899999999999
 20
110.724
 30
0.0
 11
101.23
 21
110.724
 31
0.0
  0
LINE
  5
FB
  8
_________1
 62
     7
 10
39.895800000000001
 20
110.724
 30
0.0
 11
49.562800000000003
 21
110.724
 31
0.0
  0
LINE
  5
FC
  8
_________1
 62
     7
 10
49.562800000000003
 20
110.52200000000001
 30
0.0
 11
49.562800000000003
 21
110.69
 31
0.0
  0
LINE
  5
FD
  8
_________1
 62
     7
 10
91.562899999999999
 20
110.69
 30
0.0
 11
91.562899999999999
 21
110.52200000000001
 31
0.0
  0
LINE
  5
FE
  8
_________1
 62
     7
 10
49.562800000000003
 20
110.52200000000001
 30
0.0
 11
91.562899999999999
 21
110.52200000000001
 31
0.0
  0
LINE
  5
FF
  8
_________1
 62
     7
 10
49.562800000000003
 20
110.724
 30
0.0
 11
91.562899999999999
 21
110.724
 31
0.0
  0
ARC
  5
100
  8
_________1
 62
     7
 10
69.755009999999999
 20
100.431372
 30
0.0
 40
0.692591
 50
92.109302999999997
 51
177.89066700000001
  0
ARC
  5
101
  8
_________1
 62
     7
 10
47.421692
 20
100.431372
 30
0.0
 40
0.692591
 50
92.109302999999997
 51
177.89066700000001
  0
ARC
  5
102
  8
_________1
 62
     7
 10
58.588351000000003
 20
100.431372
 30
0.0
 40
0.692591
 50
92.109302999999997
 51
177.89066700000001
  0
ARC
  5
103
  8
_________1
 62
     7
 10
49.037439999999997
 20
100.431342
 30
0.0
 40
0.6926090000000001
 50
2.1117059999999999
 51
87.917886999999993
  0
ARC
  5
104
  8
_________1
 62
     7
 10
60.20411
 20
100.43136699999999
 30
0.0
 40
0.692596
 50
2.109726999999999
 51
87.890263000000004
  0
ARC
  5
105
  8
_________1
 62
     7
 10
93.704086000000004
 20
100.43136699999999
 30
0.0
 40
0.692596
 50
2.109726999999999
 51
87.890263000000004
  0
ARC
  5
106
  8
_________1
 62
     7
 10
82.537427000000008
 20
100.43136699999999
 30
0.0
 40
0.692596
 50
2.109726999999999
 51
87.890263000000004
  0
ARC
  5
107
  8
_________1
 62
     7
 10
71.370768999999996
 20
100.43136699999999
 30
0.0
 40
0.692596
 50
2.109726999999999
 51
87.890263000000004
  0
ARC
  5
108
  8
_________1
 62
     7
 10
80.921672999999984
 20
100.43136699999999
 30
0.0
 40
0.692596
 50
92.109700000000004
 51
177.89027100000001
  0
ARC
  5
109
  8
_________1
 62
     7
 10
92.088656999999998
 20
100.431028
 30
0.0
 40
0.6929340000000001
 50
92.107112000000015
 51
177.86325500000001
  0
LINE
  5
10A
  8
_________1
 62
     7
 10
101.896
 20
110.95699999999999
 30
0.0
 11
101.563
 21
110.95699999999999
 31
0.0
  0
LINE
  5
10B
  8
_________1
 62
     7
 10
101.563
 20
110.95699999999999
 30
0.0
 11
101.23
 21
110.95699999999999
 31
0.0
  0
LINE
  5
10C
  8
_________1
 62
     7
 10
101.23
 20
110.95699999999999
 30
0.0
 11
91.562899999999999
 21
110.95699999999999
 31
0.0
  0
LINE
  5
10D
  8
_________1
 62
     7
 10
39.5627
 20
110.95699999999999
 30
0.0
 11
39.229199999999999
 21
110.95699999999999
 31
0.0
  0
LINE
  5
10E
  8
_________1
 62
     7
 10
38.56260000000001
 20
110.95699999999999
 30
0.0
 11
39.229199999999999
 21
110.95699999999999
 31
0.0
  0
LINE
  5
10F
  8
_________1
 62
     7
 10
91.562899999999999
 20
110.95699999999999
 30
0.0
 11
49.562800000000003
 21
110.95699999999999
 31
0.0
  0
LINE
  5
110
  8
_________1
 62
     7
 10
49.562800000000003
 20
110.95699999999999
 30
0.0
 11
39.895800000000001
 21
110.95699999999999
 31
0.0
  0
LINE
  5
111
  8
_________1
 62
     7
 10
39.895800000000001
 20
110.95699999999999
 30
0.0
 11
39.5627
 21
110.95699999999999
 31
0.0
  0
LINE
  5
112
  8
_________1
 62
     7
 10
46.729599999999991
 20
98.456599999999995
 30
0.0
 11
38.56260000000001
 21
98.456599999999995
 31
0.0
  0
LINE
  5
113
  8
_________1
 62
     7
 10
46.729599999999991
 20
98.456599999999995
 30
0.0
 11
46.729599999999991
 21
99.29000000000002
 31
0.0
  0
LINE
  5
114
  8
_________1
 62
     7
 10
38.56260000000001
 20
110.95699999999999
 30
0.0
 11
38.56260000000001
 21
110.623
 31
0.0
  0
LINE
  5
115
  8
_________1
 62
     7
 10
38.56260000000001
 20
110.623
 30
0.0
 11
38.56260000000001
 21
99.29000000000002
 31
0.0
  0
LINE
  5
116
  8
_________1
 62
     7
 10
38.56260000000001
 20
98.456599999999995
 30
0.0
 11
38.56260000000001
 21
99.29000000000002
 31
0.0
  0
LINE
  5
117
  8
_________1
 62
     7
 10
60.229599999999998
 20
101.123
 30
0.0
 11
58.562899999999999
 21
101.123
 31
0.0
  0
LINE
  5
118
  8
_________1
 62
     7
 10
49.062600000000003
 20
101.123
 30
0.0
 11
47.3962
 21
101.123
 31
0.0
  0
LINE
  5
119
  8
_________1
 62
     7
 10
69.729500000000002
 20
101.123
 30
0.0
 11
71.396299999999997
 21
101.123
 31
0.0
  0
LINE
  5
11A
  8
_________1
 62
     7
 10
49.729599999999998
 20
99.29000000000002
 30
0.0
 11
49.729599999999998
 21
98.456599999999995
 31
0.0
  0
LINE
  5
11B
  8
_________1
 62
     7
 10
57.8962
 20
99.29000000000002
 30
0.0
 11
57.8962
 21
98.456599999999995
 31
0.0
  0
LINE
  5
11C
  8
_________1
 62
     7
 10
91.396199999999979
 20
98.456599999999995
 30
0.0
 11
91.396199999999979
 21
99.29000000000002
 31
0.0
  0
LINE
  5
11D
  8
_________1
 62
     7
 10
83.229600000000005
 20
98.456599999999995
 30
0.0
 11
83.229600000000005
 21
99.29000000000002
 31
0.0
  0
LINE
  5
11E
  8
_________1
 62
     7
 10
80.229499999999987
 20
99.29000000000002
 30
0.0
 11
80.229499999999987
 21
98.456599999999995
 31
0.0
  0
LINE
  5
11F
  8
_________1
 62
     7
 10
72.062899999999999
 20
99.29000000000002
 30
0.0
 11
72.062899999999999
 21
98.456599999999995
 31
0.0
  0
LINE
  5
120
  8
_________1
 62
     7
 10
69.062899999999999
 20
98.456599999999995
 30
0.0
 11
69.062899999999999
 21
99.29000000000002
 31
0.0
  0
LINE
  5
121
  8
_________1
 62
     7
 10
94.396199999999993
 20
98.456599999999995
 30
0.0
 11
94.396199999999993
 21
99.29000000000002
 31
0.0
  0
LINE
  5
122
  8
_________1
 62
     7
 10
102.563
 20
98.456599999999995
 30
0.0
 11
102.563
 21
99.29000000000002
 31
0.0
  0
LINE
  5
123
  8
_________1
 62
     7
 10
69.062899999999999
 20
100.45699999999999
 30
0.0
 11
69.062899999999999
 21
99.29000000000002
 31
0.0
  0
LINE
  5
124
  8
_________1
 62
     7
 10
60.8962
 20
100.45699999999999
 30
0.0
 11
60.8962
 21
99.29000000000002
 31
0.0
  0
LINE
  5
125
  8
_________1
 62
     7
 10
57.8962
 20
100.45699999999999
 30
0.0
 11
57.8962
 21
99.29000000000002
 31
0.0
  0
LINE
  5
126
  8
_________1
 62
     7
 10
49.729599999999998
 20
100.45699999999999
 30
0.0
 11
49.729599999999998
 21
99.29000000000002
 31
0.0
  0
LINE
  5
127
  8
_________1
 62
     7
 10
46.729599999999991
 20
100.45699999999999
 30
0.0
 11
46.729599999999991
 21
99.29000000000002
 31
0.0
  0
LINE
  5
128
  8
_________1
 62
     7
 10
94.396199999999993
 20
100.45699999999999
 30
0.0
 11
94.396199999999993
 21
99.29000000000002
 31
0.0
  0
LINE
  5
129
  8
_________1
 62
     7
 10
91.396199999999979
 20
100.45699999999999
 30
0.0
 11
91.396199999999979
 21
99.29000000000002
 31
0.0
  0
LINE
  5
12A
  8
_________1
 62
     7
 10
83.229600000000005
 20
99.29000000000002
 30
0.0
 11
83.229600000000005
 21
100.45699999999999
 31
0.0
  0
LINE
  5
12B
  8
_________1
 62
     7
 10
72.062899999999999
 20
100.45699999999999
 30
0.0
 11
72.062899999999999
 21
99.29000000000002
 31
0.0
  0
LINE
  5
12C
  8
_________1
 62
     7
 10
80.229499999999987
 20
100.45699999999999
 30
0.0
 11
80.229499999999987
 21
99.29000000000002
 31
0.0
  0
LINE
  5
12D
  8
_________1
 62
     7
 10
60.8962
 20
98.456599999999995
 30
0.0
 11
60.8962
 21
99.29000000000002
 31
0.0
  0
LINE
  5
12E
  8
_________1
 62
     7
 10
94.396199999999993
 20
98.456599999999995
 30
0.0
 11
102.563
 21
98.456599999999995
 31
0.0
  0
LINE
  5
12F
  8
_________1
 62
     7
 10
102.563
 20
110.95699999999999
 30
0.0
 11
101.896
 21
110.95699999999999
 31
0.0
  0
LINE
  5
130
  8
_________1
 62
     7
 10
102.563
 20
110.95699999999999
 30
0.0
 11
102.563
 21
110.623
 31
0.0
  0
LINE
  5
131
  8
_________1
 62
     7
 10
102.563
 20
111.45699999999999
 30
0.0
 11
102.563
 21
110.95699999999999
 31
0.0
  0
LINE
  5
132
  8
_________1
 62
     7
 10
102.563
 20
110.623
 30
0.0
 11
102.563
 21
99.29000000000002
 31
0.0
  0
LINE
  5
133
  8
_________1
 62
     7
 10
101.896
 20
111.45699999999999
 30
0.0
 11
102.563
 21
111.45699999999999
 31
0.0
  0
LINE
  5
134
  8
_________1
 62
     7
 10
38.56260000000001
 20
111.45699999999999
 30
0.0
 11
39.229199999999999
 21
111.45699999999999
 31
0.0
  0
LINE
  5
135
  8
_________1
 62
     7
 10
39.229199999999999
 20
111.45699999999999
 30
0.0
 11
101.896
 21
111.45699999999999
 31
0.0
  0
LINE
  5
136
  8
_________1
 62
     7
 10
91.396199999999979
 20
98.456599999999995
 30
0.0
 11
83.229600000000005
 21
98.456599999999995
 31
0.0
  0
LINE
  5
137
  8
_________1
 62
     7
 10
72.062899999999999
 20
98.456599999999995
 30
0.0
 11
80.229499999999987
 21
98.456599999999995
 31
0.0
  0
LINE
  5
138
  8
_________1
 62
     7
 10
92.063199999999995
 20
101.123
 30
0.0
 11
93.729600000000005
 21
101.123
 31
0.0
  0
LINE
  5
139
  8
_________1
 62
     7
 10
80.896199999999993
 20
101.123
 30
0.0
 11
82.562899999999985
 21
101.123
 31
0.0
  0
LINE
  5
13A
  8
_________1
 62
     7
 10
69.062899999999999
 20
98.456599999999995
 30
0.0
 11
60.8962
 21
98.456599999999995
 31
0.0
  0
LINE
  5
13B
  8
_________1
 62
     7
 10
49.729599999999998
 20
98.456599999999995
 30
0.0
 11
57.8962
 21
98.456599999999995
 31
0.0
  0
LINE
  5
13C
  8
_________1
 62
     7
 10
38.56260000000001
 20
110.95699999999999
 30
0.0
 11
38.56260000000001
 21
111.45699999999999
 31
0.0
  0
ARC
  5
13D
  8
_________1
 62
     7
 10
162.27182199999999
 20
110.834693
 30
0.0
 40
0.034372
 50
92.145409000000015
 51
178.448294
  0
LINE
  5
13E
  8
_________1
 62
     7
 10
162.00399999999999
 20
102.932
 30
0.0
 11
162.23699999999999
 21
102.932
 31
0.0
  0
LINE
  5
13F
  8
_________1
 62
     7
 10
162.23699999999999
 20
103.26600000000001
 30
0.0
 11
162.23699999999999
 21
110.669
 31
0.0
  0
LINE
  5
140
  8
_________1
 62
     7
 10
162.23699999999999
 20
103.26600000000001
 30
0.0
 11
162.23699999999999
 21
102.932
 31
0.0
  0
LINE
  5
141
  8
_________1
 62
     7
 10
162.011
 20
110.836
 30
0.0
 11
162.23699999999999
 21
110.836
 31
0.0
  0
LINE
  5
142
  8
_________1
 62
     7
 10
162.27099999999999
 20
110.869
 30
0.0
 11
163.33699999999999
 21
110.869
 31
0.0
  0
LINE
  5
143
  8
_________1
 62
     7
 10
162.23699999999999
 20
110.836
 30
0.0
 11
162.23699999999999
 21
110.669
 31
0.0
  0
LINE
  5
144
  8
_________1
 62
     7
 10
162.00399999999999
 20
103.26600000000001
 30
0.0
 11
162.00399999999999
 21
102.932
 31
0.0
  0
LINE
  5
145
  8
_________1
 62
     7
 10
162.00399999999999
 20
110.669
 30
0.0
 11
162.00399999999999
 21
110.667
 31
0.0
  0
LINE
  5
146
  8
_________1
 62
     7
 10
162.00399999999999
 20
110.76900000000001
 30
0.0
 11
162.00399999999999
 21
110.669
 31
0.0
  0
LINE
  5
147
  8
_________1
 62
     7
 10
162.00399999999999
 20
110.667
 30
0.0
 11
162.00399999999999
 21
103.26600000000001
 31
0.0
  0
LINE
  5
148
  8
_________1
 62
     7
 10
163.33699999999999
 20
111.102
 30
0.0
 11
163.50399999999999
 21
111.102
 31
0.0
  0
LINE
  5
149
  8
_________1
 62
     7
 10
162.33699999999999
 20
111.102
 30
0.0
 11
162.43899999999999
 21
111.102
 31
0.0
  0
LINE
  5
14A
  8
_________1
 62
     7
 10
163.50399999999999
 20
111.102
 30
0.0
 11
163.67099999999999
 21
111.102
 31
0.0
  0
LINE
  5
14B
  8
_________1
 62
     7
 10
162.43899999999999
 20
111.102
 30
0.0
 11
163.33699999999999
 21
111.102
 31
0.0
  0
LINE
  5
14C
  8
_________1
 62
     7
 10
163.67099999999999
 20
110.869
 30
0.0
 11
163.67099999999999
 21
111.102
 31
0.0
  0
LINE
  5
14D
  8
_________1
 62
     7
 10
163.33699999999999
 20
110.869
 30
0.0
 11
163.67099999999999
 21
110.869
 31
0.0
  0
ARC
  5
14E
  8
_________1
 62
     7
 10
133.56901300000001
 20
110.834355
 30
0.0
 40
0.034724
 50
2.0937329999999998
 51
87.312522999999985
  0
LINE
  5
14F
  8
_________1
 62
     7
 10
133.60400000000001
 20
102.932
 30
0.0
 11
133.83699999999999
 21
102.932
 31
0.0
  0
LINE
  5
150
  8
_________1
 62
     7
 10
133.60400000000001
 20
103.26600000000001
 30
0.0
 11
133.60400000000001
 21
110.669
 31
0.0
  0
LINE
  5
151
  8
_________1
 62
     7
 10
133.60400000000001
 20
103.26600000000001
 30
0.0
 11
133.60400000000001
 21
102.932
 31
0.0
  0
LINE
  5
152
  8
_________1
 62
     7
 10
132.17099999999999
 20
111.102
 30
0.0
 11
132.17099999999999
 21
110.869
 31
0.0
  0
LINE
  5
153
  8
_________1
 62
     7
 10
133.60400000000001
 20
110.669
 30
0.0
 11
133.60400000000001
 21
110.836
 31
0.0
  0
LINE
  5
154
  8
_________1
 62
     7
 10
132.50399999999999
 20
110.869
 30
0.0
 11
132.17099999999999
 21
110.869
 31
0.0
  0
LINE
  5
155
  8
_________1
 62
     7
 10
132.17099999999999
 20
111.102
 30
0.0
 11
132.33699999999999
 21
111.102
 31
0.0
  0
LINE
  5
156
  8
_________1
 62
     7
 10
132.50399999999999
 20
110.869
 30
0.0
 11
133.571
 21
110.869
 31
0.0
  0
LINE
  5
157
  8
_________1
 62
     7
 10
132.33699999999999
 20
111.102
 30
0.0
 11
132.50399999999999
 21
111.102
 31
0.0
  0
LINE
  5
158
  8
_________1
 62
     7
 10
133.40199999999999
 20
111.102
 30
0.0
 11
133.50399999999999
 21
111.102
 31
0.0
  0
LINE
  5
159
  8
_________1
 62
     7
 10
132.50399999999999
 20
111.102
 30
0.0
 11
133.40199999999999
 21
111.102
 31
0.0
  0
LINE
  5
15A
  8
_________1
 62
     7
 10
133.83000000000001
 20
110.836
 30
0.0
 11
133.60400000000001
 21
110.836
 31
0.0
  0
LINE
  5
15B
  8
_________1
 62
     7
 10
133.83699999999999
 20
102.932
 30
0.0
 11
133.83699999999999
 21
103.26600000000001
 31
0.0
  0
LINE
  5
15C
  8
_________1
 62
     7
 10
133.83699999999999
 20
110.667
 30
0.0
 11
133.83699999999999
 21
110.669
 31
0.0
  0
LINE
  5
15D
  8
_________1
 62
     7
 10
133.83699999999999
 20
110.669
 30
0.0
 11
133.83699999999999
 21
110.76900000000001
 31
0.0
  0
LINE
  5
15E
  8
_________1
 62
     7
 10
133.83699999999999
 20
103.26600000000001
 30
0.0
 11
133.83699999999999
 21
110.667
 31
0.0
  0
ARC
  5
15F
  8
_________1
 62
     7
 10
134.670323
 20
99.435385999999994
 30
0.0
 40
0.333143
 50
179.99996999999999
 51
270.00002000000001
  0
ARC
  5
160
  8
_________1
 62
     7
 10
134.702325
 20
99.467030000000008
 30
0.0
 40
0.86561
 50
182.095068
 51
267.88127100000003
  0
ARC
  5
161
  8
_________1
 62
     7
 10
162.35051999999999
 20
110.755639
 30
0.0
 40
0.346886
 50
92.172341000000003
 51
177.827629
  0
ARC
  5
162
  8
_________1
 62
     7
 10
133.490668
 20
110.75565
 30
0.0
 40
0.3468739999999999
 50
2.170609999999999
 51
87.829379999999986
  0
ARC
  5
163
  8
_________1
 62
     7
 10
133.503806
 20
110.768788
 30
0.0
 40
0.8333739999999998
 50
0.00001
 51
89.999980000000008
  0
ARC
  5
164
  8
_________1
 62
     7
 10
162.33737099999999
 20
110.768788
 30
0.0
 40
0.8333739999999998
 50
90.0
 51
179.99996999999999
  0
ARC
  5
165
  8
_________1
 62
     7
 10
161.17085399999999
 20
99.435385999999994
 30
0.0
 40
0.333143
 50
270.00002000000001
 51
359.99999000000003
  0
ARC
  5
166
  8
_________1
 62
     7
 10
161.13916599999999
 20
99.466717000000017
 30
0.0
 40
0.865285
 50
272.09873299999998
 51
357.92496799999998
  0
LINE
  5
167
  8
_________1
 62
     7
 10
131.66999999999999
 20
111.602
 30
0.0
 11
132.33699999999999
 21
111.602
 31
0.0
  0
LINE
  5
168
  8
_________1
 62
     7
 10
131.66999999999999
 20
111.102
 30
0.0
 11
131.66999999999999
 21
111.602
 31
0.0
  0
LINE
  5
169
  8
_________1
 62
     7
 10
133.83699999999999
 20
99.435400000000001
 30
0.0
 11
133.83699999999999
 21
102.932
 31
0.0
  0
LINE
  5
16A
  8
_________1
 62
     7
 10
134.33699999999999
 20
110.76900000000001
 30
0.0
 11
134.33699999999999
 21
99.435400000000001
 31
0.0
  0
LINE
  5
16B
  8
_________1
 62
     7
 10
161.17099999999999
 20
98.602000000000004
 30
0.0
 11
134.66999999999999
 21
98.602000000000004
 31
0.0
  0
LINE
  5
16C
  8
_________1
 62
     7
 10
161.17099999999999
 20
99.102199999999996
 30
0.0
 11
134.66999999999999
 21
99.102199999999996
 31
0.0
  0
LINE
  5
16D
  8
_________1
 62
     7
 10
163.50399999999999
 20
111.602
 30
0.0
 11
162.33699999999999
 21
111.602
 31
0.0
  0
LINE
  5
16E
  8
_________1
 62
     7
 10
162.00399999999999
 20
103.26600000000001
 30
0.0
 11
162.00399999999999
 21
102.932
 31
0.0
  0
LINE
  5
16F
  8
_________1
 62
     7
 10
162.00399999999999
 20
102.932
 30
0.0
 11
162.00399999999999
 21
99.435400000000001
 31
0.0
  0
LINE
  5
170
  8
_________1
 62
     7
 10
162.00399999999999
 20
110.669
 30
0.0
 11
162.00399999999999
 21
110.667
 31
0.0
  0
LINE
  5
171
  8
_________1
 62
     7
 10
162.00399999999999
 20
110.76900000000001
 30
0.0
 11
162.00399999999999
 21
110.669
 31
0.0
  0
LINE
  5
172
  8
_________1
 62
     7
 10
162.00399999999999
 20
110.667
 30
0.0
 11
162.00399999999999
 21
103.26600000000001
 31
0.0
  0
LINE
  5
173
  8
_________1
 62
     7
 10
163.33699999999999
 20
111.102
 30
0.0
 11
163.50399999999999
 21
111.102
 31
0.0
  0
LINE
  5
174
  8
_________1
 62
     7
 10
162.33699999999999
 20
111.102
 30
0.0
 11
162.43899999999999
 21
111.102
 31
0.0
  0
LINE
  5
175
  8
_________1
 62
     7
 10
132.17099999999999
 20
111.102
 30
0.0
 11
132.33699999999999
 21
111.102
 31
0.0
  0
LINE
  5
176
  8
_________1
 62
     7
 10
131.66999999999999
 20
111.102
 30
0.0
 11
132.17099999999999
 21
111.102
 31
0.0
  0
LINE
  5
177
  8
_________1
 62
     7
 10
163.50399999999999
 20
111.102
 30
0.0
 11
163.67099999999999
 21
111.102
 31
0.0
  0
LINE
  5
178
  8
_________1
 62
     7
 10
163.67099999999999
 20
111.102
 30
0.0
 11
164.17099999999999
 21
111.102
 31
0.0
  0
LINE
  5
179
  8
_________1
 62
     7
 10
162.43899999999999
 20
111.102
 30
0.0
 11
163.33699999999999
 21
111.102
 31
0.0
  0
LINE
  5
17A
  8
_________1
 62
     7
 10
132.33699999999999
 20
111.102
 30
0.0
 11
132.50399999999999
 21
111.102
 31
0.0
  0
LINE
  5
17B
  8
_________1
 62
     7
 10
133.40199999999999
 20
111.102
 30
0.0
 11
133.50399999999999
 21
111.102
 31
0.0
  0
LINE
  5
17C
  8
_________1
 62
     7
 10
132.50399999999999
 20
111.102
 30
0.0
 11
133.40199999999999
 21
111.102
 31
0.0
  0
LINE
  5
17D
  8
_________1
 62
     7
 10
132.33699999999999
 20
111.602
 30
0.0
 11
133.50399999999999
 21
111.602
 31
0.0
  0
LINE
  5
17E
  8
_________1
 62
     7
 10
133.83699999999999
 20
102.932
 30
0.0
 11
133.83699999999999
 21
103.26600000000001
 31
0.0
  0
LINE
  5
17F
  8
_________1
 62
     7
 10
133.83699999999999
 20
110.667
 30
0.0
 11
133.83699999999999
 21
110.669
 31
0.0
  0
LINE
  5
180
  8
_________1
 62
     7
 10
133.83699999999999
 20
110.669
 30
0.0
 11
133.83699999999999
 21
110.76900000000001
 31
0.0
  0
LINE
  5
181
  8
_________1
 62
     7
 10
133.83699999999999
 20
103.26600000000001
 30
0.0
 11
133.83699999999999
 21
110.667
 31
0.0
  0
LINE
  5
182
  8
_________1
 62
     7
 10
163.50399999999999
 20
111.602
 30
0.0
 11
164.17099999999999
 21
111.602
 31
0.0
  0
LINE
  5
183
  8
_________1
 62
     7
 10
164.17099999999999
 20
111.102
 30
0.0
 11
164.17099999999999
 21
111.602
 31
0.0
  0
LINE
  5
184
  8
_________1
 62
     7
 10
161.50399999999999
 20
99.435400000000001
 30
0.0
 11
161.50399999999999
 21
110.76900000000001
 31
0.0
  0
INSERT
  5
185
  8
_________1
 62
     7
  2
AIGNBL02010002
 10
0.0
 20
0.0
 30
0.0
  0
LINE
  5
186
  8
_________1
 62
     7
 10
103.554
 20
194.20599999999999
 30
0.0
 11
115.354
 21
194.20599999999999
 31
0.0
  0
LINE
  5
187
  8
_________1
 62
     7
 10
103.554
 20
161.70599999999999
 30
0.0
 11
115.354
 21
161.70599999999999
 31
0.0
  0
INSERT
  5
188
  8
_________1
 62
     7
  2
AIGNBL02010003
 10
0.0
 20
0.0
 30
0.0
  0
LINE
  5
189
  8
_________1
 62
     7
 10
102.73
 20
160.94200000000001
 30
0.0
 11
102.73
 21
153.65199999999999
 31
0.0
  0
LINE
  5
18A
  8
_________1
 62
     7
 10
38.729300000000002
 20
160.94200000000001
 30
0.0
 11
38.729300000000002
 21
153.65199999999999
 31
0.0
  0
INSERT
  5
18B
  8
_________1
 62
     7
  2
AIGNBL02010004
 10
0.0
 20
0.0
 30
0.0
  0
LINE
  5
18C
  8
_________1
 62
     7
 10
103.28400000000001
 20
98.456599999999995
 30
0.0
 11
115.354
 21
98.456599999999995
 31
0.0
  0
LINE
  5
18D
  8
_________1
 62
     7
 10
103.28400000000001
 20
111.45699999999999
 30
0.0
 11
115.354
 21
111.45699999999999
 31
0.0
  0
INSERT
  5
18E
  8
_________1
 62
     7
  2
AIGNBL02010005
 10
0.0
 20
0.0
 30
0.0
  0
LINE
  5
18F
  8
_________1
 62
     7
 10
162.00399999999999
 20
98.014600000000002
 30
0.0
 11
162.00399999999999
 21
90.123599999999996
 31
0.0
  0
LINE
  5
190
  8
_________1
 62
     7
 10
133.83699999999999
 20
98.014600000000002
 30
0.0
 11
133.83699999999999
 21
90.123599999999996
 31
0.0
  0
TEXT
  5
191
  8
_________2
 62
     7
 10
20.856200000000001
 20
39.373600000000003
 30
0.0
 40
4.2168199999999993
  1
※浴室設置禁止
 41
0.5
  0
LINE
  5
192
  8
_________2
 62
     7
 10
205.30099999999999
 20
127.411
 30
0.0
 11
183.55000000000001
 21
127.411
 31
0.0
  0
LINE
  5
193
  8
_________2
 62
     7
 10
100.3
 20
-4.0910799999999998
 30
0.0
 11
100.3
 21
-21.071400000000001
 31
0.0
  0
LINE
  5
194
  8
_________2
 62
     7
 10
100.3
 20
275.93099999999998
 30
0.0
 11
100.3
 21
258.911
 31
0.0
  0
LINE
  5
195
  8
_________2
 62
     7
 10
17.049499999999998
 20
127.411
 30
0.0
 11
-4.70052
 21
127.411
 31
0.0
  0
INSERT
  5
196
  8
_________2
 62
     7
  2
AIGNBL03010002
 10
0.0
 20
0.0
 30
0.0
  0
TEXT
  5
197
  8
_________2
 62
     7
 10
104.605
 20
1.6794899999999999
 30
0.0
 40
3.0923400000000001
  1
図番
 41
0.5
  0
LINE
  5
198
  8
_________2
 62
     7
 10
103.55
 20
5.9087199999999989
 30
0.0
 11
183.55099999999999
 21
5.9087199999999989
 31
0.0
  0
TEXT
  5
199
  8
_________2
 62
     7
 10
104.605
 20
11.6793
 30
0.0
 40
3.0923400000000001
  1
品番
 41
0.5
  0
TEXT
  5
19A
  8
_________2
 62
     7
 10
104.605
 20
31.818100000000001
 30
0.0
 40
3.0923400000000001
  1
名称
 41
0.5
  0
TEXT
  5
19B
  8
_________2
 62
     7
 10
91.845058333333341
 20
26.821999999999999
 30
0.0
 40
3.6545800000000002
  1
mm
 41
0.5
 72
     1
 11
93.367800000000003
 21
26.821999999999999
 31
0.0
  0
TEXT
  5
19C
  8
_________2
 62
     7
 10
85.643199999999993
 20
31.818100000000001
 30
0.0
 40
3.0923400000000001
  1
単位
 41
0.5
  0
TEXT
  5
19D
  8
_________2
 62
     7
 10
85.643199999999993
 20
19.410799999999998
 30
0.0
 40
3.0923400000000001
  1
尺度
 41
0.5
  0
TEXT
  5
19E
  8
_________2
 62
     7
 10
90.548758666666686
 20
13.2179
 30
0.0
 40
3.6545800000000002
  1
1 ： 3
 41
0.5
 72
     1
 11
93.959699999999998
 21
13.2179
 31
0.0
  0
TEXT
  5
19F
  8
_________2
 62
     7
 10
137.4824625
 20
9.1078600000000005
 30
0.0
 40
3.9357000000000002
  1
EC18450
 41
0.5
 72
     1
 11
143.55000000000001
 21
9.1078600000000005
 31
0.0
  0
TEXT
  5
1A0
  8
_________2
 62
     7
 10
137.4824625
 20
-0.8926299999999999
 30
0.0
 40
3.9357000000000002
  1
EC18450
 41
0.5
 72
     1
 11
143.55000000000001
 21
-0.8926299999999999
 31
0.0
  0
TEXT
  5
1A1
  8
_________2
 62
     7
 10
109.179
 20
24.2257
 30
0.0
 40
3.9357000000000002
  1
リエゾン　スモールトレイ
 41
0.5
  0
TEXT
  5
1A2
  8
_________2
 62
     7
 10
39.364390666666672
 20
13.603
 30
0.0
 40
3.6545800000000002
  1
井伊
 41
0.5
 72
     1
 11
41.313499999999998
 21
13.603
 31
0.0
  0
TEXT
  5
1A3
  8
_________2
 62
     7
 10
20.790090666666661
 20
13.603
 30
0.0
 40
3.6545800000000002
  1
近藤
 41
0.5
 72
     1
 11
22.7392
 21
13.603
 31
0.0
  0
TEXT
  5
1A4
  8
_________2
 62
     7
 10
67.785399999999996
 20
13.2179
 30
0.0
 40
3.6545800000000002
  1
19.12.04
 41
0.5
  0
TEXT
  5
1A5
  8
_________2
 62
     7
 10
66.593100000000007
 20
19.410799999999998
 30
0.0
 40
3.0923400000000001
  1
日付
 41
0.5
  0
TEXT
  5
1A6
  8
_________2
 62
     7
 10
29.639399999999998
 20
19.410799999999998
 30
0.0
 40
3.0923400000000001
  1
検図
 41
0.5
  0
TEXT
  5
1A7
  8
_________2
 62
     7
 10
18.021100000000001
 20
5.21143
 30
0.0
 40
3.0923400000000001
  1
備考
 41
0.5
  0
TEXT
  5
1A8
  8
_________2
 62
     7
 10
18.021100000000001
 20
19.410799999999998
 30
0.0
 40
3.0923400000000001
  1
製図
 41
0.5
  0
TEXT
  5
1A9
  8
_________2
 62
     7
 10
23.788465333333338
 20
27.936800000000002
 30
0.0
 40
4.4979399999999989
  1
セラトレーディング株式会社
 41
0.5
 72
     1
 11
41.180500000000002
 21
27.936800000000002
 31
0.0
  0
LINE
  5
1AA
  8
_________2
 62
     7
 10
183.55099999999999
 20
-4.0910799999999998
 30
0.0
 11
17.049499999999998
 21
-4.0910799999999998
 31
0.0
  0
LINE
  5
1AB
  8
_________2
 62
     7
 10
17.049499999999998
 20
-4.0910799999999998
 30
0.0
 11
17.049499999999998
 21
258.911
 31
0.0
  0
LINE
  5
1AC
  8
_________2
 62
     7
 10
17.049499999999998
 20
258.911
 30
0.0
 11
183.55099999999999
 21
258.911
 31
0.0
  0
LINE
  5
1AD
  8
_________2
 62
     7
 10
183.55099999999999
 20
258.911
 30
0.0
 11
183.55099999999999
 21
-4.0910799999999998
 31
0.0
  0
LINE
  5
1AE
  8
_________2
 62
     7
 10
65.549599999999998
 20
9.4089600000000004
 30
0.0
 11
65.549599999999998
 21
35.908799999999999
 31
0.0
  0
LINE
  5
1AF
  8
_________2
 62
     7
 10
84.549700000000016
 20
9.4089600000000004
 30
0.0
 11
84.549700000000016
 21
35.908799999999999
 31
0.0
  0
LINE
  5
1B0
  8
_________2
 62
     7
 10
103.55
 20
-4.0910799999999998
 30
0.0
 11
103.55
 21
35.908799999999999
 31
0.0
  0
LINE
  5
1B1
  8
_________2
 62
     7
 10
28.549299999999999
 20
9.4089600000000004
 30
0.0
 11
28.549299999999999
 21
23.409199999999998
 31
0.0
  0
LINE
  5
1B2
  8
_________2
 62
     7
 10
17.049499999999998
 20
9.4089600000000004
 30
0.0
 11
103.55
 21
9.4089600000000004
 31
0.0
  0
LINE
  5
1B3
  8
_________2
 62
     7
 10
17.049499999999998
 20
23.409199999999998
 30
0.0
 11
103.55
 21
23.409199999999998
 31
0.0
  0
LINE
  5
1B4
  8
_________2
 62
     7
 10
103.55
 20
15.9085
 30
0.0
 11
183.55099999999999
 21
15.9085
 31
0.0
  0
LINE
  5
1B5
  8
_________2
 62
     7
 10
17.049499999999998
 20
35.908799999999999
 30
0.0
 11
183.55099999999999
 21
35.908799999999999
 31
0.0
  0
ENDSEC
  0
EOF
