  0
SECTION
  2
HEADER
  9
$ACADVER
  1
AC1009
  9
$INSBASE
 10
0.0
 20
0.0
 30
0.0
  9
$EXTMIN
 10
-4.70052
 20
-21.071400000000001
 30
0.0
  9
$EXTMAX
 10
205.30099999999999
 20
275.93099999999998
 30
0.0
  9
$LIMMIN
 10
0.0
 20
0.0
  9
$LIMMAX
 10
12.0
 20
9.0
  9
$ORTHOMODE
 70
     0
  9
$REGENMODE
 70
     1
  9
$FILLMODE
 70
     1
  9
$QTEXTMODE
 70
     0
  9
$MIRRTEXT
 70
     1
  9
$DRAGMODE
 70
     2
  9
$LTSCALE
 40
1.0
  9
$OSMODE
 70
    37
  9
$ATTMODE
 70
     1
  9
$TEXTSIZE
 40
0.0
  9
$TRACEWID
 40
0.05
  9
$TEXTSTYLE
  7
STANDARD
  9
$CLAYER
  8
0
  9
$CELTYPE
  6
CONTINUOUS
  9
$CECOLOR
 62
   256
  9
$DIMSCALE
 40
1.0
  9
$DIMASZ
 40
0.18
  9
$DIMEXO
 40
0.0625
  9
$DIMDLI
 40
0.38
  9
$DIMRND
 40
0.0
  9
$DIMDLE
 40
0.0
  9
$DIMEXE
 40
0.18
  9
$DIMTP
 40
0.0
  9
$DIMTM
 40
0.0
  9
$DIMTXT
 40
0.18
  9
$DIMCEN
 40
0.09
  9
$DIMTSZ
 40
0.0
  9
$DIMTOL
 70
     0
  9
$DIMLIM
 70
     0
  9
$DIMTIH
 70
     1
  9
$DIMTOH
 70
     1
  9
$DIMSE1
 70
     0
  9
$DIMSE2
 70
     0
  9
$DIMTAD
 70
     0
  9
$DIMZIN
 70
     0
  9
$DIMBLK
  1

  9
$DIMASO
 70
     1
  9
$DIMSHO
 70
     1
  9
$DIMPOST
  1

  9
$DIMAPOST
  1

  9
$DIMALT
 70
     0
  9
$DIMALTD
 70
     2
  9
$DIMALTF
 40
25.399999999999999
  9
$DIMLFAC
 40
1.0
  9
$DIMTOFL
 70
     0
  9
$DIMTVP
 40
0.0
  9
$DIMTIX
 70
     0
  9
$DIMSOXD
 70
     0
  9
$DIMSAH
 70
     0
  9
$DIMBLK1
  1

  9
$DIMBLK2
  1

  9
$DIMSTYLE
  2
STANDARD
  9
$DIMCLRD
 70
     0
  9
$DIMCLRE
 70
     0
  9
$DIMCLRT
 70
     0
  9
$DIMTFAC
 40
1.0
  9
$DIMGAP
 40
0.09
  9
$LUNITS
 70
     2
  9
$LUPREC
 70
     4
  9
$SKETCHINC
 40
0.1
  9
$FILLETRAD
 40
0.0
  9
$AUNITS
 70
     0
  9
$AUPREC
 70
     0
  9
$MENU
  1
.
  9
$ELEVATION
 40
0.0
  9
$PELEVATION
 40
0.0
  9
$THICKNESS
 40
0.0
  9
$LIMCHECK
 70
     0
  9
$BLIPMODE
 70
     0
  9
$CHAMFERA
 40
0.0
  9
$CHAMFERB
 40
0.0
  9
$SKPOLY
 70
     0
  9
$TDCREATE
 40
2444972.375
  9
$TDUPDATE
 40
2458941.2460955549
  9
$TDINDWG
 40
0.0000632755
  9
$TDUSRTIMER
 40
0.0000632755
  9
$USRTIMER
 70
     1
  9
$ANGBASE
 50
0.0
  9
$ANGDIR
 70
     0
  9
$PDMODE
 70
     0
  9
$PDSIZE
 40
0.0
  9
$PLINEWID
 40
0.0
  9
$COORDS
 70
     1
  9
$SPLFRAME
 70
     0
  9
$SPLINETYPE
 70
     6
  9
$SPLINESEGS
 70
     8
  9
$ATTDIA
 70
     1
  9
$ATTREQ
 70
     1
  9
$HANDLING
 70
     1
  9
$HANDSEED
  5
26B
  9
$SURFTAB1
 70
     6
  9
$SURFTAB2
 70
     6
  9
$SURFTYPE
 70
     6
  9
$SURFU
 70
     6
  9
$SURFV
 70
     6
  9
$UCSNAME
  2

  9
$UCSORG
 10
0.0
 20
0.0
 30
0.0
  9
$UCSXDIR
 10
1.0
 20
0.0
 30
0.0
  9
$UCSYDIR
 10
0.0
 20
1.0
 30
0.0
  9
$PUCSNAME
  2

  9
$PUCSORG
 10
0.0
 20
0.0
 30
0.0
  9
$PUCSXDIR
 10
1.0
 20
0.0
 30
0.0
  9
$PUCSYDIR
 10
0.0
 20
1.0
 30
0.0
  9
$USERI1
 70
     0
  9
$USERI2
 70
     0
  9
$USERI3
 70
     0
  9
$USERI4
 70
     0
  9
$USERI5
 70
     0
  9
$USERR1
 40
0.0
  9
$USERR2
 40
0.0
  9
$USERR3
 40
0.0
  9
$USERR4
 40
0.0
  9
$USERR5
 40
0.0
  9
$WORLDVIEW
 70
     1
  9
$SHADEDGE
 70
     3
  9
$SHADEDIF
 70
    70
  9
$TILEMODE
 70
     1
  9
$MAXACTVP
 70
    48
  9
$PLIMCHECK
 70
     0
  9
$PEXTMIN
 10
1.0000000000000000E+020
 20
1.0000000000000000E+020
 30
1.0000000000000000E+020
  9
$PEXTMAX
 10
-1.0000000000000000E+020
 20
-1.0000000000000000E+020
 30
-1.0000000000000000E+020
  9
$PLIMMIN
 10
0.0
 20
0.0
  9
$PLIMMAX
 10
12.0
 20
9.0
  9
$UNITMODE
 70
     0
  9
$VISRETAIN
 70
     1
  9
$PLINEGEN
 70
     0
  9
$PSLTSCALE
 70
     1
  0
ENDSEC
  0
SECTION
  2
TABLES
  0
TABLE
  2
VPORT
 70
     1
  0
VPORT
  2
*ACTIVE
 70
     0
 10
0.0
 20
0.0
 11
1.0
 21
1.0
 12
154.64614572345729
 22
127.4298
 13
0.0
 23
0.0
 14
1.0
 24
1.0
 15
0.0
 25
0.0
 16
0.0
 26
0.0
 36
1.0
 17
0.0
 27
0.0
 37
0.0
 40
204.78382598709459
 41
2.8015873015873001
 42
50.0
 43
0.0
 44
0.0
 50
0.0
 51
0.0
 71
     0
 72
   100
 73
     1
 74
     1
 75
     0
 76
     0
 77
     0
 78
     0
  0
ENDTAB
  0
TABLE
  2
LTYPE
 70
     1
  0
LTYPE
  2
CONTINUOUS
 70
     0
  3
Solid line
 72
    65
 73
     0
 40
0.0
  0
ENDTAB
  0
TABLE
  2
LAYER
 70
     4
  0
LAYER
  2
0
 70
     0
 62
     7
  6
CONTINUOUS
  0
LAYER
  2
____
 70
     0
 62
     7
  6
CONTINUOUS
  0
LAYER
  2
_________1
 70
     0
 62
     7
  6
CONTINUOUS
  0
LAYER
  2
_________2
 70
     0
 62
     7
  6
CONTINUOUS
  0
ENDTAB
  0
TABLE
  2
STYLE
 70
     1
  0
STYLE
  2
STANDARD
 70
     0
 40
0.0
 41
0.0
 50
0.0
 71
     0
 42
0.0
  3
TXT
  4
EXTFONT.SHX
  0
ENDTAB
  0
TABLE
  2
VIEW
 70
     0
  0
ENDTAB
  0
TABLE
  2
UCS
 70
     0
  0
ENDTAB
  0
TABLE
  2
APPID
 70
     3
  0
APPID
  2
ACAD
 70
     0
  0
APPID
  2
ACAD_NAV_VCDISPLAY
 70
     0
  0
APPID
  2
ACAD_MLEADERVER
 70
     0
  0
ENDTAB
  0
TABLE
  2
DIMSTYLE
 70
     1
  0
DIMSTYLE
  2
STANDARD
 70
     0
  3

  4

  5

  6

  7

 40
1.0
 41
0.18
 42
0.0625
 43
0.38
 44
0.18
 45
0.0
 46
0.0
 47
0.0
 48
0.0
140
0.18
141
0.09
142
0.0
143
25.399999999999999
144
1.0
145
0.0
146
1.0
147
0.09
 71
     0
 72
     0
 73
     1
 74
     1
 75
     0
 76
     0
 77
     0
 78
     0
170
     0
171
     2
172
     0
173
     0
174
     0
175
     0
176
     0
177
     0
178
     0
  0
ENDTAB
  0
ENDSEC
  0
SECTION
  2
BLOCKS
  0
BLOCK
  8
0
  2
$MODEL_SPACE
 70
     0
 10
0.0
 20
0.0
 30
0.0
  3
$MODEL_SPACE
  1

  0
ENDBLK
  5
1A
  8
0
  0
BLOCK
 67
     1
  8
0
  2
$PAPER_SPACE
 70
     0
 10
0.0
 20
0.0
 30
0.0
  3
$PAPER_SPACE
  1

  0
ENDBLK
  5
17
 67
     1
  8
0
  0
BLOCK
  8
____
  2
AIGNBL01010002
 70
     0
 10
0.0
 20
0.0
 30
0.0
  3
AIGNBL01010002
  1

  0
TEXT
  5
25
  8
____
 62
     7
 10
33.764000000000003
 20
124.95
 30
0.0
 40
3.0923400000000001
  1
樹脂板
 41
0.5
  0
ENDBLK
  5
26
  8
____
  0
BLOCK
  8
____
  2
AIGNBL01010003
 70
     0
 10
0.0
 20
0.0
 30
0.0
  3
AIGNBL01010003
  1

  0
TEXT
  5
29
  8
____
 62
     7
 10
68.114834999999999
 20
151.405
 30
0.0
 40
3.0923400000000001
  1
192
 41
0.5
 72
     1
 11
69.918700000000001
 21
151.405
 31
0.0
  0
ENDBLK
  5
2A
  8
____
  0
BLOCK
  8
____
  2
AIGNBL01010004
 70
     0
 10
0.0
 20
0.0
 30
0.0
  3
AIGNBL01010004
  1

  0
TEXT
  5
2D
  8
____
 62
     7
 10
112.492
 20
175.43674499999989
 30
0.0
 40
3.0923400000000001
  1
97.5
 50
90.0
 41
0.5
 72
     1
 11
112.492
 21
177.756
 31
0.0
  0
ENDBLK
  5
2E
  8
____
  0
BLOCK
  8
____
  2
AIGNBL01010005
 70
     0
 10
0.0
 20
0.0
 30
0.0
  3
AIGNBL01010005
  1

  0
TEXT
  5
31
  8
____
 62
     7
 10
112.492
 20
104.40522
 30
0.0
 40
3.0923400000000001
  1
91
 50
90.0
 41
0.5
 72
     1
 11
112.492
 21
105.43600000000001
 31
0.0
  0
ENDBLK
  5
32
  8
____
  0
BLOCK
  8
____
  2
AIGNBL01010006
 70
     0
 10
0.0
 20
0.0
 30
0.0
  3
AIGNBL01010006
  1

  0
TEXT
  5
35
  8
____
 62
     7
 10
146.977745
 20
81.866699999999994
 30
0.0
 40
3.0923400000000001
  1
84.5
 41
0.5
 72
     1
 11
149.297
 21
81.866699999999994
 31
0.0
  0
ENDBLK
  5
36
  8
____
  0
BLOCK
  8
_________1
  2
AIGNBL02010002
 70
     0
 10
0.0
 20
0.0
 30
0.0
  3
AIGNBL02010002
  1

  0
LINE
  5
39
  8
_________1
 62
     7
 10
40.129100000000001
 20
151.28999999999999
 30
0.0
 11
37.917999999999999
 21
150.69799999999989
 31
0.0
  0
LINE
  5
3A
  8
_________1
 62
     7
 10
37.917999999999999
 20
150.69799999999989
 30
0.0
 11
40.129100000000001
 21
150.10499999999999
 31
0.0
  0
LINE
  5
3B
  8
_________1
 62
     7
 10
40.129100000000001
 20
150.10499999999999
 30
0.0
 11
40.129100000000001
 21
151.28999999999999
 31
0.0
  0
LINE
  5
3C
  8
_________1
 62
     7
 10
99.708200000000005
 20
150.12
 30
0.0
 11
101.919
 21
150.71199999999999
 31
0.0
  0
LINE
  5
3D
  8
_________1
 62
     7
 10
101.919
 20
150.71199999999999
 30
0.0
 11
99.708200000000005
 21
151.30500000000001
 31
0.0
  0
LINE
  5
3E
  8
_________1
 62
     7
 10
99.708200000000005
 20
151.30500000000001
 30
0.0
 11
99.708200000000005
 21
150.12
 31
0.0
  0
LINE
  5
3F
  8
_________1
 62
     7
 10
37.918700000000001
 20
150.70500000000001
 30
0.0
 11
101.919
 21
150.70500000000001
 31
0.0
  0
ENDBLK
  5
40
  8
_________1
  0
BLOCK
  8
_________1
  2
AIGNBL02010003
 70
     0
 10
0.0
 20
0.0
 30
0.0
  3
AIGNBL02010003
  1

  0
LINE
  5
43
  8
_________1
 62
     7
 10
113.777
 20
191.79499999999999
 30
0.0
 11
113.185
 21
194.00700000000001
 31
0.0
  0
LINE
  5
44
  8
_________1
 62
     7
 10
113.185
 20
194.00700000000001
 30
0.0
 11
112.592
 21
191.79499999999999
 31
0.0
  0
LINE
  5
45
  8
_________1
 62
     7
 10
112.592
 20
191.79499999999999
 30
0.0
 11
113.777
 21
191.79499999999999
 31
0.0
  0
LINE
  5
46
  8
_________1
 62
     7
 10
112.60599999999999
 20
163.71700000000001
 30
0.0
 11
113.199
 21
161.505
 31
0.0
  0
LINE
  5
47
  8
_________1
 62
     7
 10
113.199
 20
161.505
 30
0.0
 11
113.792
 21
163.71700000000001
 31
0.0
  0
LINE
  5
48
  8
_________1
 62
     7
 10
113.792
 20
163.71700000000001
 30
0.0
 11
112.60599999999999
 21
163.71700000000001
 31
0.0
  0
LINE
  5
49
  8
_________1
 62
     7
 10
113.19199999999999
 20
194.00599999999989
 30
0.0
 11
113.19199999999999
 21
161.506
 31
0.0
  0
ENDBLK
  5
4A
  8
_________1
  0
BLOCK
  8
_________1
  2
AIGNBL02010004
 70
     0
 10
0.0
 20
0.0
 30
0.0
  3
AIGNBL02010004
  1

  0
LINE
  5
4D
  8
_________1
 62
     7
 10
113.777
 20
118.392
 30
0.0
 11
113.185
 21
120.604
 31
0.0
  0
LINE
  5
4E
  8
_________1
 62
     7
 10
113.185
 20
120.604
 30
0.0
 11
112.592
 21
118.392
 31
0.0
  0
LINE
  5
4F
  8
_________1
 62
     7
 10
112.592
 20
118.392
 30
0.0
 11
113.777
 21
118.392
 31
0.0
  0
LINE
  5
50
  8
_________1
 62
     7
 10
112.60599999999999
 20
92.480000000000004
 30
0.0
 11
113.199
 21
90.268999999999991
 31
0.0
  0
LINE
  5
51
  8
_________1
 62
     7
 10
113.199
 20
90.268999999999991
 30
0.0
 11
113.792
 21
92.480000000000004
 31
0.0
  0
LINE
  5
52
  8
_________1
 62
     7
 10
113.792
 20
92.480000000000004
 30
0.0
 11
112.60599999999999
 21
92.480000000000004
 31
0.0
  0
LINE
  5
53
  8
_________1
 62
     7
 10
113.19199999999999
 20
120.60299999999999
 30
0.0
 11
113.19199999999999
 21
90.2697
 31
0.0
  0
ENDBLK
  5
54
  8
_________1
  0
BLOCK
  8
_________1
  2
AIGNBL02010005
 70
     0
 10
0.0
 20
0.0
 30
0.0
  3
AIGNBL02010005
  1

  0
LINE
  5
57
  8
_________1
 62
     7
 10
161.16900000000001
 20
80.581299999999999
 30
0.0
 11
163.381
 21
81.173900000000003
 31
0.0
  0
LINE
  5
58
  8
_________1
 62
     7
 10
163.381
 20
81.173900000000003
 30
0.0
 11
161.16900000000001
 21
81.766400000000004
 31
0.0
  0
LINE
  5
59
  8
_________1
 62
     7
 10
161.16900000000001
 20
81.766400000000004
 30
0.0
 11
161.16900000000001
 21
80.581299999999999
 31
0.0
  0
LINE
  5
5A
  8
_________1
 62
     7
 10
137.42400000000001
 20
81.751900000000006
 30
0.0
 11
135.21299999999999
 21
81.159400000000005
 31
0.0
  0
LINE
  5
5B
  8
_________1
 62
     7
 10
135.21299999999999
 20
81.159400000000005
 30
0.0
 11
137.42400000000001
 21
80.566800000000001
 31
0.0
  0
LINE
  5
5C
  8
_________1
 62
     7
 10
137.42400000000001
 20
80.566800000000001
 30
0.0
 11
137.42400000000001
 21
81.751900000000006
 31
0.0
  0
LINE
  5
5D
  8
_________1
 62
     7
 10
163.38
 20
81.166600000000017
 30
0.0
 11
135.21299999999999
 21
81.166600000000017
 31
0.0
  0
ENDBLK
  5
5E
  8
_________1
  0
BLOCK
  8
_________2
  2
AIGNBL03010002
 70
     0
 10
0.0
 20
0.0
 30
0.0
  3
AIGNBL03010002
  1

  0
LINE
  5
61
  8
_________2
 62
     7
 10
76.741
 20
29.8047
 30
0.0
 11
74.554699999999997
 21
29.8047
 31
0.0
  0
LINE
  5
62
  8
_________2
 62
     7
 10
77.233699999999999
 20
29.8047
 30
0.0
 11
76.981499999999997
 21
29.8047
 31
0.0
  0
LINE
  5
63
  8
_________2
 62
     7
 10
77.726299999999995
 20
29.8047
 30
0.0
 11
80.651200000000003
 21
29.8047
 31
0.0
  0
LINE
  5
64
  8
_________2
 62
     7
 10
77.233699999999999
 20
29.8047
 30
0.0
 11
77.485500000000002
 21
29.8047
 31
0.0
  0
LINE
  5
65
  8
_________2
 62
     7
 10
70.837100000000007
 20
29.8047
 30
0.0
 11
68.650499999999994
 21
29.8047
 31
0.0
  0
LINE
  5
66
  8
_________2
 62
     7
 10
71.329400000000007
 20
29.8047
 30
0.0
 11
71.077600000000004
 21
29.8047
 31
0.0
  0
LINE
  5
67
  8
_________2
 62
     7
 10
71.329400000000007
 20
30.2974
 30
0.0
 11
71.329400000000007
 21
32.484400000000001
 31
0.0
  0
LINE
  5
68
  8
_________2
 62
     7
 10
71.329400000000007
 20
29.8047
 30
0.0
 11
71.329400000000007
 21
30.056899999999999
 31
0.0
  0
LINE
  5
69
  8
_________2
 62
     7
 10
71.822100000000006
 20
29.8047
 30
0.0
 11
74.009
 21
29.8047
 31
0.0
  0
LINE
  5
6A
  8
_________2
 62
     7
 10
71.329400000000007
 20
29.8047
 30
0.0
 11
71.581599999999995
 21
29.8047
 31
0.0
  0
LINE
  5
6B
  8
_________2
 62
     7
 10
71.329400000000007
 20
29.312799999999999
 30
0.0
 11
71.329400000000007
 21
27.125800000000002
 31
0.0
  0
LINE
  5
6C
  8
_________2
 62
     7
 10
71.329400000000007
 20
29.8047
 30
0.0
 11
71.329400000000007
 21
29.5532
 31
0.0
  0
LINE
  5
6D
  8
_________2
 62
     7
 10
75.040499999999994
 20
28.5852
 30
0.0
 11
80.218500000000006
 21
27.720400000000001
 31
0.0
  0
LINE
  5
6E
  8
_________2
 62
     7
 10
75.040499999999994
 20
31.0243
 30
0.0
 11
80.218500000000006
 21
31.889700000000001
 31
0.0
  0
LINE
  5
6F
  8
_________2
 62
     7
 10
80.218500000000006
 20
27.720400000000001
 30
0.0
 11
80.218500000000006
 21
31.889700000000001
 31
0.0
  0
LINE
  5
70
  8
_________2
 62
     7
 10
75.040499999999994
 20
28.5852
 30
0.0
 11
75.040499999999994
 21
31.0243
 31
0.0
  0
ARC
  5
71
  8
_________2
 62
     7
 10
71.28285600000001
 20
29.757811
 30
0.0
 40
1.2673589999999999
 50
2.122214
 51
87.893958999999995
  0
ARC
  5
72
  8
_________2
 62
     7
 10
71.375959999999992
 20
29.758213000000001
 30
0.0
 40
1.2669559999999991
 50
92.104701000000006
 51
177.89526900000001
  0
ARC
  5
73
  8
_________2
 62
     7
 10
71.376357999999996
 20
29.851671
 30
0.0
 40
1.2673680000000001
 50
182.12203600000001
 51
267.877993
  0
ARC
  5
74
  8
_________2
 62
     7
 10
71.282531999999989
 20
29.851998999999999
 30
0.0
 40
1.267695999999999
 50
272.12015300000002
 51
357.863674
  0
ARC
  5
75
  8
_________2
 62
     7
 10
71.329430000000002
 20
29.804742999999998
 30
0.0
 40
2.0849849999999992
 50
0.00001
 51
89.999980000000008
  0
ARC
  5
76
  8
_________2
 62
     7
 10
71.329603000000006
 20
29.804915000000001
 30
0.0
 40
2.084813
 50
90.004733999999999
 51
180.00474399999999
  0
ARC
  5
77
  8
_________2
 62
     7
 10
71.409106000000008
 20
29.884775999999999
 30
0.0
 40
2.1657950000000001
 50
182.11776599999999
 51
267.89173399999999
  0
ARC
  5
78
  8
_________2
 62
     7
 10
71.249459000000002
 20
29.885429999999999
 30
0.0
 40
2.1664590000000001
 50
272.11546800000002
 51
357.86560400000002
  0
ENDBLK
  5
79
  8
_________2
  0
ENDSEC
  0
SECTION
  2
ENTITIES
  0
INSERT
  5
7A
  8
____
 62
     7
  2
AIGNBL01010002
 10
0.0
 20
0.0
 30
0.0
  0
INSERT
  5
7B
  8
____
 62
     7
  2
AIGNBL01010003
 10
0.0
 20
0.0
 30
0.0
  0
INSERT
  5
7C
  8
____
 62
     7
  2
AIGNBL01010004
 10
0.0
 20
0.0
 30
0.0
  0
INSERT
  5
7D
  8
____
 62
     7
  2
AIGNBL01010005
 10
0.0
 20
0.0
 30
0.0
  0
INSERT
  5
7E
  8
____
 62
     7
  2
AIGNBL01010006
 10
0.0
 20
0.0
 30
0.0
  0
LINE
  5
7F
  8
_________1
 62
     7
 10
47.330199999999991
 20
117.73699999999999
 30
0.0
 11
48.938099999999999
 21
116.107
 31
0.0
  0
LINE
  5
80
  8
_________1
 62
     7
 10
48.938099999999999
 20
116.107
 30
0.0
 11
48.360300000000002
 21
118.322
 31
0.0
  0
LINE
  5
81
  8
_________1
 62
     7
 10
48.360300000000002
 20
118.322
 30
0.0
 11
47.330199999999991
 21
117.73699999999999
 31
0.0
  0
LINE
  5
82
  8
_________1
 62
     7
 10
44.308700000000002
 20
124.25
 30
0.0
 11
48.938099999999999
 21
116.107
 31
0.0
  0
LINE
  5
83
  8
_________1
 62
     7
 10
33.764000000000003
 20
124.25
 30
0.0
 11
44.308700000000002
 21
124.25
 31
0.0
  0
INSERT
  5
84
  8
_________1
 62
     7
  2
AIGNBL02010002
 10
0.0
 20
0.0
 30
0.0
  0
LINE
  5
85
  8
_________1
 62
     7
 10
101.919
 20
160.73500000000001
 30
0.0
 11
101.919
 21
150.005
 31
0.0
  0
LINE
  5
86
  8
_________1
 62
     7
 10
37.918700000000001
 20
160.73500000000001
 30
0.0
 11
37.918700000000001
 21
150.005
 31
0.0
  0
INSERT
  5
87
  8
_________1
 62
     7
  2
AIGNBL02010003
 10
0.0
 20
0.0
 30
0.0
  0
LINE
  5
88
  8
_________1
 62
     7
 10
102.676
 20
161.506
 30
0.0
 11
113.892
 21
161.506
 31
0.0
  0
LINE
  5
89
  8
_________1
 62
     7
 10
102.676
 20
194.00599999999989
 30
0.0
 11
113.892
 21
194.00599999999989
 31
0.0
  0
INSERT
  5
8A
  8
_________1
 62
     7
  2
AIGNBL02010004
 10
0.0
 20
0.0
 30
0.0
  0
LINE
  5
8B
  8
_________1
 62
     7
 10
104.001
 20
90.2697
 30
0.0
 11
113.892
 21
90.2697
 31
0.0
  0
LINE
  5
8C
  8
_________1
 62
     7
 10
104.001
 20
120.60299999999999
 30
0.0
 11
113.892
 21
120.60299999999999
 31
0.0
  0
INSERT
  5
8D
  8
_________1
 62
     7
  2
AIGNBL02010005
 10
0.0
 20
0.0
 30
0.0
  0
LINE
  5
8E
  8
_________1
 62
     7
 10
163.38
 20
89.485200000000006
 30
0.0
 11
163.38
 21
80.466600000000014
 31
0.0
  0
LINE
  5
8F
  8
_________1
 62
     7
 10
135.21299999999999
 20
89.485200000000006
 30
0.0
 11
135.21299999999999
 21
80.466600000000014
 31
0.0
  0
ARC
  5
90
  8
_________1
 62
     7
 10
38.611612999999998
 20
193.312827
 30
0.0
 40
0.693422
 50
92.173597000000015
 51
177.84117599999999
  0
ARC
  5
91
  8
_________1
 62
     7
 10
38.610810000000001
 20
162.19801799999999
 30
0.0
 40
0.692596
 50
182.10972899999999
 51
267.89030000000002
  0
ARC
  5
92
  8
_________1
 62
     7
 10
101.2265
 20
162.19801899999999
 30
0.0
 40
0.692596
 50
272.109737
 51
357.89027299999998
  0
ARC
  5
93
  8
_________1
 62
     7
 10
101.226325
 20
193.313455
 30
0.0
 40
0.6927710000000001
 50
2.1088209999999989
 51
87.876366000000004
  0
LINE
  5
94
  8
_________1
 62
     7
 10
93.75200000000001
 20
191.00599999999989
 30
0.0
 11
93.75200000000001
 21
164.50599999999989
 31
0.0
  0
LINE
  5
95
  8
_________1
 62
     7
 10
79.585300000000004
 20
191.00599999999989
 30
0.0
 11
79.585300000000004
 21
164.50599999999989
 31
0.0
  0
LINE
  5
96
  8
_________1
 62
     7
 10
82.585300000000004
 20
191.00599999999989
 30
0.0
 11
82.585300000000004
 21
164.50599999999989
 31
0.0
  0
LINE
  5
97
  8
_________1
 62
     7
 10
90.751999999999995
 20
191.00599999999989
 30
0.0
 11
90.751999999999995
 21
164.50599999999989
 31
0.0
  0
LINE
  5
98
  8
_________1
 62
     7
 10
46.085299999999997
 20
191.339
 30
0.0
 11
49.085299999999989
 21
191.339
 31
0.0
  0
LINE
  5
99
  8
_________1
 62
     7
 10
49.085299999999989
 20
191.00599999999989
 30
0.0
 11
49.085299999999989
 21
191.339
 31
0.0
  0
LINE
  5
9A
  8
_________1
 62
     7
 10
37.918700000000001
 20
191.339
 30
0.0
 11
46.085299999999997
 21
191.339
 31
0.0
  0
LINE
  5
9B
  8
_________1
 62
     7
 10
46.085299999999997
 20
191.339
 30
0.0
 11
46.085299999999997
 21
191.00599999999989
 31
0.0
  0
LINE
  5
9C
  8
_________1
 62
     7
 10
37.918700000000001
 20
191.00599999999989
 30
0.0
 11
37.918700000000001
 21
164.50599999999989
 31
0.0
  0
LINE
  5
9D
  8
_________1
 62
     7
 10
37.918700000000001
 20
193.339
 30
0.0
 11
37.918700000000001
 21
192.172
 31
0.0
  0
LINE
  5
9E
  8
_________1
 62
     7
 10
46.085299999999997
 20
164.50599999999989
 30
0.0
 11
46.085299999999997
 21
191.00599999999989
 31
0.0
  0
LINE
  5
9F
  8
_________1
 62
     7
 10
49.085299999999989
 20
164.50599999999989
 30
0.0
 11
49.085299999999989
 21
191.00599999999989
 31
0.0
  0
LINE
  5
A0
  8
_________1
 62
     7
 10
101.919
 20
192.172
 30
0.0
 11
101.919
 21
191.339
 31
0.0
  0
LINE
  5
A1
  8
_________1
 62
     7
 10
101.919
 20
191.00599999999989
 30
0.0
 11
101.919
 21
191.339
 31
0.0
  0
LINE
  5
A2
  8
_________1
 62
     7
 10
101.919
 20
192.172
 30
0.0
 11
101.919
 21
193.339
 31
0.0
  0
LINE
  5
A3
  8
_________1
 62
     7
 10
101.919
 20
191.00599999999989
 30
0.0
 11
101.919
 21
164.50599999999989
 31
0.0
  0
LINE
  5
A4
  8
_________1
 62
     7
 10
68.418700000000001
 20
191.00599999999989
 30
0.0
 11
68.418700000000001
 21
164.50599999999989
 31
0.0
  0
LINE
  5
A5
  8
_________1
 62
     7
 10
57.252000000000002
 20
164.50599999999989
 30
0.0
 11
57.252000000000002
 21
191.00599999999989
 31
0.0
  0
LINE
  5
A6
  8
_________1
 62
     7
 10
71.418700000000001
 20
191.00599999999989
 30
0.0
 11
71.418700000000001
 21
164.50599999999989
 31
0.0
  0
LINE
  5
A7
  8
_________1
 62
     7
 10
60.251999999999988
 20
164.50599999999989
 30
0.0
 11
60.251999999999988
 21
191.00599999999989
 31
0.0
  0
LINE
  5
A8
  8
_________1
 62
     7
 10
101.252
 20
194.00599999999989
 30
0.0
 11
38.585299999999997
 21
194.00599999999989
 31
0.0
  0
LINE
  5
A9
  8
_________1
 62
     7
 10
49.085299999999989
 20
191.339
 30
0.0
 11
57.252000000000002
 21
191.339
 31
0.0
  0
LINE
  5
AA
  8
_________1
 62
     7
 10
68.418700000000001
 20
191.339
 30
0.0
 11
71.418700000000001
 21
191.339
 31
0.0
  0
LINE
  5
AB
  8
_________1
 62
     7
 10
79.585300000000004
 20
191.339
 30
0.0
 11
82.585300000000004
 21
191.339
 31
0.0
  0
LINE
  5
AC
  8
_________1
 62
     7
 10
90.751999999999995
 20
191.339
 30
0.0
 11
93.75200000000001
 21
191.339
 31
0.0
  0
LINE
  5
AD
  8
_________1
 62
     7
 10
57.252000000000002
 20
191.339
 30
0.0
 11
60.251999999999988
 21
191.339
 31
0.0
  0
LINE
  5
AE
  8
_________1
 62
     7
 10
82.585300000000004
 20
191.339
 30
0.0
 11
90.751999999999995
 21
191.339
 31
0.0
  0
LINE
  5
AF
  8
_________1
 62
     7
 10
93.75200000000001
 20
191.339
 30
0.0
 11
101.919
 21
191.339
 31
0.0
  0
LINE
  5
B0
  8
_________1
 62
     7
 10
71.418700000000001
 20
191.339
 30
0.0
 11
79.585300000000004
 21
191.339
 31
0.0
  0
LINE
  5
B1
  8
_________1
 62
     7
 10
60.251999999999988
 20
191.00599999999989
 30
0.0
 11
60.251999999999988
 21
191.339
 31
0.0
  0
LINE
  5
B2
  8
_________1
 62
     7
 10
71.418700000000001
 20
191.339
 30
0.0
 11
71.418700000000001
 21
191.00599999999989
 31
0.0
  0
LINE
  5
B3
  8
_________1
 62
     7
 10
79.585300000000004
 20
191.339
 30
0.0
 11
79.585300000000004
 21
191.00599999999989
 31
0.0
  0
LINE
  5
B4
  8
_________1
 62
     7
 10
57.252000000000002
 20
191.00599999999989
 30
0.0
 11
57.252000000000002
 21
191.339
 31
0.0
  0
LINE
  5
B5
  8
_________1
 62
     7
 10
82.585300000000004
 20
191.339
 30
0.0
 11
82.585300000000004
 21
191.00599999999989
 31
0.0
  0
LINE
  5
B6
  8
_________1
 62
     7
 10
90.751999999999995
 20
191.339
 30
0.0
 11
90.751999999999995
 21
191.00599999999989
 31
0.0
  0
LINE
  5
B7
  8
_________1
 62
     7
 10
68.418700000000001
 20
191.00599999999989
 30
0.0
 11
68.418700000000001
 21
191.339
 31
0.0
  0
LINE
  5
B8
  8
_________1
 62
     7
 10
93.75200000000001
 20
191.00599999999989
 30
0.0
 11
93.75200000000001
 21
191.339
 31
0.0
  0
LINE
  5
B9
  8
_________1
 62
     7
 10
60.251999999999988
 20
191.339
 30
0.0
 11
68.418700000000001
 21
191.339
 31
0.0
  0
LINE
  5
BA
  8
_________1
 62
     7
 10
37.918700000000001
 20
192.172
 30
0.0
 11
37.918700000000001
 21
191.339
 31
0.0
  0
LINE
  5
BB
  8
_________1
 62
     7
 10
37.918700000000001
 20
191.339
 30
0.0
 11
37.918700000000001
 21
191.00599999999989
 31
0.0
  0
LINE
  5
BC
  8
_________1
 62
     7
 10
37.918700000000001
 20
163.339
 30
0.0
 11
37.918700000000001
 21
162.173
 31
0.0
  0
LINE
  5
BD
  8
_________1
 62
     7
 10
101.919
 20
162.173
 30
0.0
 11
101.919
 21
163.339
 31
0.0
  0
LINE
  5
BE
  8
_________1
 62
     7
 10
38.585299999999997
 20
161.506
 30
0.0
 11
101.252
 21
161.506
 31
0.0
  0
LINE
  5
BF
  8
_________1
 62
     7
 10
90.751999999999995
 20
164.173
 30
0.0
 11
82.585300000000004
 21
164.173
 31
0.0
  0
LINE
  5
C0
  8
_________1
 62
     7
 10
93.75200000000001
 20
164.173
 30
0.0
 11
90.751999999999995
 21
164.173
 31
0.0
  0
LINE
  5
C1
  8
_________1
 62
     7
 10
49.085299999999989
 20
164.173
 30
0.0
 11
46.085299999999997
 21
164.173
 31
0.0
  0
LINE
  5
C2
  8
_________1
 62
     7
 10
82.585300000000004
 20
164.173
 30
0.0
 11
79.585300000000004
 21
164.173
 31
0.0
  0
LINE
  5
C3
  8
_________1
 62
     7
 10
57.252000000000002
 20
164.173
 30
0.0
 11
49.085299999999989
 21
164.173
 31
0.0
  0
LINE
  5
C4
  8
_________1
 62
     7
 10
71.418700000000001
 20
164.173
 30
0.0
 11
68.418700000000001
 21
164.173
 31
0.0
  0
LINE
  5
C5
  8
_________1
 62
     7
 10
101.919
 20
164.173
 30
0.0
 11
93.75200000000001
 21
164.173
 31
0.0
  0
LINE
  5
C6
  8
_________1
 62
     7
 10
49.085299999999989
 20
164.173
 30
0.0
 11
49.085299999999989
 21
164.50599999999989
 31
0.0
  0
LINE
  5
C7
  8
_________1
 62
     7
 10
90.751999999999995
 20
164.50599999999989
 30
0.0
 11
90.751999999999995
 21
164.173
 31
0.0
  0
LINE
  5
C8
  8
_________1
 62
     7
 10
60.251999999999988
 20
164.173
 30
0.0
 11
57.252000000000002
 21
164.173
 31
0.0
  0
LINE
  5
C9
  8
_________1
 62
     7
 10
60.251999999999988
 20
164.173
 30
0.0
 11
60.251999999999988
 21
164.50599999999989
 31
0.0
  0
LINE
  5
CA
  8
_________1
 62
     7
 10
68.418700000000001
 20
164.173
 30
0.0
 11
68.418700000000001
 21
164.50599999999989
 31
0.0
  0
LINE
  5
CB
  8
_________1
 62
     7
 10
57.252000000000002
 20
164.173
 30
0.0
 11
57.252000000000002
 21
164.50599999999989
 31
0.0
  0
LINE
  5
CC
  8
_________1
 62
     7
 10
68.418700000000001
 20
164.173
 30
0.0
 11
60.251999999999988
 21
164.173
 31
0.0
  0
LINE
  5
CD
  8
_________1
 62
     7
 10
46.085299999999997
 20
164.50599999999989
 30
0.0
 11
46.085299999999997
 21
164.173
 31
0.0
  0
LINE
  5
CE
  8
_________1
 62
     7
 10
37.918700000000001
 20
164.50599999999989
 30
0.0
 11
37.918700000000001
 21
164.173
 31
0.0
  0
LINE
  5
CF
  8
_________1
 62
     7
 10
46.085299999999997
 20
164.173
 30
0.0
 11
37.918700000000001
 21
164.173
 31
0.0
  0
LINE
  5
D0
  8
_________1
 62
     7
 10
37.918700000000001
 20
163.339
 30
0.0
 11
37.918700000000001
 21
164.173
 31
0.0
  0
LINE
  5
D1
  8
_________1
 62
     7
 10
82.585300000000004
 20
164.50599999999989
 30
0.0
 11
82.585300000000004
 21
164.173
 31
0.0
  0
LINE
  5
D2
  8
_________1
 62
     7
 10
101.919
 20
164.173
 30
0.0
 11
101.919
 21
164.50599999999989
 31
0.0
  0
LINE
  5
D3
  8
_________1
 62
     7
 10
101.919
 20
163.339
 30
0.0
 11
101.919
 21
164.173
 31
0.0
  0
LINE
  5
D4
  8
_________1
 62
     7
 10
93.75200000000001
 20
164.173
 30
0.0
 11
93.75200000000001
 21
164.50599999999989
 31
0.0
  0
LINE
  5
D5
  8
_________1
 62
     7
 10
71.418700000000001
 20
164.50599999999989
 30
0.0
 11
71.418700000000001
 21
164.173
 31
0.0
  0
LINE
  5
D6
  8
_________1
 62
     7
 10
79.585300000000004
 20
164.50599999999989
 30
0.0
 11
79.585300000000004
 21
164.173
 31
0.0
  0
LINE
  5
D7
  8
_________1
 62
     7
 10
79.585300000000004
 20
164.173
 30
0.0
 11
71.418700000000001
 21
164.173
 31
0.0
  0
ARC
  5
D8
  8
_________1
 62
     7
 10
163.648089
 20
119.76861700000001
 30
0.0
 40
0.034669
 50
92.032535999999993
 51
177.967434
  0
LINE
  5
D9
  8
_________1
 62
     7
 10
165.047
 20
119.803
 30
0.0
 11
165.047
 21
120.036
 31
0.0
  0
LINE
  5
DA
  8
_________1
 62
     7
 10
164.71299999999999
 20
119.803
 30
0.0
 11
165.047
 21
119.803
 31
0.0
  0
LINE
  5
DB
  8
_________1
 62
     7
 10
165.047
 20
120.036
 30
0.0
 11
164.88
 21
120.036
 31
0.0
  0
LINE
  5
DC
  8
_________1
 62
     7
 10
163.64699999999999
 20
119.803
 30
0.0
 11
164.71299999999999
 21
119.803
 31
0.0
  0
LINE
  5
DD
  8
_________1
 62
     7
 10
164.71299999999999
 20
120.036
 30
0.0
 11
164.88
 21
120.036
 31
0.0
  0
LINE
  5
DE
  8
_________1
 62
     7
 10
163.71299999999999
 20
120.036
 30
0.0
 11
163.815
 21
120.036
 31
0.0
  0
LINE
  5
DF
  8
_________1
 62
     7
 10
163.815
 20
120.036
 30
0.0
 11
164.71299999999999
 21
120.036
 31
0.0
  0
LINE
  5
E0
  8
_________1
 62
     7
 10
163.613
 20
119.60299999999999
 30
0.0
 11
163.613
 21
112.2
 31
0.0
  0
LINE
  5
E1
  8
_________1
 62
     7
 10
163.613
 20
119.77
 30
0.0
 11
163.613
 21
119.60299999999999
 31
0.0
  0
LINE
  5
E2
  8
_________1
 62
     7
 10
163.613
 20
112.2
 30
0.0
 11
163.613
 21
111.866
 31
0.0
  0
LINE
  5
E3
  8
_________1
 62
     7
 10
163.38
 20
111.866
 30
0.0
 11
163.613
 21
111.866
 31
0.0
  0
LINE
  5
E4
  8
_________1
 62
     7
 10
163.387
 20
119.77
 30
0.0
 11
163.613
 21
119.77
 31
0.0
  0
LINE
  5
E5
  8
_________1
 62
     7
 10
163.38
 20
111.866
 30
0.0
 11
163.38
 21
112.2
 31
0.0
  0
LINE
  5
E6
  8
_________1
 62
     7
 10
163.38
 20
119.601
 30
0.0
 11
163.38
 21
119.60299999999999
 31
0.0
  0
LINE
  5
E7
  8
_________1
 62
     7
 10
163.38
 20
119.60299999999999
 30
0.0
 11
163.38
 21
119.703
 31
0.0
  0
LINE
  5
E8
  8
_________1
 62
     7
 10
163.38
 20
112.2
 30
0.0
 11
163.38
 21
119.601
 31
0.0
  0
ARC
  5
E9
  8
_________1
 62
     7
 10
163.74503799999999
 20
119.67168100000001
 30
0.0
 40
0.8652840000000001
 50
92.09869599999999
 51
177.92496499999999
  0
ARC
  5
EA
  8
_________1
 62
     7
 10
136.06014099999999
 20
91.049683999999999
 30
0.0
 40
0.346886
 50
182.172371
 51
267.82765899999998
  0
ARC
  5
EB
  8
_________1
 62
     7
 10
136.078327
 20
91.068228000000005
 30
0.0
 40
0.865634
 50
182.09823600000001
 51
267.92547400000001
  0
ARC
  5
EC
  8
_________1
 62
     7
 10
134.866659
 20
119.689897
 30
0.0
 40
0.346863
 50
2.1666660000000002
 51
87.774103999999994
  0
ARC
  5
ED
  8
_________1
 62
     7
 10
134.88013000000001
 20
119.703011
 30
0.0
 40
0.8333739999999998
 50
0.00001
 51
89.999980000000008
  0
ARC
  5
EE
  8
_________1
 62
     7
 10
162.53368499999999
 20
91.049683999999999
 30
0.0
 40
0.346886
 50
272.17236100000002
 51
357.82764900000001
  0
ARC
  5
EF
  8
_________1
 62
     7
 10
163.726508
 20
119.69021100000001
 30
0.0
 40
0.346537
 50
92.175957000000025
 51
177.88323399999999
  0
ARC
  5
F0
  8
_________1
 62
     7
 10
162.54683399999999
 20
91.036535000000001
 30
0.0
 40
0.8333739999999998
 50
270.00002000000001
 51
359.99999000000003
  0
LINE
  5
F1
  8
_________1
 62
     7
 10
165.547
 20
120.536
 30
0.0
 11
164.88
 21
120.536
 31
0.0
  0
LINE
  5
F2
  8
_________1
 62
     7
 10
165.047
 20
120.036
 30
0.0
 11
164.88
 21
120.036
 31
0.0
  0
LINE
  5
F3
  8
_________1
 62
     7
 10
165.547
 20
120.036
 30
0.0
 11
165.047
 21
120.036
 31
0.0
  0
LINE
  5
F4
  8
_________1
 62
     7
 10
165.547
 20
120.536
 30
0.0
 11
165.547
 21
120.036
 31
0.0
  0
LINE
  5
F5
  8
_________1
 62
     7
 10
163.71299999999999
 20
120.536
 30
0.0
 11
164.88
 21
120.536
 31
0.0
  0
LINE
  5
F6
  8
_________1
 62
     7
 10
164.71299999999999
 20
120.036
 30
0.0
 11
164.88
 21
120.036
 31
0.0
  0
LINE
  5
F7
  8
_________1
 62
     7
 10
163.71299999999999
 20
120.036
 30
0.0
 11
163.815
 21
120.036
 31
0.0
  0
LINE
  5
F8
  8
_________1
 62
     7
 10
162.88
 20
91.036500000000004
 30
0.0
 11
162.88
 21
119.703
 31
0.0
  0
LINE
  5
F9
  8
_________1
 62
     7
 10
163.815
 20
120.036
 30
0.0
 11
164.71299999999999
 21
120.036
 31
0.0
  0
LINE
  5
FA
  8
_________1
 62
     7
 10
133.047
 20
120.536
 30
0.0
 11
133.714
 21
120.536
 31
0.0
  0
LINE
  5
FB
  8
_________1
 62
     7
 10
133.547
 20
120.036
 30
0.0
 11
133.714
 21
120.036
 31
0.0
  0
LINE
  5
FC
  8
_________1
 62
     7
 10
133.047
 20
120.036
 30
0.0
 11
133.547
 21
120.036
 31
0.0
  0
LINE
  5
FD
  8
_________1
 62
     7
 10
133.047
 20
120.036
 30
0.0
 11
133.047
 21
120.536
 31
0.0
  0
LINE
  5
FE
  8
_________1
 62
     7
 10
133.714
 20
120.536
 30
0.0
 11
134.88
 21
120.536
 31
0.0
  0
LINE
  5
FF
  8
_________1
 62
     7
 10
133.714
 20
120.036
 30
0.0
 11
133.88
 21
120.036
 31
0.0
  0
LINE
  5
100
  8
_________1
 62
     7
 10
134.77799999999999
 20
120.036
 30
0.0
 11
134.88
 21
120.036
 31
0.0
  0
LINE
  5
101
  8
_________1
 62
     7
 10
133.88
 20
120.036
 30
0.0
 11
134.77799999999999
 21
120.036
 31
0.0
  0
LINE
  5
102
  8
_________1
 62
     7
 10
135.714
 20
119.703
 30
0.0
 11
135.714
 21
91.036500000000004
 31
0.0
  0
LINE
  5
103
  8
_________1
 62
     7
 10
162.547
 20
90.702999999999989
 30
0.0
 11
136.047
 21
90.702999999999989
 31
0.0
  0
LINE
  5
104
  8
_________1
 62
     7
 10
163.38
 20
111.866
 30
0.0
 11
163.38
 21
112.2
 31
0.0
  0
LINE
  5
105
  8
_________1
 62
     7
 10
163.38
 20
91.036500000000004
 30
0.0
 11
163.38
 21
111.866
 31
0.0
  0
LINE
  5
106
  8
_________1
 62
     7
 10
163.38
 20
119.601
 30
0.0
 11
163.38
 21
119.60299999999999
 31
0.0
  0
LINE
  5
107
  8
_________1
 62
     7
 10
163.38
 20
119.60299999999999
 30
0.0
 11
163.38
 21
119.703
 31
0.0
  0
LINE
  5
108
  8
_________1
 62
     7
 10
163.38
 20
112.2
 30
0.0
 11
163.38
 21
119.601
 31
0.0
  0
LINE
  5
109
  8
_________1
 62
     7
 10
135.21299999999999
 20
112.2
 30
0.0
 11
135.21299999999999
 21
111.866
 31
0.0
  0
LINE
  5
10A
  8
_________1
 62
     7
 10
135.21299999999999
 20
111.866
 30
0.0
 11
135.21299999999999
 21
91.036500000000004
 31
0.0
  0
LINE
  5
10B
  8
_________1
 62
     7
 10
135.21299999999999
 20
119.60299999999999
 30
0.0
 11
135.21299999999999
 21
119.601
 31
0.0
  0
LINE
  5
10C
  8
_________1
 62
     7
 10
135.21299999999999
 20
119.703
 30
0.0
 11
135.21299999999999
 21
119.60299999999999
 31
0.0
  0
LINE
  5
10D
  8
_________1
 62
     7
 10
135.21299999999999
 20
119.601
 30
0.0
 11
135.21299999999999
 21
112.2
 31
0.0
  0
LINE
  5
10E
  8
_________1
 62
     7
 10
162.547
 20
90.203199999999995
 30
0.0
 11
136.047
 21
90.203199999999995
 31
0.0
  0
ARC
  5
10F
  8
_________1
 62
     7
 10
134.94566
 20
119.768529
 30
0.0
 40
0.034748
 50
2.1725880000000002
 51
88.415045999999975
  0
LINE
  5
110
  8
_________1
 62
     7
 10
133.88
 20
119.803
 30
0.0
 11
133.547
 21
119.803
 31
0.0
  0
LINE
  5
111
  8
_________1
 62
     7
 10
133.547
 20
120.036
 30
0.0
 11
133.547
 21
119.803
 31
0.0
  0
LINE
  5
112
  8
_________1
 62
     7
 10
133.547
 20
120.036
 30
0.0
 11
133.714
 21
120.036
 31
0.0
  0
LINE
  5
113
  8
_________1
 62
     7
 10
134.97999999999999
 20
111.866
 30
0.0
 11
135.21299999999999
 21
111.866
 31
0.0
  0
LINE
  5
114
  8
_________1
 62
     7
 10
133.88
 20
119.803
 30
0.0
 11
134.947
 21
119.803
 31
0.0
  0
LINE
  5
115
  8
_________1
 62
     7
 10
134.97999999999999
 20
112.2
 30
0.0
 11
134.97999999999999
 21
119.60299999999999
 31
0.0
  0
LINE
  5
116
  8
_________1
 62
     7
 10
134.97999999999999
 20
119.60299999999999
 30
0.0
 11
134.97999999999999
 21
119.77
 31
0.0
  0
LINE
  5
117
  8
_________1
 62
     7
 10
134.97999999999999
 20
112.2
 30
0.0
 11
134.97999999999999
 21
111.866
 31
0.0
  0
LINE
  5
118
  8
_________1
 62
     7
 10
135.20699999999999
 20
119.77
 30
0.0
 11
134.97999999999999
 21
119.77
 31
0.0
  0
LINE
  5
119
  8
_________1
 62
     7
 10
133.714
 20
120.036
 30
0.0
 11
133.88
 21
120.036
 31
0.0
  0
LINE
  5
11A
  8
_________1
 62
     7
 10
134.77799999999999
 20
120.036
 30
0.0
 11
134.88
 21
120.036
 31
0.0
  0
LINE
  5
11B
  8
_________1
 62
     7
 10
133.88
 20
120.036
 30
0.0
 11
134.77799999999999
 21
120.036
 31
0.0
  0
LINE
  5
11C
  8
_________1
 62
     7
 10
135.21299999999999
 20
112.2
 30
0.0
 11
135.21299999999999
 21
111.866
 31
0.0
  0
LINE
  5
11D
  8
_________1
 62
     7
 10
135.21299999999999
 20
119.60299999999999
 30
0.0
 11
135.21299999999999
 21
119.601
 31
0.0
  0
LINE
  5
11E
  8
_________1
 62
     7
 10
135.21299999999999
 20
119.703
 30
0.0
 11
135.21299999999999
 21
119.60299999999999
 31
0.0
  0
LINE
  5
11F
  8
_________1
 62
     7
 10
135.21299999999999
 20
119.601
 30
0.0
 11
135.21299999999999
 21
112.2
 31
0.0
  0
ARC
  5
120
  8
_________1
 62
     7
 10
102.773391
 20
119.663436
 30
0.0
 40
0.173024
 50
2.039528999999999
 51
87.841959000000003
  0
ARC
  5
121
  8
_________1
 62
     7
 10
102.600005
 20
112.27918
 30
0.0
 40
0.346537
 50
272.17597699999999
 51
357.88325400000002
  0
ARC
  5
122
  8
_________1
 62
     7
 10
39.959569999999999
 20
112.279127
 30
0.0
 40
0.346468
 50
182.10831099999999
 51
267.89171899999991
  0
ARC
  5
123
  8
_________1
 62
     7
 10
39.786262000000001
 20
119.663411
 30
0.0
 40
0.173036
 50
92.047434999999993
 51
177.95253500000001
  0
LINE
  5
124
  8
_________1
 62
     7
 10
50.280099999999997
 20
119.66800000000001
 30
0.0
 11
92.279899999999998
 21
119.66800000000001
 31
0.0
  0
LINE
  5
125
  8
_________1
 62
     7
 10
50.280099999999997
 20
119.66800000000001
 30
0.0
 11
50.280099999999997
 21
119.836
 31
0.0
  0
LINE
  5
126
  8
_________1
 62
     7
 10
50.280099999999997
 20
119.869
 30
0.0
 11
50.280099999999997
 21
119.836
 31
0.0
  0
LINE
  5
127
  8
_________1
 62
     7
 10
40.280000000000001
 20
119.869
 30
0.0
 11
40.280000000000001
 21
120.10299999999999
 31
0.0
  0
LINE
  5
128
  8
_________1
 62
     7
 10
40.280000000000001
 20
119.836
 30
0.0
 11
40.280000000000001
 21
119.869
 31
0.0
  0
LINE
  5
129
  8
_________1
 62
     7
 10
40.280000000000001
 20
119.836
 30
0.0
 11
39.780099999999997
 21
119.836
 31
0.0
  0
LINE
  5
12A
  8
_________1
 62
     7
 10
102.78
 20
119.836
 30
0.0
 11
102.28
 21
119.836
 31
0.0
  0
LINE
  5
12B
  8
_________1
 62
     7
 10
40.280000000000001
 20
120.10299999999999
 30
0.0
 11
40.613500000000002
 21
120.10299999999999
 31
0.0
  0
LINE
  5
12C
  8
_________1
 62
     7
 10
50.280099999999997
 20
120.10299999999999
 30
0.0
 11
92.279899999999998
 21
120.10299999999999
 31
0.0
  0
LINE
  5
12D
  8
_________1
 62
     7
 10
50.280099999999997
 20
119.869
 30
0.0
 11
92.279899999999998
 21
119.869
 31
0.0
  0
LINE
  5
12E
  8
_________1
 62
     7
 10
40.613500000000002
 20
120.10299999999999
 30
0.0
 11
50.280099999999997
 21
120.10299999999999
 31
0.0
  0
LINE
  5
12F
  8
_________1
 62
     7
 10
102.613
 20
111.93300000000001
 30
0.0
 11
39.94680000000001
 21
111.93300000000001
 31
0.0
  0
LINE
  5
130
  8
_________1
 62
     7
 10
102.946
 20
112.26600000000001
 30
0.0
 11
102.946
 21
119.67
 31
0.0
  0
LINE
  5
131
  8
_________1
 62
     7
 10
39.613300000000002
 20
112.26600000000001
 30
0.0
 11
39.613300000000002
 21
119.67
 31
0.0
  0
LINE
  5
132
  8
_________1
 62
     7
 10
102.28
 20
120.10299999999999
 30
0.0
 11
102.28
 21
119.869
 31
0.0
  0
LINE
  5
133
  8
_________1
 62
     7
 10
101.947
 20
120.10299999999999
 30
0.0
 11
102.28
 21
120.10299999999999
 31
0.0
  0
LINE
  5
134
  8
_________1
 62
     7
 10
92.279899999999998
 20
120.10299999999999
 30
0.0
 11
101.947
 21
120.10299999999999
 31
0.0
  0
LINE
  5
135
  8
_________1
 62
     7
 10
92.279899999999998
 20
119.869
 30
0.0
 11
92.279899999999998
 21
119.836
 31
0.0
  0
LINE
  5
136
  8
_________1
 62
     7
 10
102.28
 20
119.836
 30
0.0
 11
102.28
 21
119.869
 31
0.0
  0
LINE
  5
137
  8
_________1
 62
     7
 10
92.279899999999998
 20
119.836
 30
0.0
 11
92.279899999999998
 21
119.66800000000001
 31
0.0
  0
ARC
  5
138
  8
_________1
 62
     7
 10
102.773391
 20
119.663436
 30
0.0
 40
0.173024
 50
2.039528999999999
 51
87.841959000000003
  0
ARC
  5
139
  8
_________1
 62
     7
 10
102.600005
 20
112.27918
 30
0.0
 40
0.346537
 50
272.17597699999999
 51
357.88325400000002
  0
ARC
  5
13A
  8
_________1
 62
     7
 10
39.959569999999999
 20
112.279127
 30
0.0
 40
0.346468
 50
182.10831099999999
 51
267.89171899999991
  0
ARC
  5
13B
  8
_________1
 62
     7
 10
39.786262000000001
 20
119.663411
 30
0.0
 40
0.173036
 50
92.047434999999993
 51
177.95253500000001
  0
LINE
  5
13C
  8
_________1
 62
     7
 10
50.280099999999997
 20
119.66800000000001
 30
0.0
 11
92.279899999999998
 21
119.66800000000001
 31
0.0
  0
LINE
  5
13D
  8
_________1
 62
     7
 10
50.280099999999997
 20
119.66800000000001
 30
0.0
 11
50.280099999999997
 21
119.836
 31
0.0
  0
LINE
  5
13E
  8
_________1
 62
     7
 10
50.280099999999997
 20
119.869
 30
0.0
 11
50.280099999999997
 21
119.836
 31
0.0
  0
LINE
  5
13F
  8
_________1
 62
     7
 10
40.280000000000001
 20
119.869
 30
0.0
 11
40.280000000000001
 21
120.10299999999999
 31
0.0
  0
LINE
  5
140
  8
_________1
 62
     7
 10
40.280000000000001
 20
119.836
 30
0.0
 11
40.280000000000001
 21
119.869
 31
0.0
  0
LINE
  5
141
  8
_________1
 62
     7
 10
40.280000000000001
 20
119.869
 30
0.0
 11
40.613500000000002
 21
119.869
 31
0.0
  0
LINE
  5
142
  8
_________1
 62
     7
 10
92.279899999999998
 20
119.869
 30
0.0
 11
101.947
 21
119.869
 31
0.0
  0
LINE
  5
143
  8
_________1
 62
     7
 10
40.280000000000001
 20
119.836
 30
0.0
 11
39.780099999999997
 21
119.836
 31
0.0
  0
LINE
  5
144
  8
_________1
 62
     7
 10
102.78
 20
119.836
 30
0.0
 11
102.28
 21
119.836
 31
0.0
  0
LINE
  5
145
  8
_________1
 62
     7
 10
40.613500000000002
 20
119.869
 30
0.0
 11
50.280099999999997
 21
119.869
 31
0.0
  0
LINE
  5
146
  8
_________1
 62
     7
 10
40.280000000000001
 20
120.10299999999999
 30
0.0
 11
40.613500000000002
 21
120.10299999999999
 31
0.0
  0
LINE
  5
147
  8
_________1
 62
     7
 10
50.280099999999997
 20
120.10299999999999
 30
0.0
 11
92.279899999999998
 21
120.10299999999999
 31
0.0
  0
LINE
  5
148
  8
_________1
 62
     7
 10
50.280099999999997
 20
119.869
 30
0.0
 11
92.279899999999998
 21
119.869
 31
0.0
  0
LINE
  5
149
  8
_________1
 62
     7
 10
40.613500000000002
 20
120.10299999999999
 30
0.0
 11
50.280099999999997
 21
120.10299999999999
 31
0.0
  0
LINE
  5
14A
  8
_________1
 62
     7
 10
102.613
 20
111.93300000000001
 30
0.0
 11
39.94680000000001
 21
111.93300000000001
 31
0.0
  0
LINE
  5
14B
  8
_________1
 62
     7
 10
102.946
 20
112.26600000000001
 30
0.0
 11
102.946
 21
119.67
 31
0.0
  0
LINE
  5
14C
  8
_________1
 62
     7
 10
39.613300000000002
 20
112.26600000000001
 30
0.0
 11
39.613300000000002
 21
119.67
 31
0.0
  0
LINE
  5
14D
  8
_________1
 62
     7
 10
102.28
 20
120.10299999999999
 30
0.0
 11
102.28
 21
119.869
 31
0.0
  0
LINE
  5
14E
  8
_________1
 62
     7
 10
101.947
 20
120.10299999999999
 30
0.0
 11
102.28
 21
120.10299999999999
 31
0.0
  0
LINE
  5
14F
  8
_________1
 62
     7
 10
92.279899999999998
 20
120.10299999999999
 30
0.0
 11
101.947
 21
120.10299999999999
 31
0.0
  0
LINE
  5
150
  8
_________1
 62
     7
 10
92.279899999999998
 20
119.869
 30
0.0
 11
92.279899999999998
 21
119.836
 31
0.0
  0
LINE
  5
151
  8
_________1
 62
     7
 10
102.28
 20
119.836
 30
0.0
 11
102.28
 21
119.869
 31
0.0
  0
LINE
  5
152
  8
_________1
 62
     7
 10
102.28
 20
119.869
 30
0.0
 11
101.947
 21
119.869
 31
0.0
  0
LINE
  5
153
  8
_________1
 62
     7
 10
92.279899999999998
 20
119.836
 30
0.0
 11
92.279899999999998
 21
119.66800000000001
 31
0.0
  0
ARC
  5
154
  8
_________1
 62
     7
 10
48.138956999999991
 20
106.910599
 30
0.0
 40
0.6929390000000001
 50
92.107508999999993
 51
177.86285899999999
  0
ARC
  5
155
  8
_________1
 62
     7
 10
83.254356000000001
 20
106.910943
 30
0.0
 40
0.692596
 50
2.109726999999999
 51
87.890263000000004
  0
ARC
  5
156
  8
_________1
 62
     7
 10
49.754381000000002
 20
106.910943
 30
0.0
 40
0.692596
 50
2.109726999999999
 51
87.890263000000004
  0
ARC
  5
157
  8
_________1
 62
     7
 10
70.472263999999996
 20
106.91060899999999
 30
0.0
 40
0.692929
 50
92.106716000000006
 51
177.863651
  0
ARC
  5
158
  8
_________1
 62
     7
 10
59.305294000000004
 20
106.911292
 30
0.0
 40
0.6922480000000001
 50
92.111513000000002
 51
177.91807499999999
  0
ARC
  5
159
  8
_________1
 62
     7
 10
72.087698000000003
 20
106.910943
 30
0.0
 40
0.692596
 50
2.109726999999999
 51
87.890263000000004
  0
ARC
  5
15A
  8
_________1
 62
     7
 10
60.921039
 20
106.910943
 30
0.0
 40
0.692596
 50
2.109726999999999
 51
87.890263000000004
  0
ARC
  5
15B
  8
_________1
 62
     7
 10
94.421014999999997
 20
106.910943
 30
0.0
 40
0.692596
 50
2.109726999999999
 51
87.890263000000004
  0
ARC
  5
15C
  8
_________1
 62
     7
 10
92.805250999999998
 20
106.91095300000001
 30
0.0
 40
0.692586
 50
92.108906000000005
 51
177.891064
  0
ARC
  5
15D
  8
_________1
 62
     7
 10
81.638602000000006
 20
106.910943
 30
0.0
 40
0.692596
 50
92.109700000000004
 51
177.89027100000001
  0
LINE
  5
15E
  8
_________1
 62
     7
 10
103.28
 20
119.77
 30
0.0
 11
103.28
 21
120.10299999999999
 31
0.0
  0
LINE
  5
15F
  8
_________1
 62
     7
 10
39.94680000000001
 20
120.10299999999999
 30
0.0
 11
39.280200000000001
 21
120.10299999999999
 31
0.0
  0
LINE
  5
160
  8
_________1
 62
     7
 10
102.28
 20
120.10299999999999
 30
0.0
 11
102.613
 21
120.10299999999999
 31
0.0
  0
LINE
  5
161
  8
_________1
 62
     7
 10
39.94680000000001
 20
120.10299999999999
 30
0.0
 11
40.280000000000001
 21
120.10299999999999
 31
0.0
  0
LINE
  5
162
  8
_________1
 62
     7
 10
40.280000000000001
 20
120.10299999999999
 30
0.0
 11
40.613500000000002
 21
120.10299999999999
 31
0.0
  0
LINE
  5
163
  8
_________1
 62
     7
 10
102.613
 20
120.10299999999999
 30
0.0
 11
103.28
 21
120.10299999999999
 31
0.0
  0
LINE
  5
164
  8
_________1
 62
     7
 10
50.280099999999997
 20
120.10299999999999
 30
0.0
 11
92.279899999999998
 21
120.10299999999999
 31
0.0
  0
LINE
  5
165
  8
_________1
 62
     7
 10
40.613500000000002
 20
120.10299999999999
 30
0.0
 11
50.280099999999997
 21
120.10299999999999
 31
0.0
  0
LINE
  5
166
  8
_________1
 62
     7
 10
83.279899999999984
 20
107.60299999999999
 30
0.0
 11
81.613100000000003
 21
107.60299999999999
 31
0.0
  0
LINE
  5
167
  8
_________1
 62
     7
 10
70.446799999999996
 20
107.60299999999999
 30
0.0
 11
72.113200000000006
 21
107.60299999999999
 31
0.0
  0
LINE
  5
168
  8
_________1
 62
     7
 10
48.113500000000002
 20
107.60299999999999
 30
0.0
 11
49.779899999999998
 21
107.60299999999999
 31
0.0
  0
LINE
  5
169
  8
_________1
 62
     7
 10
59.279800000000002
 20
107.60299999999999
 30
0.0
 11
60.9465
 21
107.60299999999999
 31
0.0
  0
LINE
  5
16A
  8
_________1
 62
     7
 10
92.113100000000003
 20
91.102999999999994
 30
0.0
 11
92.113100000000003
 21
90.2697
 31
0.0
  0
LINE
  5
16B
  8
_________1
 62
     7
 10
95.113099999999989
 20
91.102999999999994
 30
0.0
 11
95.113099999999989
 21
90.2697
 31
0.0
  0
LINE
  5
16C
  8
_________1
 62
     7
 10
103.28
 20
91.102999999999994
 30
0.0
 11
103.28
 21
90.2697
 31
0.0
  0
LINE
  5
16D
  8
_________1
 62
     7
 10
83.9465
 20
90.2697
 30
0.0
 11
92.113100000000003
 21
90.2697
 31
0.0
  0
LINE
  5
16E
  8
_________1
 62
     7
 10
95.113099999999989
 20
90.2697
 30
0.0
 11
103.28
 21
90.2697
 31
0.0
  0
LINE
  5
16F
  8
_________1
 62
     7
 10
72.779799999999994
 20
91.102999999999994
 30
0.0
 11
72.779799999999994
 21
90.2697
 31
0.0
  0
LINE
  5
170
  8
_________1
 62
     7
 10
80.946499999999986
 20
91.102999999999994
 30
0.0
 11
80.946499999999986
 21
90.2697
 31
0.0
  0
LINE
  5
171
  8
_________1
 62
     7
 10
83.9465
 20
91.102999999999994
 30
0.0
 11
83.9465
 21
90.2697
 31
0.0
  0
LINE
  5
172
  8
_________1
 62
     7
 10
47.4465
 20
90.2697
 30
0.0
 11
39.280200000000001
 21
90.2697
 31
0.0
  0
LINE
  5
173
  8
_________1
 62
     7
 10
50.4465
 20
90.2697
 30
0.0
 11
50.4465
 21
91.102999999999994
 31
0.0
  0
LINE
  5
174
  8
_________1
 62
     7
 10
58.613500000000002
 20
90.2697
 30
0.0
 11
58.613500000000002
 21
91.102999999999994
 31
0.0
  0
LINE
  5
175
  8
_________1
 62
     7
 10
58.613500000000002
 20
90.2697
 30
0.0
 11
50.4465
 21
90.2697
 31
0.0
  0
LINE
  5
176
  8
_________1
 62
     7
 10
47.4465
 20
90.2697
 30
0.0
 11
47.4465
 21
91.102999999999994
 31
0.0
  0
LINE
  5
177
  8
_________1
 62
     7
 10
61.613199999999992
 20
90.2697
 30
0.0
 11
61.613199999999992
 21
91.102999999999994
 31
0.0
  0
LINE
  5
178
  8
_________1
 62
     7
 10
69.779799999999994
 20
90.2697
 30
0.0
 11
69.779799999999994
 21
91.102999999999994
 31
0.0
  0
LINE
  5
179
  8
_________1
 62
     7
 10
39.280200000000001
 20
91.102999999999994
 30
0.0
 11
39.280200000000001
 21
90.2697
 31
0.0
  0
LINE
  5
17A
  8
_________1
 62
     7
 10
69.779799999999994
 20
90.2697
 30
0.0
 11
61.613199999999992
 21
90.2697
 31
0.0
  0
LINE
  5
17B
  8
_________1
 62
     7
 10
72.779799999999994
 20
90.2697
 30
0.0
 11
80.946499999999986
 21
90.2697
 31
0.0
  0
LINE
  5
17C
  8
_________1
 62
     7
 10
103.28
 20
120.10299999999999
 30
0.0
 11
103.28
 21
120.60299999999999
 31
0.0
  0
LINE
  5
17D
  8
_________1
 62
     7
 10
103.28
 20
91.102999999999994
 30
0.0
 11
103.28
 21
119.77
 31
0.0
  0
LINE
  5
17E
  8
_________1
 62
     7
 10
83.9465
 20
91.102999999999994
 30
0.0
 11
83.9465
 21
106.93600000000001
 31
0.0
  0
LINE
  5
17F
  8
_________1
 62
     7
 10
50.4465
 20
91.102999999999994
 30
0.0
 11
50.4465
 21
106.93600000000001
 31
0.0
  0
LINE
  5
180
  8
_________1
 62
     7
 10
58.613500000000002
 20
91.102999999999994
 30
0.0
 11
58.613500000000002
 21
106.93600000000001
 31
0.0
  0
LINE
  5
181
  8
_________1
 62
     7
 10
69.779799999999994
 20
106.93600000000001
 30
0.0
 11
69.779799999999994
 21
91.102999999999994
 31
0.0
  0
LINE
  5
182
  8
_________1
 62
     7
 10
61.613199999999992
 20
91.102999999999994
 30
0.0
 11
61.613199999999992
 21
106.93600000000001
 31
0.0
  0
LINE
  5
183
  8
_________1
 62
     7
 10
72.779799999999994
 20
106.93600000000001
 30
0.0
 11
72.779799999999994
 21
91.102999999999994
 31
0.0
  0
LINE
  5
184
  8
_________1
 62
     7
 10
80.946499999999986
 20
91.102999999999994
 30
0.0
 11
80.946499999999986
 21
106.93600000000001
 31
0.0
  0
LINE
  5
185
  8
_________1
 62
     7
 10
102.613
 20
120.60299999999999
 30
0.0
 11
103.28
 21
120.60299999999999
 31
0.0
  0
LINE
  5
186
  8
_________1
 62
     7
 10
39.94680000000001
 20
120.60299999999999
 30
0.0
 11
102.613
 21
120.60299999999999
 31
0.0
  0
LINE
  5
187
  8
_________1
 62
     7
 10
47.4465
 20
91.102999999999994
 30
0.0
 11
47.4465
 21
106.93600000000001
 31
0.0
  0
LINE
  5
188
  8
_________1
 62
     7
 10
39.280200000000001
 20
119.77
 30
0.0
 11
39.280200000000001
 21
120.10299999999999
 31
0.0
  0
LINE
  5
189
  8
_________1
 62
     7
 10
39.280200000000001
 20
119.77
 30
0.0
 11
39.280200000000001
 21
91.102999999999994
 31
0.0
  0
LINE
  5
18A
  8
_________1
 62
     7
 10
39.280200000000001
 20
120.60299999999999
 30
0.0
 11
39.280200000000001
 21
120.10299999999999
 31
0.0
  0
LINE
  5
18B
  8
_________1
 62
     7
 10
39.94680000000001
 20
120.60299999999999
 30
0.0
 11
39.280200000000001
 21
120.60299999999999
 31
0.0
  0
LINE
  5
18C
  8
_________1
 62
     7
 10
101.947
 20
120.10299999999999
 30
0.0
 11
102.28
 21
120.10299999999999
 31
0.0
  0
LINE
  5
18D
  8
_________1
 62
     7
 10
92.279899999999998
 20
120.10299999999999
 30
0.0
 11
101.947
 21
120.10299999999999
 31
0.0
  0
LINE
  5
18E
  8
_________1
 62
     7
 10
95.113099999999989
 20
91.102999999999994
 30
0.0
 11
95.113099999999989
 21
106.93600000000001
 31
0.0
  0
LINE
  5
18F
  8
_________1
 62
     7
 10
94.446500000000015
 20
107.60299999999999
 30
0.0
 11
92.779799999999994
 21
107.60299999999999
 31
0.0
  0
LINE
  5
190
  8
_________1
 62
     7
 10
92.113100000000003
 20
91.102999999999994
 30
0.0
 11
92.113100000000003
 21
106.93600000000001
 31
0.0
  0
TEXT
  5
191
  8
_________2
 62
     7
 10
20.856200000000001
 20
39.373600000000003
 30
0.0
 40
4.2168199999999993
  1
※浴室設置禁止
 41
0.5
  0
LINE
  5
192
  8
_________2
 62
     7
 10
205.30099999999999
 20
127.411
 30
0.0
 11
183.55000000000001
 21
127.411
 31
0.0
  0
LINE
  5
193
  8
_________2
 62
     7
 10
100.3
 20
-4.0910799999999998
 30
0.0
 11
100.3
 21
-21.071400000000001
 31
0.0
  0
LINE
  5
194
  8
_________2
 62
     7
 10
100.3
 20
275.93099999999998
 30
0.0
 11
100.3
 21
258.911
 31
0.0
  0
LINE
  5
195
  8
_________2
 62
     7
 10
17.049499999999998
 20
127.411
 30
0.0
 11
-4.70052
 21
127.411
 31
0.0
  0
INSERT
  5
196
  8
_________2
 62
     7
  2
AIGNBL03010002
 10
0.0
 20
0.0
 30
0.0
  0
TEXT
  5
197
  8
_________2
 62
     7
 10
104.605
 20
1.6794899999999999
 30
0.0
 40
3.0923400000000001
  1
図番
 41
0.5
  0
LINE
  5
198
  8
_________2
 62
     7
 10
103.55
 20
5.9087199999999989
 30
0.0
 11
183.55099999999999
 21
5.9087199999999989
 31
0.0
  0
TEXT
  5
199
  8
_________2
 62
     7
 10
104.605
 20
11.6793
 30
0.0
 40
3.0923400000000001
  1
品番
 41
0.5
  0
TEXT
  5
19A
  8
_________2
 62
     7
 10
104.605
 20
31.818100000000001
 30
0.0
 40
3.0923400000000001
  1
名称
 41
0.5
  0
TEXT
  5
19B
  8
_________2
 62
     7
 10
91.845058333333341
 20
26.821999999999999
 30
0.0
 40
3.6545800000000002
  1
mm
 41
0.5
 72
     1
 11
93.367800000000003
 21
26.821999999999999
 31
0.0
  0
TEXT
  5
19C
  8
_________2
 62
     7
 10
85.643199999999993
 20
31.818100000000001
 30
0.0
 40
3.0923400000000001
  1
単位
 41
0.5
  0
TEXT
  5
19D
  8
_________2
 62
     7
 10
85.643199999999993
 20
19.410799999999998
 30
0.0
 40
3.0923400000000001
  1
尺度
 41
0.5
  0
TEXT
  5
19E
  8
_________2
 62
     7
 10
90.548758666666686
 20
13.2179
 30
0.0
 40
3.6545800000000002
  1
1 ： 3
 41
0.5
 72
     1
 11
93.959699999999998
 21
13.2179
 31
0.0
  0
TEXT
  5
19F
  8
_________2
 62
     7
 10
137.64644999999999
 20
9.1078600000000005
 30
0.0
 40
3.9357000000000002
  1
EC18451
 41
0.5
 72
     1
 11
143.55000000000001
 21
9.1078600000000005
 31
0.0
  0
TEXT
  5
1A0
  8
_________2
 62
     7
 10
137.64644999999999
 20
-0.8926299999999999
 30
0.0
 40
3.9357000000000002
  1
EC18451
 41
0.5
 72
     1
 11
143.55000000000001
 21
-0.8926299999999999
 31
0.0
  0
TEXT
  5
1A1
  8
_________2
 62
     7
 10
109.179
 20
24.2257
 30
0.0
 40
3.9357000000000002
  1
リエゾン　ラージトレイ
 41
0.5
  0
TEXT
  5
1A2
  8
_________2
 62
     7
 10
39.364390666666672
 20
13.603
 30
0.0
 40
3.6545800000000002
  1
井伊
 41
0.5
 72
     1
 11
41.313499999999998
 21
13.603
 31
0.0
  0
TEXT
  5
1A3
  8
_________2
 62
     7
 10
20.790090666666661
 20
13.603
 30
0.0
 40
3.6545800000000002
  1
近藤
 41
0.5
 72
     1
 11
22.7392
 21
13.603
 31
0.0
  0
TEXT
  5
1A4
  8
_________2
 62
     7
 10
67.785399999999996
 20
13.2179
 30
0.0
 40
3.6545800000000002
  1
19.12.04
 41
0.5
  0
TEXT
  5
1A5
  8
_________2
 62
     7
 10
66.593100000000007
 20
19.410799999999998
 30
0.0
 40
3.0923400000000001
  1
日付
 41
0.5
  0
TEXT
  5
1A6
  8
_________2
 62
     7
 10
29.639399999999998
 20
19.410799999999998
 30
0.0
 40
3.0923400000000001
  1
検図
 41
0.5
  0
TEXT
  5
1A7
  8
_________2
 62
     7
 10
18.021100000000001
 20
5.21143
 30
0.0
 40
3.0923400000000001
  1
備考
 41
0.5
  0
TEXT
  5
1A8
  8
_________2
 62
     7
 10
18.021100000000001
 20
19.410799999999998
 30
0.0
 40
3.0923400000000001
  1
製図
 41
0.5
  0
TEXT
  5
1A9
  8
_________2
 62
     7
 10
23.788465333333338
 20
27.936800000000002
 30
0.0
 40
4.4979399999999989
  1
セラトレーディング株式会社
 41
0.5
 72
     1
 11
41.180500000000002
 21
27.936800000000002
 31
0.0
  0
LINE
  5
1AA
  8
_________2
 62
     7
 10
183.55099999999999
 20
-4.0910799999999998
 30
0.0
 11
17.049499999999998
 21
-4.0910799999999998
 31
0.0
  0
LINE
  5
1AB
  8
_________2
 62
     7
 10
17.049499999999998
 20
-4.0910799999999998
 30
0.0
 11
17.049499999999998
 21
258.911
 31
0.0
  0
LINE
  5
1AC
  8
_________2
 62
     7
 10
17.049499999999998
 20
258.911
 30
0.0
 11
183.55099999999999
 21
258.911
 31
0.0
  0
LINE
  5
1AD
  8
_________2
 62
     7
 10
183.55099999999999
 20
258.911
 30
0.0
 11
183.55099999999999
 21
-4.0910799999999998
 31
0.0
  0
LINE
  5
1AE
  8
_________2
 62
     7
 10
65.549599999999998
 20
9.4089600000000004
 30
0.0
 11
65.549599999999998
 21
35.908799999999999
 31
0.0
  0
LINE
  5
1AF
  8
_________2
 62
     7
 10
84.549700000000016
 20
9.4089600000000004
 30
0.0
 11
84.549700000000016
 21
35.908799999999999
 31
0.0
  0
LINE
  5
1B0
  8
_________2
 62
     7
 10
103.55
 20
-4.0910799999999998
 30
0.0
 11
103.55
 21
35.908799999999999
 31
0.0
  0
LINE
  5
1B1
  8
_________2
 62
     7
 10
28.549299999999999
 20
9.4089600000000004
 30
0.0
 11
28.549299999999999
 21
23.409199999999998
 31
0.0
  0
LINE
  5
1B2
  8
_________2
 62
     7
 10
17.049499999999998
 20
9.4089600000000004
 30
0.0
 11
103.55
 21
9.4089600000000004
 31
0.0
  0
LINE
  5
1B3
  8
_________2
 62
     7
 10
17.049499999999998
 20
23.409199999999998
 30
0.0
 11
103.55
 21
23.409199999999998
 31
0.0
  0
LINE
  5
1B4
  8
_________2
 62
     7
 10
103.55
 20
15.9085
 30
0.0
 11
183.55099999999999
 21
15.9085
 31
0.0
  0
LINE
  5
1B5
  8
_________2
 62
     7
 10
17.049499999999998
 20
35.908799999999999
 30
0.0
 11
183.55099999999999
 21
35.908799999999999
 31
0.0
  0
ENDSEC
  0
EOF
