  0
SECTION
  2
HEADER
  9
$ACADVER
  1
AC1009
  9
$INSBASE
 10
0.0
 20
0.0
 30
0.0
  9
$EXTMIN
 10
-4.70052
 20
-21.071400000000001
 30
0.0
  9
$EXTMAX
 10
205.30099999999999
 20
275.93099999999998
 30
0.0
  9
$LIMMIN
 10
0.0
 20
0.0
  9
$LIMMAX
 10
12.0
 20
9.0
  9
$ORTHOMODE
 70
     0
  9
$REGENMODE
 70
     1
  9
$FILLMODE
 70
     1
  9
$QTEXTMODE
 70
     0
  9
$MIRRTEXT
 70
     1
  9
$DRAGMODE
 70
     2
  9
$LTSCALE
 40
1.0
  9
$OSMODE
 70
    37
  9
$ATTMODE
 70
     1
  9
$TEXTSIZE
 40
0.0
  9
$TRACEWID
 40
0.05
  9
$TEXTSTYLE
  7
STANDARD
  9
$CLAYER
  8
0
  9
$CELTYPE
  6
CONTINUOUS
  9
$CECOLOR
 62
   256
  9
$DIMSCALE
 40
1.0
  9
$DIMASZ
 40
0.18
  9
$DIMEXO
 40
0.0625
  9
$DIMDLI
 40
0.38
  9
$DIMRND
 40
0.0
  9
$DIMDLE
 40
0.0
  9
$DIMEXE
 40
0.18
  9
$DIMTP
 40
0.0
  9
$DIMTM
 40
0.0
  9
$DIMTXT
 40
0.18
  9
$DIMCEN
 40
0.09
  9
$DIMTSZ
 40
0.0
  9
$DIMTOL
 70
     0
  9
$DIMLIM
 70
     0
  9
$DIMTIH
 70
     1
  9
$DIMTOH
 70
     1
  9
$DIMSE1
 70
     0
  9
$DIMSE2
 70
     0
  9
$DIMTAD
 70
     0
  9
$DIMZIN
 70
     0
  9
$DIMBLK
  1

  9
$DIMASO
 70
     1
  9
$DIMSHO
 70
     1
  9
$DIMPOST
  1

  9
$DIMAPOST
  1

  9
$DIMALT
 70
     0
  9
$DIMALTD
 70
     2
  9
$DIMALTF
 40
25.399999999999999
  9
$DIMLFAC
 40
1.0
  9
$DIMTOFL
 70
     0
  9
$DIMTVP
 40
0.0
  9
$DIMTIX
 70
     0
  9
$DIMSOXD
 70
     0
  9
$DIMSAH
 70
     0
  9
$DIMBLK1
  1

  9
$DIMBLK2
  1

  9
$DIMSTYLE
  2
STANDARD
  9
$DIMCLRD
 70
     0
  9
$DIMCLRE
 70
     0
  9
$DIMCLRT
 70
     0
  9
$DIMTFAC
 40
1.0
  9
$DIMGAP
 40
0.09
  9
$LUNITS
 70
     2
  9
$LUPREC
 70
     4
  9
$SKETCHINC
 40
0.1
  9
$FILLETRAD
 40
0.0
  9
$AUNITS
 70
     0
  9
$AUPREC
 70
     0
  9
$MENU
  1
.
  9
$ELEVATION
 40
0.0
  9
$PELEVATION
 40
0.0
  9
$THICKNESS
 40
0.0
  9
$LIMCHECK
 70
     0
  9
$BLIPMODE
 70
     0
  9
$CHAMFERA
 40
0.0
  9
$CHAMFERB
 40
0.0
  9
$SKPOLY
 70
     0
  9
$TDCREATE
 40
2444972.375
  9
$TDUPDATE
 40
2458941.2468913542
  9
$TDINDWG
 40
0.0000421875
  9
$TDUSRTIMER
 40
0.0000421875
  9
$USRTIMER
 70
     1
  9
$ANGBASE
 50
0.0
  9
$ANGDIR
 70
     0
  9
$PDMODE
 70
     0
  9
$PDSIZE
 40
0.0
  9
$PLINEWID
 40
0.0
  9
$COORDS
 70
     1
  9
$SPLFRAME
 70
     0
  9
$SPLINETYPE
 70
     6
  9
$SPLINESEGS
 70
     8
  9
$ATTDIA
 70
     1
  9
$ATTREQ
 70
     1
  9
$HANDLING
 70
     1
  9
$HANDSEED
  5
25A
  9
$SURFTAB1
 70
     6
  9
$SURFTAB2
 70
     6
  9
$SURFTYPE
 70
     6
  9
$SURFU
 70
     6
  9
$SURFV
 70
     6
  9
$UCSNAME
  2

  9
$UCSORG
 10
0.0
 20
0.0
 30
0.0
  9
$UCSXDIR
 10
1.0
 20
0.0
 30
0.0
  9
$UCSYDIR
 10
0.0
 20
1.0
 30
0.0
  9
$PUCSNAME
  2

  9
$PUCSORG
 10
0.0
 20
0.0
 30
0.0
  9
$PUCSXDIR
 10
1.0
 20
0.0
 30
0.0
  9
$PUCSYDIR
 10
0.0
 20
1.0
 30
0.0
  9
$USERI1
 70
     0
  9
$USERI2
 70
     0
  9
$USERI3
 70
     0
  9
$USERI4
 70
     0
  9
$USERI5
 70
     0
  9
$USERR1
 40
0.0
  9
$USERR2
 40
0.0
  9
$USERR3
 40
0.0
  9
$USERR4
 40
0.0
  9
$USERR5
 40
0.0
  9
$WORLDVIEW
 70
     1
  9
$SHADEDGE
 70
     3
  9
$SHADEDIF
 70
    70
  9
$TILEMODE
 70
     1
  9
$MAXACTVP
 70
    48
  9
$PLIMCHECK
 70
     0
  9
$PEXTMIN
 10
1.0000000000000000E+020
 20
1.0000000000000000E+020
 30
1.0000000000000000E+020
  9
$PEXTMAX
 10
-1.0000000000000000E+020
 20
-1.0000000000000000E+020
 30
-1.0000000000000000E+020
  9
$PLIMMIN
 10
0.0
 20
0.0
  9
$PLIMMAX
 10
12.0
 20
9.0
  9
$UNITMODE
 70
     0
  9
$VISRETAIN
 70
     1
  9
$PLINEGEN
 70
     0
  9
$PSLTSCALE
 70
     1
  0
ENDSEC
  0
SECTION
  2
TABLES
  0
TABLE
  2
VPORT
 70
     1
  0
VPORT
  2
*ACTIVE
 70
     0
 10
0.0
 20
0.0
 11
1.0
 21
1.0
 12
154.64614572345729
 22
127.4298
 13
0.0
 23
0.0
 14
1.0
 24
1.0
 15
0.0
 25
0.0
 16
0.0
 26
0.0
 36
1.0
 17
0.0
 27
0.0
 37
0.0
 40
204.78382598709459
 41
2.8015873015873001
 42
50.0
 43
0.0
 44
0.0
 50
0.0
 51
0.0
 71
     0
 72
   100
 73
     1
 74
     1
 75
     0
 76
     0
 77
     0
 78
     0
  0
ENDTAB
  0
TABLE
  2
LTYPE
 70
     4
  0
LTYPE
  2
CONTINUOUS
 70
     0
  3
Solid line
 72
    65
 73
     0
 40
0.0
  0
LTYPE
  2
AIGENLINE001
 70
     0
  3
generate AI->DXF Converter
 72
    65
 73
     4
 40
5.8561449999999988
 49
3.5278
 49
-0.776115
 49
0.776115
 49
-0.776115
  0
LTYPE
  2
AIGENLINE002
 70
     0
  3
generate AI->DXF Converter
 72
    65
 73
     6
 40
7.4083750000000004
 49
3.5278
 49
-0.776115
 49
0.776115
 49
-0.776115
 49
0.776115
 49
-0.776115
  0
LTYPE
  2
AIGENLINE003
 70
     0
  3
generate AI->DXF Converter
 72
    65
 73
     2
 40
1.5522299999999991
 49
0.776115
 49
-0.776115
  0
ENDTAB
  0
TABLE
  2
LAYER
 70
     4
  0
LAYER
  2
0
 70
     0
 62
     7
  6
CONTINUOUS
  0
LAYER
  2
____
 70
     0
 62
     7
  6
CONTINUOUS
  0
LAYER
  2
_________1
 70
     0
 62
     7
  6
CONTINUOUS
  0
LAYER
  2
_________2
 70
     0
 62
     7
  6
CONTINUOUS
  0
ENDTAB
  0
TABLE
  2
STYLE
 70
     1
  0
STYLE
  2
STANDARD
 70
     0
 40
0.0
 41
0.0
 50
0.0
 71
     0
 42
0.0
  3
TXT
  4
EXTFONT.SHX
  0
ENDTAB
  0
TABLE
  2
VIEW
 70
     0
  0
ENDTAB
  0
TABLE
  2
UCS
 70
     0
  0
ENDTAB
  0
TABLE
  2
APPID
 70
     3
  0
APPID
  2
ACAD
 70
     0
  0
APPID
  2
ACAD_NAV_VCDISPLAY
 70
     0
  0
APPID
  2
ACAD_MLEADERVER
 70
     0
  0
ENDTAB
  0
TABLE
  2
DIMSTYLE
 70
     1
  0
DIMSTYLE
  2
STANDARD
 70
     0
  3

  4

  5

  6

  7

 40
1.0
 41
0.18
 42
0.0625
 43
0.38
 44
0.18
 45
0.0
 46
0.0
 47
0.0
 48
0.0
140
0.18
141
0.09
142
0.0
143
25.399999999999999
144
1.0
145
0.0
146
1.0
147
0.09
 71
     0
 72
     0
 73
     1
 74
     1
 75
     0
 76
     0
 77
     0
 78
     0
170
     0
171
     2
172
     0
173
     0
174
     0
175
     0
176
     0
177
     0
178
     0
  0
ENDTAB
  0
ENDSEC
  0
SECTION
  2
BLOCKS
  0
BLOCK
  8
0
  2
$MODEL_SPACE
 70
     0
 10
0.0
 20
0.0
 30
0.0
  3
$MODEL_SPACE
  1

  0
ENDBLK
  5
1A
  8
0
  0
BLOCK
 67
     1
  8
0
  2
$PAPER_SPACE
 70
     0
 10
0.0
 20
0.0
 30
0.0
  3
$PAPER_SPACE
  1

  0
ENDBLK
  5
17
 67
     1
  8
0
  0
BLOCK
  8
____
  2
AIGNBL01010002
 70
     0
 10
0.0
 20
0.0
 30
0.0
  3
AIGNBL01010002
  1

  0
TEXT
  5
28
  8
____
 62
     7
 10
34.82670000000001
 20
73.216999999999985
 30
0.0
 40
3.0923400000000001
  1
メーカーロゴ
 41
0.5
  0
ENDBLK
  5
29
  8
____
  0
BLOCK
  8
____
  2
AIGNBL01010003
 70
     0
 10
0.0
 20
0.0
 30
0.0
  3
AIGNBL01010003
  1

  0
TEXT
  5
2C
  8
____
 62
     7
 10
80.202200000000005
 20
236.44900000000001
 30
0.0
 40
3.0923400000000001
  1
（%%c8\U+00D750 樹脂プラグ付）
 41
0.5
  0
ENDBLK
  5
2D
  8
____
  0
BLOCK
  8
____
  2
AIGNBL01010004
 70
     0
 10
0.0
 20
0.0
 30
0.0
  3
AIGNBL01010004
  1

  0
TEXT
  5
30
  8
____
 62
     7
 10
105.99264599999999
 20
220.66200000000001
 30
0.0
 40
3.0923400000000001
  1
壁仕上げ面
 41
0.5
 72
     1
 11
110.425
 21
220.66200000000001
 31
0.0
  0
ENDBLK
  5
31
  8
____
  0
BLOCK
  8
____
  2
AIGNBL01010005
 70
     0
 10
0.0
 20
0.0
 30
0.0
  3
AIGNBL01010005
  1

  0
TEXT
  5
34
  8
____
 62
     7
 10
63.840299999999999
 20
208.92699999999999
 30
0.0
 40
3.0923400000000001
  1
壁仕上げ面
 41
0.5
  0
ENDBLK
  5
35
  8
____
  0
BLOCK
  8
____
  2
AIGNBL01010006
 70
     0
 10
0.0
 20
0.0
 30
0.0
  3
AIGNBL01010006
  1

  0
TEXT
  5
38
  8
____
 62
     7
 10
80.202200000000005
 20
241.10300000000001
 30
0.0
 40
3.0923400000000001
  1
%%c6\U+00D760 SUS専用ネジ 2本
 41
0.5
  0
ENDBLK
  5
39
  8
____
  0
BLOCK
  8
____
  2
AIGNBL01010007
 70
     0
 10
0.0
 20
0.0
 30
0.0
  3
AIGNBL01010007
  1

  0
TEXT
  5
3C
  8
____
 62
     7
 10
123.6013725
 20
70.288300000000007
 30
0.0
 40
3.0923400000000001
  1
30
 41
0.5
 72
     1
 11
124.761
 21
70.288300000000007
 31
0.0
  0
ENDBLK
  5
3D
  8
____
  0
BLOCK
  8
____
  2
AIGNBL01010008
 70
     0
 10
0.0
 20
0.0
 30
0.0
  3
AIGNBL01010008
  1

  0
TEXT
  5
40
  8
____
 62
     7
 10
65.235524999999996
 20
70.288300000000007
 30
0.0
 40
3.0923400000000001
  1
66
 41
0.5
 72
     1
 11
66.524000000000001
 21
70.288300000000007
 31
0.0
  0
ENDBLK
  5
41
  8
____
  0
BLOCK
  8
____
  2
AIGNBL01010009
 70
     0
 10
0.0
 20
0.0
 30
0.0
  3
AIGNBL01010009
  1

  0
TEXT
  5
44
  8
____
 62
     7
 10
84.188500000000005
 20
138.19828749999999
 30
0.0
 40
3.0923400000000001
  1
630
 50
90.0
 41
0.5
 72
     1
 11
84.188500000000005
 21
140.131
 31
0.0
  0
ENDBLK
  5
45
  8
____
  0
BLOCK
  8
____
  2
AIGNBL0101000A
 70
     0
 10
0.0
 20
0.0
 30
0.0
  3
AIGNBL0101000A
  1

  0
TEXT
  5
48
  8
____
 62
     7
 10
139.14099999999999
 20
231.427525
 30
0.0
 40
3.0923400000000001
  1
45
 50
90.0
 41
0.5
 72
     1
 11
139.14099999999999
 21
232.71600000000001
 31
0.0
  0
ENDBLK
  5
49
  8
____
  0
BLOCK
  8
____
  2
AIGNBL0101000B
 70
     0
 10
0.0
 20
0.0
 30
0.0
  3
AIGNBL0101000B
  1

  0
TEXT
  5
4C
  8
____
 62
     7
 10
139.14099999999999
 20
138.953135
 30
0.0
 40
3.0923400000000001
  1
600
 50
90.0
 41
0.5
 72
     1
 11
139.14099999999999
 21
140.75700000000001
 31
0.0
  0
ENDBLK
  5
4D
  8
____
  0
BLOCK
  8
_________1
  2
AIGNBL02010002
 70
     0
 10
0.0
 20
0.0
 30
0.0
  3
AIGNBL02010002
  1

  0
LINE
  5
50
  8
_________1
 62
     7
 10
51.8568
 20
80.731200000000015
 30
0.0
 11
50.9238
 21
80.130999999999986
 31
0.0
  0
LINE
  5
51
  8
_________1
 62
     7
 10
51.8568
 20
79.530900000000003
 30
0.0
 11
50.9238
 21
80.130999999999986
 31
0.0
  0
LINE
  5
52
  8
_________1
 62
     7
 10
58.087299999999999
 20
79.530900000000003
 30
0.0
 11
58.270699999999991
 21
79.731000000000009
 31
0.0
  0
LINE
  5
53
  8
_________1
 62
     7
 10
59.923900000000003
 20
79.530900000000003
 30
0.0
 11
59.740400000000001
 21
79.731000000000009
 31
0.0
  0
LINE
  5
54
  8
_________1
 62
     7
 10
59.740400000000001
 20
79.731000000000009
 30
0.0
 11
58.270699999999991
 21
79.731000000000009
 31
0.0
  0
LINE
  5
55
  8
_________1
 62
     7
 10
58.087299999999999
 20
80.731200000000015
 30
0.0
 11
58.270699999999991
 21
80.531000000000006
 31
0.0
  0
LINE
  5
56
  8
_________1
 62
     7
 10
59.923900000000003
 20
80.731200000000015
 30
0.0
 11
59.740400000000001
 21
80.531000000000006
 31
0.0
  0
LINE
  5
57
  8
_________1
 62
     7
 10
59.740400000000001
 20
80.531000000000006
 30
0.0
 11
58.270699999999991
 21
80.531000000000006
 31
0.0
  0
LINE
  5
58
  8
_________1
 62
     7
 10
59.923900000000003
 20
80.731200000000015
 30
0.0
 11
51.8568
 21
80.731200000000015
 31
0.0
  0
LINE
  5
59
  8
_________1
 62
     7
 10
59.923900000000003
 20
79.530900000000003
 30
0.0
 11
51.8568
 21
79.530900000000003
 31
0.0
  0
LINE
  5
5A
  8
_________1
  6
AIGENLINE001
 62
     7
 10
60.9116
 20
80.130999999999986
 30
0.0
 11
49.792299999999997
 21
80.130999999999986
 31
0.0
  0
LINE
  5
5B
  8
_________1
 62
     7
 10
56.2502
 20
79.530900000000003
 30
0.0
 11
56.2502
 21
80.731200000000015
 31
0.0
  0
LINE
  5
5C
  8
_________1
 62
     7
 10
58.087299999999999
 20
79.530900000000003
 30
0.0
 11
58.087299999999999
 21
80.731200000000015
 31
0.0
  0
LINE
  5
5D
  8
_________1
 62
     7
 10
59.923900000000003
 20
79.530900000000003
 30
0.0
 11
59.923900000000003
 21
80.731200000000015
 31
0.0
  0
LINE
  5
5E
  8
_________1
 62
     7
 10
55.8367
 20
80.731200000000015
 30
0.0
 11
56.131599999999999
 21
79.530900000000003
 31
0.0
  0
LINE
  5
5F
  8
_________1
 62
     7
 10
55.37510000000001
 20
80.731200000000015
 30
0.0
 11
55.670000000000002
 21
79.530900000000003
 31
0.0
  0
LINE
  5
60
  8
_________1
 62
     7
 10
54.913400000000003
 20
80.731200000000015
 30
0.0
 11
55.208300000000001
 21
79.530900000000003
 31
0.0
  0
LINE
  5
61
  8
_________1
 62
     7
 10
54.452100000000002
 20
80.731200000000015
 30
0.0
 11
54.747
 21
79.530900000000003
 31
0.0
  0
LINE
  5
62
  8
_________1
 62
     7
 10
53.99049999999999
 20
80.731200000000015
 30
0.0
 11
54.285400000000003
 21
79.530900000000003
 31
0.0
  0
LINE
  5
63
  8
_________1
 62
     7
 10
53.52920000000001
 20
80.731200000000015
 30
0.0
 11
53.824100000000001
 21
79.530900000000003
 31
0.0
  0
LINE
  5
64
  8
_________1
 62
     7
 10
53.067700000000002
 20
80.731200000000015
 30
0.0
 11
53.36249999999999
 21
79.530900000000003
 31
0.0
  0
LINE
  5
65
  8
_________1
 62
     7
 10
52.606099999999991
 20
80.731200000000015
 30
0.0
 11
52.901000000000003
 21
79.530900000000003
 31
0.0
  0
LINE
  5
66
  8
_________1
 62
     7
 10
52.144799999999996
 20
80.731200000000015
 30
0.0
 11
52.439700000000002
 21
79.530900000000003
 31
0.0
  0
LINE
  5
67
  8
_________1
 62
     7
 10
51.706899999999997
 20
80.634699999999995
 30
0.0
 11
51.978000000000002
 21
79.530900000000003
 31
0.0
  0
ENDBLK
  5
68
  8
_________1
  0
BLOCK
  8
_________1
  2
AIGNBL02010003
 70
     0
 10
0.0
 20
0.0
 30
0.0
  3
AIGNBL02010003
  1

  0
LINE
  5
6B
  8
_________1
 62
     7
 10
124.024
 20
70.180800000000005
 30
0.0
 11
121.812
 21
69.588300000000004
 31
0.0
  0
LINE
  5
6C
  8
_________1
 62
     7
 10
121.812
 20
69.588300000000004
 30
0.0
 11
124.024
 21
68.995699999999999
 31
0.0
  0
LINE
  5
6D
  8
_________1
 62
     7
 10
124.024
 20
68.995699999999999
 30
0.0
 11
124.024
 21
70.180800000000005
 31
0.0
  0
LINE
  5
6E
  8
_________1
 62
     7
 10
125.5
 20
68.995699999999999
 30
0.0
 11
127.712
 21
69.588300000000004
 31
0.0
  0
LINE
  5
6F
  8
_________1
 62
     7
 10
127.712
 20
69.588300000000004
 30
0.0
 11
125.5
 21
70.180800000000005
 31
0.0
  0
LINE
  5
70
  8
_________1
 62
     7
 10
125.5
 20
70.180800000000005
 30
0.0
 11
125.5
 21
68.995699999999999
 31
0.0
  0
LINE
  5
71
  8
_________1
 62
     7
 10
121.812
 20
69.588300000000004
 30
0.0
 11
127.712
 21
69.588300000000004
 31
0.0
  0
ENDBLK
  5
72
  8
_________1
  0
BLOCK
  8
_________1
  2
AIGNBL02010004
 70
     0
 10
0.0
 20
0.0
 30
0.0
  3
AIGNBL02010004
  1

  0
LINE
  5
75
  8
_________1
 62
     7
 10
70.912099999999995
 20
68.995699999999999
 30
0.0
 11
73.123800000000003
 21
69.588300000000004
 31
0.0
  0
LINE
  5
76
  8
_________1
 62
     7
 10
73.123800000000003
 20
69.588300000000004
 30
0.0
 11
70.912099999999995
 21
70.180800000000005
 31
0.0
  0
LINE
  5
77
  8
_________1
 62
     7
 10
70.912099999999995
 20
70.180800000000005
 30
0.0
 11
70.912099999999995
 21
68.995699999999999
 31
0.0
  0
LINE
  5
78
  8
_________1
 62
     7
 10
62.135599999999997
 20
70.180800000000005
 30
0.0
 11
59.923900000000003
 21
69.588300000000004
 31
0.0
  0
LINE
  5
79
  8
_________1
 62
     7
 10
59.923900000000003
 20
69.588300000000004
 30
0.0
 11
62.135599999999997
 21
68.995699999999999
 31
0.0
  0
LINE
  5
7A
  8
_________1
 62
     7
 10
62.135599999999997
 20
68.995699999999999
 30
0.0
 11
62.135599999999997
 21
70.180800000000005
 31
0.0
  0
LINE
  5
7B
  8
_________1
 62
     7
 10
73.123800000000003
 20
69.588300000000004
 30
0.0
 11
59.923900000000003
 21
69.588300000000004
 31
0.0
  0
ENDBLK
  5
7C
  8
_________1
  0
BLOCK
  8
_________1
  2
AIGNBL02010005
 70
     0
 10
0.0
 20
0.0
 30
0.0
  3
AIGNBL02010005
  1

  0
LINE
  5
7F
  8
_________1
 62
     7
 10
85.4739
 20
200.91
 30
0.0
 11
84.881299999999996
 21
203.12200000000001
 31
0.0
  0
LINE
  5
80
  8
_________1
 62
     7
 10
84.881299999999996
 20
203.12200000000001
 30
0.0
 11
84.288799999999995
 21
200.91
 31
0.0
  0
LINE
  5
81
  8
_________1
 62
     7
 10
84.288799999999995
 20
200.91
 30
0.0
 11
85.4739
 21
200.91
 31
0.0
  0
LINE
  5
82
  8
_________1
 62
     7
 10
84.303200000000004
 20
79.352400000000003
 30
0.0
 11
84.895799999999994
 21
77.140699999999995
 31
0.0
  0
LINE
  5
83
  8
_________1
 62
     7
 10
84.895799999999994
 20
77.140699999999995
 30
0.0
 11
85.488299999999995
 21
79.352400000000003
 31
0.0
  0
LINE
  5
84
  8
_________1
 62
     7
 10
85.488299999999995
 20
79.352400000000003
 30
0.0
 11
84.303200000000004
 21
79.352400000000003
 31
0.0
  0
LINE
  5
85
  8
_________1
 62
     7
 10
84.888599999999997
 20
203.12100000000001
 30
0.0
 11
84.888599999999997
 21
77.141999999999996
 31
0.0
  0
ENDBLK
  5
86
  8
_________1
  0
BLOCK
  8
_________1
  2
AIGNBL02010006
 70
     0
 10
0.0
 20
0.0
 30
0.0
  3
AIGNBL02010006
  1

  0
LINE
  5
89
  8
_________1
 62
     7
 10
122.002
 20
233.91399999999999
 30
0.0
 11
124.161
 21
233.15199999999999
 31
0.0
  0
LINE
  5
8A
  8
_________1
 62
     7
 10
124.161
 20
233.15199999999999
 30
0.0
 11
122.672
 21
234.892
 31
0.0
  0
LINE
  5
8B
  8
_________1
 62
     7
 10
122.672
 20
234.892
 30
0.0
 11
122.002
 21
233.91399999999999
 31
0.0
  0
LINE
  5
8C
  8
_________1
 62
     7
 10
124.157
 20
233.14699999999999
 30
0.0
 11
113.571
 21
240.40299999999999
 31
0.0
  0
LINE
  5
8D
  8
_________1
 62
     7
 10
113.571
 20
240.40299999999999
 30
0.0
 11
80.202200000000005
 21
240.40299999999999
 31
0.0
  0
LINE
  5
8E
  8
_________1
 62
     7
 10
139.256
 20
82.967699999999994
 30
0.0
 11
139.84800000000001
 21
80.755999999999986
 31
0.0
  0
LINE
  5
8F
  8
_________1
 62
     7
 10
139.84800000000001
 20
80.755999999999986
 30
0.0
 11
140.441
 21
82.967699999999994
 31
0.0
  0
LINE
  5
90
  8
_________1
 62
     7
 10
140.441
 20
82.967699999999994
 30
0.0
 11
139.256
 21
82.967699999999994
 31
0.0
  0
LINE
  5
91
  8
_________1
 62
     7
 10
139.24799999999999
 20
230.428
 30
0.0
 11
139.84100000000001
 21
228.21600000000001
 31
0.0
  0
LINE
  5
92
  8
_________1
 62
     7
 10
139.84100000000001
 20
228.21600000000001
 30
0.0
 11
140.43299999999999
 21
230.428
 31
0.0
  0
LINE
  5
93
  8
_________1
 62
     7
 10
140.43299999999999
 20
230.428
 30
0.0
 11
139.24799999999999
 21
230.428
 31
0.0
  0
LINE
  5
94
  8
_________1
 62
     7
 10
140.43299999999999
 20
235.00399999999999
 30
0.0
 11
139.84100000000001
 21
237.21600000000001
 31
0.0
  0
LINE
  5
95
  8
_________1
 62
     7
 10
139.84100000000001
 20
237.21600000000001
 30
0.0
 11
139.24799999999999
 21
235.00399999999999
 31
0.0
  0
LINE
  5
96
  8
_________1
 62
     7
 10
139.24799999999999
 20
235.00399999999999
 30
0.0
 11
140.43299999999999
 21
235.00399999999999
 31
0.0
  0
LINE
  5
97
  8
_________1
 62
     7
 10
140.42599999999999
 20
198.547
 30
0.0
 11
139.834
 21
200.75899999999999
 31
0.0
  0
LINE
  5
98
  8
_________1
 62
     7
 10
139.834
 20
200.75899999999999
 30
0.0
 11
139.24100000000001
 21
198.547
 31
0.0
  0
LINE
  5
99
  8
_________1
 62
     7
 10
139.24100000000001
 20
198.547
 30
0.0
 11
140.42599999999999
 21
198.547
 31
0.0
  0
LINE
  5
9A
  8
_________1
 62
     7
 10
139.84100000000001
 20
228.21600000000001
 30
0.0
 11
139.84100000000001
 21
237.21600000000001
 31
0.0
  0
LINE
  5
9B
  8
_________1
 62
     7
 10
139.84100000000001
 20
80.756600000000006
 30
0.0
 11
139.84100000000001
 21
200.75700000000001
 31
0.0
  0
ENDBLK
  5
9C
  8
_________1
  0
BLOCK
  8
_________1
  2
AIGNBL02010007
 70
     0
 10
0.0
 20
0.0
 30
0.0
  3
AIGNBL02010007
  1

  0
LINE
  5
9F
  8
_________1
 62
     7
 10
51.8568
 20
200.732
 30
0.0
 11
50.9238
 21
200.13200000000001
 31
0.0
  0
LINE
  5
A0
  8
_________1
 62
     7
 10
51.8568
 20
199.53200000000001
 30
0.0
 11
50.9238
 21
200.13200000000001
 31
0.0
  0
LINE
  5
A1
  8
_________1
 62
     7
 10
58.087299999999999
 20
199.53200000000001
 30
0.0
 11
58.270699999999991
 21
199.732
 31
0.0
  0
LINE
  5
A2
  8
_________1
 62
     7
 10
59.923900000000003
 20
199.53200000000001
 30
0.0
 11
59.740400000000001
 21
199.732
 31
0.0
  0
LINE
  5
A3
  8
_________1
 62
     7
 10
59.740400000000001
 20
199.732
 30
0.0
 11
58.270699999999991
 21
199.732
 31
0.0
  0
LINE
  5
A4
  8
_________1
 62
     7
 10
58.087299999999999
 20
200.732
 30
0.0
 11
58.270699999999991
 21
200.53200000000001
 31
0.0
  0
LINE
  5
A5
  8
_________1
 62
     7
 10
59.923900000000003
 20
200.732
 30
0.0
 11
59.740400000000001
 21
200.53200000000001
 31
0.0
  0
LINE
  5
A6
  8
_________1
 62
     7
 10
59.740400000000001
 20
200.53200000000001
 30
0.0
 11
58.270699999999991
 21
200.53200000000001
 31
0.0
  0
LINE
  5
A7
  8
_________1
 62
     7
 10
59.923900000000003
 20
200.732
 30
0.0
 11
51.8568
 21
200.732
 31
0.0
  0
LINE
  5
A8
  8
_________1
 62
     7
 10
59.923900000000003
 20
199.53200000000001
 30
0.0
 11
51.8568
 21
199.53200000000001
 31
0.0
  0
LINE
  5
A9
  8
_________1
  6
AIGENLINE001
 62
     7
 10
60.9116
 20
200.13200000000001
 30
0.0
 11
49.792299999999997
 21
200.13200000000001
 31
0.0
  0
LINE
  5
AA
  8
_________1
 62
     7
 10
56.2502
 20
199.53200000000001
 30
0.0
 11
56.2502
 21
200.732
 31
0.0
  0
LINE
  5
AB
  8
_________1
 62
     7
 10
58.087299999999999
 20
199.53200000000001
 30
0.0
 11
58.087299999999999
 21
200.732
 31
0.0
  0
LINE
  5
AC
  8
_________1
 62
     7
 10
59.923900000000003
 20
199.53200000000001
 30
0.0
 11
59.923900000000003
 21
200.732
 31
0.0
  0
LINE
  5
AD
  8
_________1
 62
     7
 10
55.8367
 20
200.732
 30
0.0
 11
56.131599999999999
 21
199.53200000000001
 31
0.0
  0
LINE
  5
AE
  8
_________1
 62
     7
 10
55.37510000000001
 20
200.732
 30
0.0
 11
55.670000000000002
 21
199.53200000000001
 31
0.0
  0
LINE
  5
AF
  8
_________1
 62
     7
 10
54.913400000000003
 20
200.732
 30
0.0
 11
55.208300000000001
 21
199.53200000000001
 31
0.0
  0
LINE
  5
B0
  8
_________1
 62
     7
 10
54.452100000000002
 20
200.732
 30
0.0
 11
54.747
 21
199.53200000000001
 31
0.0
  0
LINE
  5
B1
  8
_________1
 62
     7
 10
53.99049999999999
 20
200.732
 30
0.0
 11
54.285400000000003
 21
199.53200000000001
 31
0.0
  0
LINE
  5
B2
  8
_________1
 62
     7
 10
53.52920000000001
 20
200.732
 30
0.0
 11
53.824100000000001
 21
199.53200000000001
 31
0.0
  0
LINE
  5
B3
  8
_________1
 62
     7
 10
53.067700000000002
 20
200.732
 30
0.0
 11
53.36249999999999
 21
199.53200000000001
 31
0.0
  0
LINE
  5
B4
  8
_________1
 62
     7
 10
52.606099999999991
 20
200.732
 30
0.0
 11
52.901000000000003
 21
199.53200000000001
 31
0.0
  0
LINE
  5
B5
  8
_________1
 62
     7
 10
52.144799999999996
 20
200.732
 30
0.0
 11
52.439700000000002
 21
199.53200000000001
 31
0.0
  0
LINE
  5
B6
  8
_________1
 62
     7
 10
51.706899999999997
 20
200.636
 30
0.0
 11
51.978000000000002
 21
199.53200000000001
 31
0.0
  0
ENDBLK
  5
B7
  8
_________1
  0
BLOCK
  8
_________1
  2
AIGNBL02010008
 70
     0
 10
0.0
 20
0.0
 30
0.0
  3
AIGNBL02010008
  1

  0
LINE
  5
BA
  8
_________1
 62
     7
 10
125.36199999999999
 20
236.28299999999999
 30
0.0
 11
124.761
 21
237.21600000000001
 31
0.0
  0
LINE
  5
BB
  8
_________1
 62
     7
 10
124.161
 20
236.28299999999999
 30
0.0
 11
124.761
 21
237.21600000000001
 31
0.0
  0
LINE
  5
BC
  8
_________1
 62
     7
 10
124.161
 20
230.05199999999999
 30
0.0
 11
124.36199999999999
 21
229.869
 31
0.0
  0
LINE
  5
BD
  8
_________1
 62
     7
 10
124.161
 20
228.21600000000001
 30
0.0
 11
124.36199999999999
 21
228.399
 31
0.0
  0
LINE
  5
BE
  8
_________1
 62
     7
 10
124.36199999999999
 20
228.399
 30
0.0
 11
124.36199999999999
 21
229.869
 31
0.0
  0
LINE
  5
BF
  8
_________1
 62
     7
 10
125.36199999999999
 20
230.05199999999999
 30
0.0
 11
125.16200000000001
 21
229.869
 31
0.0
  0
LINE
  5
C0
  8
_________1
 62
     7
 10
125.36199999999999
 20
228.21600000000001
 30
0.0
 11
125.16200000000001
 21
228.399
 31
0.0
  0
LINE
  5
C1
  8
_________1
 62
     7
 10
125.16200000000001
 20
228.399
 30
0.0
 11
125.16200000000001
 21
229.869
 31
0.0
  0
LINE
  5
C2
  8
_________1
 62
     7
 10
125.36199999999999
 20
228.21600000000001
 30
0.0
 11
125.36199999999999
 21
236.28299999999999
 31
0.0
  0
LINE
  5
C3
  8
_________1
 62
     7
 10
124.161
 20
228.21600000000001
 30
0.0
 11
124.161
 21
236.28299999999999
 31
0.0
  0
LINE
  5
C4
  8
_________1
  6
AIGENLINE001
 62
     7
 10
124.761
 20
227.22800000000001
 30
0.0
 11
124.761
 21
239.44999999999999
 31
0.0
  0
LINE
  5
C5
  8
_________1
 62
     7
 10
124.161
 20
231.88900000000001
 30
0.0
 11
125.36199999999999
 21
231.88900000000001
 31
0.0
  0
LINE
  5
C6
  8
_________1
 62
     7
 10
124.161
 20
230.05199999999999
 30
0.0
 11
125.36199999999999
 21
230.05199999999999
 31
0.0
  0
LINE
  5
C7
  8
_________1
 62
     7
 10
124.161
 20
228.21600000000001
 30
0.0
 11
125.36199999999999
 21
228.21600000000001
 31
0.0
  0
LINE
  5
C8
  8
_________1
 62
     7
 10
125.36199999999999
 20
232.303
 30
0.0
 11
124.161
 21
232.00800000000001
 31
0.0
  0
LINE
  5
C9
  8
_________1
 62
     7
 10
125.36199999999999
 20
232.76400000000001
 30
0.0
 11
124.161
 21
232.46899999999999
 31
0.0
  0
LINE
  5
CA
  8
_________1
 62
     7
 10
125.36199999999999
 20
233.226
 30
0.0
 11
124.161
 21
232.93100000000001
 31
0.0
  0
LINE
  5
CB
  8
_________1
 62
     7
 10
125.36199999999999
 20
233.68700000000001
 30
0.0
 11
124.161
 21
233.392
 31
0.0
  0
LINE
  5
CC
  8
_________1
 62
     7
 10
125.36199999999999
 20
234.149
 30
0.0
 11
124.161
 21
233.85400000000001
 31
0.0
  0
LINE
  5
CD
  8
_________1
 62
     7
 10
125.36199999999999
 20
234.61000000000001
 30
0.0
 11
124.161
 21
234.315
 31
0.0
  0
LINE
  5
CE
  8
_________1
 62
     7
 10
125.36199999999999
 20
235.072
 30
0.0
 11
124.161
 21
234.77699999999999
 31
0.0
  0
LINE
  5
CF
  8
_________1
 62
     7
 10
125.36199999999999
 20
235.53299999999999
 30
0.0
 11
124.161
 21
235.238
 31
0.0
  0
LINE
  5
D0
  8
_________1
 62
     7
 10
125.36199999999999
 20
235.995
 30
0.0
 11
124.161
 21
235.69999999999999
 31
0.0
  0
LINE
  5
D1
  8
_________1
 62
     7
 10
125.265
 20
236.43299999999999
 30
0.0
 11
124.161
 21
236.161
 31
0.0
  0
ENDBLK
  5
D2
  8
_________1
  0
BLOCK
  8
_________2
  2
AIGNBL03010002
 70
     0
 10
0.0
 20
0.0
 30
0.0
  3
AIGNBL03010002
  1

  0
LINE
  5
D5
  8
_________2
 62
     7
 10
76.741
 20
29.8047
 30
0.0
 11
74.554699999999997
 21
29.8047
 31
0.0
  0
LINE
  5
D6
  8
_________2
 62
     7
 10
77.233699999999999
 20
29.8047
 30
0.0
 11
76.981499999999997
 21
29.8047
 31
0.0
  0
LINE
  5
D7
  8
_________2
 62
     7
 10
77.726299999999995
 20
29.8047
 30
0.0
 11
80.651200000000003
 21
29.8047
 31
0.0
  0
LINE
  5
D8
  8
_________2
 62
     7
 10
77.233699999999999
 20
29.8047
 30
0.0
 11
77.485500000000002
 21
29.8047
 31
0.0
  0
LINE
  5
D9
  8
_________2
 62
     7
 10
70.837100000000007
 20
29.8047
 30
0.0
 11
68.650499999999994
 21
29.8047
 31
0.0
  0
LINE
  5
DA
  8
_________2
 62
     7
 10
71.329400000000007
 20
29.8047
 30
0.0
 11
71.077600000000004
 21
29.8047
 31
0.0
  0
LINE
  5
DB
  8
_________2
 62
     7
 10
71.329400000000007
 20
30.2974
 30
0.0
 11
71.329400000000007
 21
32.484400000000001
 31
0.0
  0
LINE
  5
DC
  8
_________2
 62
     7
 10
71.329400000000007
 20
29.8047
 30
0.0
 11
71.329400000000007
 21
30.056899999999999
 31
0.0
  0
LINE
  5
DD
  8
_________2
 62
     7
 10
71.822100000000006
 20
29.8047
 30
0.0
 11
74.009
 21
29.8047
 31
0.0
  0
LINE
  5
DE
  8
_________2
 62
     7
 10
71.329400000000007
 20
29.8047
 30
0.0
 11
71.581599999999995
 21
29.8047
 31
0.0
  0
LINE
  5
DF
  8
_________2
 62
     7
 10
71.329400000000007
 20
29.312799999999999
 30
0.0
 11
71.329400000000007
 21
27.125800000000002
 31
0.0
  0
LINE
  5
E0
  8
_________2
 62
     7
 10
71.329400000000007
 20
29.8047
 30
0.0
 11
71.329400000000007
 21
29.5532
 31
0.0
  0
LINE
  5
E1
  8
_________2
 62
     7
 10
75.040499999999994
 20
28.5852
 30
0.0
 11
80.218500000000006
 21
27.720400000000001
 31
0.0
  0
LINE
  5
E2
  8
_________2
 62
     7
 10
75.040499999999994
 20
31.0243
 30
0.0
 11
80.218500000000006
 21
31.889700000000001
 31
0.0
  0
LINE
  5
E3
  8
_________2
 62
     7
 10
80.218500000000006
 20
27.720400000000001
 30
0.0
 11
80.218500000000006
 21
31.889700000000001
 31
0.0
  0
LINE
  5
E4
  8
_________2
 62
     7
 10
75.040499999999994
 20
28.5852
 30
0.0
 11
75.040499999999994
 21
31.0243
 31
0.0
  0
ARC
  5
E5
  8
_________2
 62
     7
 10
71.28285600000001
 20
29.757811
 30
0.0
 40
1.2673589999999999
 50
2.122214
 51
87.893958999999995
  0
ARC
  5
E6
  8
_________2
 62
     7
 10
71.375959999999992
 20
29.758213000000001
 30
0.0
 40
1.2669559999999991
 50
92.104701000000006
 51
177.89526900000001
  0
ARC
  5
E7
  8
_________2
 62
     7
 10
71.376357999999996
 20
29.851671
 30
0.0
 40
1.2673680000000001
 50
182.12203600000001
 51
267.877993
  0
ARC
  5
E8
  8
_________2
 62
     7
 10
71.282531999999989
 20
29.851998999999999
 30
0.0
 40
1.267695999999999
 50
272.12015300000002
 51
357.863674
  0
ARC
  5
E9
  8
_________2
 62
     7
 10
71.329430000000002
 20
29.804742999999998
 30
0.0
 40
2.0849849999999992
 50
0.00001
 51
89.999980000000008
  0
ARC
  5
EA
  8
_________2
 62
     7
 10
71.329603000000006
 20
29.804915000000001
 30
0.0
 40
2.084813
 50
90.004733999999999
 51
180.00474399999999
  0
ARC
  5
EB
  8
_________2
 62
     7
 10
71.409106000000008
 20
29.884775999999999
 30
0.0
 40
2.1657950000000001
 50
182.11776599999999
 51
267.89173399999999
  0
ARC
  5
EC
  8
_________2
 62
     7
 10
71.249459000000002
 20
29.885429999999999
 30
0.0
 40
2.1664590000000001
 50
272.11546800000002
 51
357.86560400000002
  0
ENDBLK
  5
ED
  8
_________2
  0
ENDSEC
  0
SECTION
  2
ENTITIES
  0
INSERT
  5
EE
  8
____
 62
     7
  2
AIGNBL01010002
 10
0.0
 20
0.0
 30
0.0
  0
INSERT
  5
EF
  8
____
 62
     7
  2
AIGNBL01010003
 10
0.0
 20
0.0
 30
0.0
  0
INSERT
  5
F0
  8
____
 62
     7
  2
AIGNBL01010004
 10
0.0
 20
0.0
 30
0.0
  0
INSERT
  5
F1
  8
____
 62
     7
  2
AIGNBL01010005
 10
0.0
 20
0.0
 30
0.0
  0
INSERT
  5
F2
  8
____
 62
     7
  2
AIGNBL01010006
 10
0.0
 20
0.0
 30
0.0
  0
INSERT
  5
F3
  8
____
 62
     7
  2
AIGNBL01010007
 10
0.0
 20
0.0
 30
0.0
  0
INSERT
  5
F4
  8
____
 62
     7
  2
AIGNBL01010008
 10
0.0
 20
0.0
 30
0.0
  0
INSERT
  5
F5
  8
____
 62
     7
  2
AIGNBL01010009
 10
0.0
 20
0.0
 30
0.0
  0
INSERT
  5
F6
  8
____
 62
     7
  2
AIGNBL0101000A
 10
0.0
 20
0.0
 30
0.0
  0
INSERT
  5
F7
  8
____
 62
     7
  2
AIGNBL0101000B
 10
0.0
 20
0.0
 30
0.0
  0
LINE
  5
F8
  8
_________1
 62
     7
 10
59.923900000000003
 20
80.130999999999986
 30
0.0
 11
59.923900000000003
 21
80.831100000000006
 31
0.0
  0
LINE
  5
F9
  8
_________1
 62
     7
 10
59.923900000000003
 20
80.130999999999986
 30
0.0
 11
59.923900000000003
 21
80.831100000000006
 31
0.0
  0
INSERT
  5
FA
  8
_________1
 62
     7
  2
AIGNBL02010002
 10
0.0
 20
0.0
 30
0.0
  0
LINE
  5
FB
  8
_________1
  6
AIGENLINE002
 62
     7
 10
148.28100000000001
 20
228.21600000000001
 30
0.0
 11
101.242
 21
228.21600000000001
 31
0.0
  0
LINE
  5
FC
  8
_________1
 62
     7
 10
108.68000000000001
 20
225.19300000000001
 30
0.0
 11
110.425
 21
228.21600000000001
 31
0.0
  0
LINE
  5
FD
  8
_________1
 62
     7
 10
110.425
 20
228.21600000000001
 30
0.0
 11
112.17100000000001
 21
225.19300000000001
 31
0.0
  0
LINE
  5
FE
  8
_________1
 62
     7
 10
112.17100000000001
 20
225.19300000000001
 30
0.0
 11
108.68000000000001
 21
225.19300000000001
 31
0.0
  0
LINE
  5
FF
  8
_________1
 62
     7
 10
62.946399999999997
 20
208.52000000000001
 30
0.0
 11
59.923900000000003
 21
210.26499999999999
 31
0.0
  0
LINE
  5
100
  8
_________1
 62
     7
 10
59.923900000000003
 20
210.26499999999999
 30
0.0
 11
62.946399999999997
 21
212.011
 31
0.0
  0
LINE
  5
101
  8
_________1
 62
     7
 10
62.946399999999997
 20
212.011
 30
0.0
 11
62.946399999999997
 21
208.52000000000001
 31
0.0
  0
LINE
  5
102
  8
_________1
 62
     7
 10
61.923699999999997
 20
78.141800000000003
 30
0.0
 11
60.9238
 21
78.141800000000003
 31
0.0
  0
LINE
  5
103
  8
_________1
 62
     7
 10
60.9238
 20
78.141800000000003
 30
0.0
 11
60.9238
 21
80.141999999999996
 31
0.0
  0
LINE
  5
104
  8
_________1
 62
     7
 10
60.9238
 20
80.141999999999996
 30
0.0
 11
61.923699999999997
 21
80.141999999999996
 31
0.0
  0
LINE
  5
105
  8
_________1
 62
     7
 10
61.923699999999997
 20
80.141999999999996
 30
0.0
 11
61.923699999999997
 21
78.141800000000003
 31
0.0
  0
LINE
  5
106
  8
_________1
 62
     7
 10
59.353299999999997
 20
77.351200000000006
 30
0.0
 11
60.9238
 21
79.017600000000002
 31
0.0
  0
LINE
  5
107
  8
_________1
 62
     7
 10
60.9238
 20
79.017600000000002
 30
0.0
 11
58.730600000000003
 21
78.359499999999997
 31
0.0
  0
LINE
  5
108
  8
_________1
 62
     7
 10
58.730600000000003
 20
78.359499999999997
 30
0.0
 11
59.353299999999997
 21
77.351200000000006
 31
0.0
  0
LINE
  5
109
  8
_________1
 62
     7
 10
34.82670000000001
 20
72.516999999999996
 30
0.0
 11
50.397399999999998
 21
72.516999999999996
 31
0.0
  0
LINE
  5
10A
  8
_________1
 62
     7
 10
50.397399999999998
 20
72.516999999999996
 30
0.0
 11
60.9238
 21
79.017600000000002
 31
0.0
  0
INSERT
  5
10B
  8
_________1
 62
     7
  2
AIGNBL02010003
 10
0.0
 20
0.0
 30
0.0
  0
LINE
  5
10C
  8
_________1
 62
     7
 10
127.712
 20
77.1965
 30
0.0
 11
127.712
 21
68.888199999999983
 31
0.0
  0
LINE
  5
10D
  8
_________1
 62
     7
 10
121.812
 20
77.1965
 30
0.0
 11
121.812
 21
68.888199999999983
 31
0.0
  0
INSERT
  5
10E
  8
_________1
 62
     7
  2
AIGNBL02010004
 10
0.0
 20
0.0
 30
0.0
  0
LINE
  5
10F
  8
_________1
 62
     7
 10
59.923900000000003
 20
76.209100000000007
 30
0.0
 11
59.923900000000003
 21
68.888199999999983
 31
0.0
  0
LINE
  5
110
  8
_________1
 62
     7
 10
73.123800000000003
 20
76.570800000000006
 30
0.0
 11
73.123800000000003
 21
68.888199999999983
 31
0.0
  0
INSERT
  5
111
  8
_________1
 62
     7
  2
AIGNBL02010005
 10
0.0
 20
0.0
 30
0.0
  0
LINE
  5
112
  8
_________1
 62
     7
 10
73.683700000000002
 20
77.141999999999996
 30
0.0
 11
85.588600000000014
 21
77.141999999999996
 31
0.0
  0
LINE
  5
113
  8
_________1
 62
     7
 10
73.683700000000002
 20
203.12100000000001
 30
0.0
 11
85.588600000000014
 21
203.12100000000001
 31
0.0
  0
INSERT
  5
114
  8
_________1
 62
     7
  2
AIGNBL02010006
 10
0.0
 20
0.0
 30
0.0
  0
LINE
  5
115
  8
_________1
 62
     7
 10
140.541
 20
237.21600000000001
 30
0.0
 11
126.752
 21
237.21600000000001
 31
0.0
  0
LINE
  5
116
  8
_________1
 62
     7
 10
140.541
 20
200.75700000000001
 30
0.0
 11
126.752
 21
200.75700000000001
 31
0.0
  0
LINE
  5
117
  8
_________1
  6
AIGENLINE001
 62
     7
 10
123.47199999999999
 20
200.75700000000001
 30
0.0
 11
126.05200000000001
 21
200.75700000000001
 31
0.0
  0
LINE
  5
118
  8
_________1
  6
AIGENLINE001
 62
     7
 10
124.761
 20
199.43600000000001
 30
0.0
 11
124.761
 21
202.07900000000001
 31
0.0
  0
ARC
  5
119
  8
_________1
  6
AIGENLINE003
 62
     7
 10
124.784058
 20
200.735624
 30
0.0
 40
0.622416
 50
92.079143000000002
 51
177.986647
  0
ARC
  5
11A
  8
_________1
  6
AIGENLINE003
 62
     7
 10
124.78549099999999
 20
200.780789
 30
0.0
 40
0.6239
 50
182.14014599999999
 51
267.79406499999999
  0
ARC
  5
11B
  8
_________1
  6
AIGENLINE003
 62
     7
 10
124.761477
 20
200.75749099999999
 30
0.0
 40
0.6001400000000001
 50
270.00002000000001
 51
359.99999000000003
  0
ARC
  5
11C
  8
_________1
  6
AIGENLINE003
 62
     7
 10
124.761477
 20
200.75749099999999
 30
0.0
 40
0.6001400000000001
 50
0.00001
 51
89.999980000000008
  0
LINE
  5
11D
  8
_________1
 62
     7
 10
140.541
 20
80.756600000000006
 30
0.0
 11
126.752
 21
80.756600000000006
 31
0.0
  0
LINE
  5
11E
  8
_________1
  6
AIGENLINE001
 62
     7
 10
123.47199999999999
 20
80.756600000000006
 30
0.0
 11
126.05200000000001
 21
80.756600000000006
 31
0.0
  0
LINE
  5
11F
  8
_________1
  6
AIGENLINE001
 62
     7
 10
124.761
 20
79.4358
 30
0.0
 11
124.761
 21
82.078199999999995
 31
0.0
  0
ARC
  5
120
  8
_________1
  6
AIGENLINE003
 62
     7
 10
124.784449
 20
80.734392000000014
 30
0.0
 40
0.622821
 50
92.113824000000008
 51
177.951966
  0
ARC
  5
121
  8
_________1
  6
AIGENLINE003
 62
     7
 10
124.78548600000001
 20
80.779943000000003
 30
0.0
 40
0.623895
 50
182.139681
 51
267.79453000000001
  0
ARC
  5
122
  8
_________1
  6
AIGENLINE003
 62
     7
 10
124.761477
 20
80.756648999999996
 30
0.0
 40
0.6001400000000001
 50
270.00002000000001
 51
359.99999000000003
  0
ARC
  5
123
  8
_________1
  6
AIGENLINE003
 62
     7
 10
124.761477
 20
80.756648999999996
 30
0.0
 40
0.6001400000000001
 50
0.00001
 51
89.999980000000008
  0
ARC
  5
124
  8
_________1
 62
     7
 10
121.883443
 20
203.627363
 30
0.0
 40
0.062061
 50
93.835971000000015
 51
178.174171
  0
ARC
  5
125
  8
_________1
 62
     7
 10
124.761821
 20
131.62848
 30
0.0
 40
72.118433999999993
 50
87.709303000000006
 51
92.290676999999988
  0
ARC
  5
126
  8
_________1
 62
     7
 10
127.639321
 20
203.62723500000001
 30
0.0
 40
0.062254
 50
1.9380310000000001
 51
85.366185000000016
  0
LINE
  5
127
  8
_________1
 62
     7
 10
127.642
 20
203.30799999999999
 30
0.0
 11
121.881
 21
203.30799999999999
 31
0.0
  0
LINE
  5
128
  8
_________1
 62
     7
 10
121.821
 20
203.62899999999999
 30
0.0
 11
121.821
 21
203.54900000000001
 31
0.0
  0
LINE
  5
129
  8
_________1
 62
     7
 10
121.821
 20
203.30799999999999
 30
0.0
 11
121.881
 21
203.30799999999999
 31
0.0
  0
LINE
  5
12A
  8
_________1
 62
     7
 10
121.821
 20
203.30799999999999
 30
0.0
 11
121.821
 21
203.54900000000001
 31
0.0
  0
LINE
  5
12B
  8
_________1
 62
     7
 10
127.702
 20
203.62899999999999
 30
0.0
 11
127.702
 21
203.54900000000001
 31
0.0
  0
LINE
  5
12C
  8
_________1
 62
     7
 10
127.702
 20
203.30799999999999
 30
0.0
 11
127.702
 21
203.54900000000001
 31
0.0
  0
LINE
  5
12D
  8
_________1
 62
     7
 10
127.642
 20
203.30799999999999
 30
0.0
 11
127.702
 21
203.30799999999999
 31
0.0
  0
LINE
  5
12E
  8
_________1
 62
     7
 10
127.702
 20
203.268
 30
0.0
 11
127.702
 21
203.30799999999999
 31
0.0
  0
LINE
  5
12F
  8
_________1
 62
     7
 10
121.821
 20
203.268
 30
0.0
 11
121.821
 21
203.30799999999999
 31
0.0
  0
LINE
  5
130
  8
_________1
 62
     7
 10
121.872
 20
203.268
 30
0.0
 11
127.652
 21
203.268
 31
0.0
  0
LINE
  5
131
  8
_________1
 62
     7
 10
121.872
 20
78.246499999999997
 30
0.0
 11
127.652
 21
78.246499999999997
 31
0.0
  0
LINE
  5
132
  8
_________1
 62
     7
 10
121.872
 20
78.246499999999997
 30
0.0
 11
121.812
 21
78.246499999999997
 31
0.0
  0
LINE
  5
133
  8
_________1
 62
     7
 10
121.872
 20
203.268
 30
0.0
 11
121.812
 21
203.268
 31
0.0
  0
LINE
  5
134
  8
_________1
 62
     7
 10
121.812
 20
203.268
 30
0.0
 11
121.812
 21
78.246499999999997
 31
0.0
  0
LINE
  5
135
  8
_________1
 62
     7
 10
127.652
 20
203.268
 30
0.0
 11
127.712
 21
203.268
 31
0.0
  0
LINE
  5
136
  8
_________1
 62
     7
 10
127.652
 20
78.246499999999997
 30
0.0
 11
127.712
 21
78.246499999999997
 31
0.0
  0
LINE
  5
137
  8
_________1
 62
     7
 10
127.712
 20
78.246499999999997
 30
0.0
 11
127.712
 21
203.268
 31
0.0
  0
ARC
  5
138
  8
_________1
 62
     7
 10
124.761821
 20
150.32228799999999
 30
0.0
 40
72.554715999999985
 50
267.72310399999998
 51
272.27691600000003
  0
ARC
  5
139
  8
_________1
 62
     7
 10
121.883684
 20
77.887008999999992
 30
0.0
 40
0.06231
 50
182.032128
 51
265.95773000000003
  0
ARC
  5
13A
  8
_________1
 62
     7
 10
127.639276
 20
77.886949000000001
 30
0.0
 40
0.062301
 50
274.67255899999998
 51
358.02322500000002
  0
LINE
  5
13B
  8
_________1
 62
     7
 10
121.881
 20
78.206599999999995
 30
0.0
 11
127.642
 21
78.206599999999995
 31
0.0
  0
LINE
  5
13C
  8
_________1
 62
     7
 10
121.821
 20
77.884799999999984
 30
0.0
 11
121.821
 21
77.964699999999993
 31
0.0
  0
LINE
  5
13D
  8
_________1
 62
     7
 10
121.821
 20
78.246499999999997
 30
0.0
 11
121.821
 21
78.206599999999995
 31
0.0
  0
LINE
  5
13E
  8
_________1
 62
     7
 10
121.821
 20
78.206599999999995
 30
0.0
 11
121.821
 21
77.964699999999993
 31
0.0
  0
LINE
  5
13F
  8
_________1
 62
     7
 10
121.881
 20
78.206599999999995
 30
0.0
 11
121.821
 21
78.206599999999995
 31
0.0
  0
LINE
  5
140
  8
_________1
 62
     7
 10
127.702
 20
78.206599999999995
 30
0.0
 11
127.642
 21
78.206599999999995
 31
0.0
  0
LINE
  5
141
  8
_________1
 62
     7
 10
127.702
 20
77.884799999999984
 30
0.0
 11
127.702
 21
77.964699999999993
 31
0.0
  0
LINE
  5
142
  8
_________1
 62
     7
 10
127.702
 20
78.246499999999997
 30
0.0
 11
127.702
 21
78.206599999999995
 31
0.0
  0
LINE
  5
143
  8
_________1
 62
     7
 10
127.702
 20
78.206599999999995
 30
0.0
 11
127.702
 21
77.964699999999993
 31
0.0
  0
ARC
  5
144
  8
_________1
 62
     7
 10
72.978626000000006
 20
202.97563500000001
 30
0.0
 40
0.145291
 50
2.1040220000000001
 51
88.036916999999988
  0
LINE
  5
145
  8
_________1
 62
     7
 10
59.923900000000003
 20
203.00399999999999
 30
0.0
 11
59.923900000000003
 21
203.06399999999999
 31
0.0
  0
LINE
  5
146
  8
_________1
 62
     7
 10
59.923900000000003
 20
203.06399999999999
 30
0.0
 11
59.923900000000003
 21
203.12100000000001
 31
0.0
  0
LINE
  5
147
  8
_________1
 62
     7
 10
72.983599999999996
 20
203.12100000000001
 30
0.0
 11
59.923900000000003
 21
203.12100000000001
 31
0.0
  0
LINE
  5
148
  8
_________1
 62
     7
 10
73.063500000000005
 20
202.68199999999999
 30
0.0
 11
73.123800000000003
 21
202.68199999999999
 31
0.0
  0
LINE
  5
149
  8
_________1
 62
     7
 10
73.123800000000003
 20
202.68199999999999
 30
0.0
 11
73.123800000000003
 21
202.923
 31
0.0
  0
LINE
  5
14A
  8
_________1
 62
     7
 10
73.123800000000003
 20
202.923
 30
0.0
 11
73.123800000000003
 21
202.98099999999999
 31
0.0
  0
LINE
  5
14B
  8
_________1
 62
     7
 10
59.923900000000003
 20
201.78200000000001
 30
0.0
 11
59.923900000000003
 21
203.00399999999999
 31
0.0
  0
LINE
  5
14C
  8
_________1
 62
     7
 10
73.063500000000005
 20
202.68199999999999
 30
0.0
 11
71.923900000000003
 21
202.68199999999999
 31
0.0
  0
LINE
  5
14D
  8
_________1
 62
     7
 10
71.923900000000003
 20
197.12200000000001
 30
0.0
 11
59.923900000000003
 21
197.12200000000001
 31
0.0
  0
LINE
  5
14E
  8
_________1
 62
     7
 10
59.923900000000003
 20
197.12200000000001
 30
0.0
 11
59.923900000000003
 21
197.179
 31
0.0
  0
LINE
  5
14F
  8
_________1
 62
     7
 10
59.923900000000003
 20
197.179
 30
0.0
 11
59.923900000000003
 21
197.239
 31
0.0
  0
LINE
  5
150
  8
_________1
 62
     7
 10
59.923900000000003
 20
197.239
 30
0.0
 11
59.923900000000003
 21
198.482
 31
0.0
  0
LINE
  5
151
  8
_________1
 62
     7
 10
71.923900000000003
 20
202.642
 30
0.0
 11
71.923900000000003
 21
197.239
 31
0.0
  0
LINE
  5
152
  8
_________1
 62
     7
 10
59.923900000000003
 20
200.83199999999999
 30
0.0
 11
59.923900000000003
 21
201.78200000000001
 31
0.0
  0
LINE
  5
153
  8
_________1
 62
     7
 10
59.923900000000003
 20
200.13200000000001
 30
0.0
 11
59.923900000000003
 21
200.83199999999999
 31
0.0
  0
LINE
  5
154
  8
_________1
 62
     7
 10
59.923900000000003
 20
198.482
 30
0.0
 11
59.923900000000003
 21
200.13200000000001
 31
0.0
  0
LINE
  5
155
  8
_________1
 62
     7
 10
71.923900000000003
 20
202.642
 30
0.0
 11
71.923900000000003
 21
202.68199999999999
 31
0.0
  0
LINE
  5
156
  8
_________1
 62
     7
 10
71.923900000000003
 20
197.239
 30
0.0
 11
71.923900000000003
 21
197.179
 31
0.0
  0
LINE
  5
157
  8
_________1
 62
     7
 10
71.923900000000003
 20
197.179
 30
0.0
 11
71.923900000000003
 21
197.12200000000001
 31
0.0
  0
LINE
  5
158
  8
_________1
 62
     7
 10
59.923900000000003
 20
200.83199999999999
 30
0.0
 11
59.923900000000003
 21
201.78200000000001
 31
0.0
  0
LINE
  5
159
  8
_________1
 62
     7
 10
59.923900000000003
 20
200.13200000000001
 30
0.0
 11
59.923900000000003
 21
200.83199999999999
 31
0.0
  0
LINE
  5
15A
  8
_________1
 62
     7
 10
59.923900000000003
 20
198.482
 30
0.0
 11
59.923900000000003
 21
200.13200000000001
 31
0.0
  0
LINE
  5
15B
  8
_________1
 62
     7
 10
73.063500000000005
 20
77.620900000000006
 30
0.0
 11
71.983800000000002
 21
77.620900000000006
 31
0.0
  0
LINE
  5
15C
  8
_________1
 62
     7
 10
73.123800000000003
 20
77.620900000000006
 30
0.0
 11
73.063500000000005
 21
77.620900000000006
 31
0.0
  0
LINE
  5
15D
  8
_________1
 62
     7
 10
71.983800000000002
 20
77.620900000000006
 30
0.0
 11
71.923900000000003
 21
77.620900000000006
 31
0.0
  0
LINE
  5
15E
  8
_________1
 62
     7
 10
73.123800000000003
 20
202.642
 30
0.0
 11
73.063500000000005
 21
202.642
 31
0.0
  0
LINE
  5
15F
  8
_________1
 62
     7
 10
73.123800000000003
 20
202.642
 30
0.0
 11
73.123800000000003
 21
77.620900000000006
 31
0.0
  0
LINE
  5
160
  8
_________1
 62
     7
 10
73.063500000000005
 20
202.642
 30
0.0
 11
71.983800000000002
 21
202.642
 31
0.0
  0
LINE
  5
161
  8
_________1
 62
     7
 10
71.923900000000003
 20
202.642
 30
0.0
 11
71.923900000000003
 21
197.239
 31
0.0
  0
LINE
  5
162
  8
_________1
 62
     7
 10
71.983800000000002
 20
202.642
 30
0.0
 11
71.923900000000003
 21
202.642
 31
0.0
  0
LINE
  5
163
  8
_________1
 62
     7
 10
71.923900000000003
 20
83.140699999999995
 30
0.0
 11
71.923900000000003
 21
83.083500000000001
 31
0.0
  0
LINE
  5
164
  8
_________1
 62
     7
 10
71.923900000000003
 20
83.083500000000001
 30
0.0
 11
71.923900000000003
 21
83.023499999999999
 31
0.0
  0
LINE
  5
165
  8
_________1
 62
     7
 10
71.923900000000003
 20
197.239
 30
0.0
 11
71.923900000000003
 21
197.179
 31
0.0
  0
LINE
  5
166
  8
_________1
 62
     7
 10
71.923900000000003
 20
197.179
 30
0.0
 11
71.923900000000003
 21
197.12200000000001
 31
0.0
  0
LINE
  5
167
  8
_________1
 62
     7
 10
71.923900000000003
 20
83.023499999999999
 30
0.0
 11
71.923900000000003
 21
77.620900000000006
 31
0.0
  0
LINE
  5
168
  8
_________1
 62
     7
 10
71.923900000000003
 20
197.12200000000001
 30
0.0
 11
71.923900000000003
 21
83.140699999999995
 31
0.0
  0
ARC
  5
169
  8
_________1
 62
     7
 10
72.978307999999984
 20
77.28755799999999
 30
0.0
 40
0.145622
 50
272.08413000000002
 51
357.77493099999998
  0
LINE
  5
16A
  8
_________1
 62
     7
 10
59.923900000000003
 20
77.141999999999996
 30
0.0
 11
59.923900000000003
 21
77.199200000000005
 31
0.0
  0
LINE
  5
16B
  8
_________1
 62
     7
 10
59.923900000000003
 20
77.199200000000005
 30
0.0
 11
59.923900000000003
 21
77.259200000000007
 31
0.0
  0
LINE
  5
16C
  8
_________1
 62
     7
 10
59.923900000000003
 20
83.140699999999995
 30
0.0
 11
59.923900000000003
 21
77.259200000000007
 31
0.0
  0
LINE
  5
16D
  8
_________1
 62
     7
 10
71.923900000000003
 20
77.620900000000006
 30
0.0
 11
71.923900000000003
 21
77.5809
 31
0.0
  0
LINE
  5
16E
  8
_________1
 62
     7
 10
73.063500000000005
 20
77.5809
 30
0.0
 11
71.923900000000003
 21
77.5809
 31
0.0
  0
LINE
  5
16F
  8
_________1
 62
     7
 10
72.983599999999996
 20
77.141999999999996
 30
0.0
 11
59.923900000000003
 21
77.141999999999996
 31
0.0
  0
LINE
  5
170
  8
_________1
 62
     7
 10
71.923900000000003
 20
83.140699999999995
 30
0.0
 11
59.923900000000003
 21
83.140699999999995
 31
0.0
  0
LINE
  5
171
  8
_________1
 62
     7
 10
73.123800000000003
 20
77.281899999999993
 30
0.0
 11
73.123800000000003
 21
77.339100000000002
 31
0.0
  0
LINE
  5
172
  8
_________1
 62
     7
 10
73.123800000000003
 20
77.5809
 30
0.0
 11
73.063500000000005
 21
77.5809
 31
0.0
  0
LINE
  5
173
  8
_________1
 62
     7
 10
73.123800000000003
 20
77.5809
 30
0.0
 11
73.123800000000003
 21
77.339100000000002
 31
0.0
  0
LINE
  5
174
  8
_________1
 62
     7
 10
71.923900000000003
 20
83.140699999999995
 30
0.0
 11
71.923900000000003
 21
83.083500000000001
 31
0.0
  0
LINE
  5
175
  8
_________1
 62
     7
 10
71.923900000000003
 20
83.083500000000001
 30
0.0
 11
71.923900000000003
 21
83.023499999999999
 31
0.0
  0
LINE
  5
176
  8
_________1
 62
     7
 10
71.923900000000003
 20
83.023499999999999
 30
0.0
 11
71.923900000000003
 21
77.620900000000006
 31
0.0
  0
LINE
  5
177
  8
_________1
 62
     7
 10
121.761
 20
228.21600000000001
 30
0.0
 11
121.761
 21
215.01499999999999
 31
0.0
  0
LINE
  5
178
  8
_________1
 62
     7
 10
127.761
 20
228.21600000000001
 30
0.0
 11
121.761
 21
228.21600000000001
 31
0.0
  0
LINE
  5
179
  8
_________1
 62
     7
 10
127.761
 20
215.01499999999999
 30
0.0
 11
127.761
 21
228.21600000000001
 31
0.0
  0
LINE
  5
17A
  8
_________1
 62
     7
 10
121.761
 20
215.01499999999999
 30
0.0
 11
127.761
 21
215.01499999999999
 31
0.0
  0
INSERT
  5
17B
  8
_________1
 62
     7
  2
AIGNBL02010007
 10
0.0
 20
0.0
 30
0.0
  0
INSERT
  5
17C
  8
_________1
 62
     7
  2
AIGNBL02010008
 10
0.0
 20
0.0
 30
0.0
  0
LINE
  5
17D
  8
_________1
  6
AIGENLINE002
 62
     7
 10
59.923900000000003
 20
214.90199999999999
 30
0.0
 11
59.923900000000003
 21
60.266500000000001
 31
0.0
  0
TEXT
  5
17E
  8
_________2
 62
     7
 10
20.856200000000001
 20
52.372700000000002
 30
0.0
 40
4.2168199999999993
  1
※浴室設置禁止
 41
0.5
  0
TEXT
  5
17F
  8
_________2
 62
     7
 10
20.856200000000001
 20
45.873100000000001
 30
0.0
 40
4.2168199999999993
  1
※デザイン上、角部がシャープになっていますので、ご使用には十分ご注意ください。
 41
0.5
  0
LINE
  5
180
  8
_________2
 62
     7
 10
205.30099999999999
 20
127.411
 30
0.0
 11
183.55000000000001
 21
127.411
 31
0.0
  0
LINE
  5
181
  8
_________2
 62
     7
 10
100.3
 20
-4.0910799999999998
 30
0.0
 11
100.3
 21
-21.071400000000001
 31
0.0
  0
LINE
  5
182
  8
_________2
 62
     7
 10
100.3
 20
275.93099999999998
 30
0.0
 11
100.3
 21
258.911
 31
0.0
  0
LINE
  5
183
  8
_________2
 62
     7
 10
17.049499999999998
 20
127.411
 30
0.0
 11
-4.70052
 21
127.411
 31
0.0
  0
INSERT
  5
184
  8
_________2
 62
     7
  2
AIGNBL03010002
 10
0.0
 20
0.0
 30
0.0
  0
TEXT
  5
185
  8
_________2
 62
     7
 10
104.605
 20
1.6794899999999999
 30
0.0
 40
3.0923400000000001
  1
図番
 41
0.5
  0
LINE
  5
186
  8
_________2
 62
     7
 10
103.55
 20
5.9087199999999989
 30
0.0
 11
183.55099999999999
 21
5.9087199999999989
 31
0.0
  0
TEXT
  5
187
  8
_________2
 62
     7
 10
104.605
 20
11.6793
 30
0.0
 40
3.0923400000000001
  1
品番
 41
0.5
  0
TEXT
  5
188
  8
_________2
 62
     7
 10
104.605
 20
31.818100000000001
 30
0.0
 40
3.0923400000000001
  1
名称
 41
0.5
  0
TEXT
  5
189
  8
_________2
 62
     7
 10
91.845058333333341
 20
26.821999999999999
 30
0.0
 40
3.6545800000000002
  1
mm
 41
0.5
 72
     1
 11
93.367800000000003
 21
26.821999999999999
 31
0.0
  0
TEXT
  5
18A
  8
_________2
 62
     7
 10
85.643199999999993
 20
31.818100000000001
 30
0.0
 40
3.0923400000000001
  1
単位
 41
0.5
  0
TEXT
  5
18B
  8
_________2
 62
     7
 10
85.643199999999993
 20
19.410799999999998
 30
0.0
 40
3.0923400000000001
  1
尺度
 41
0.5
  0
TEXT
  5
18C
  8
_________2
 62
     7
 10
90.548758666666686
 20
13.2179
 30
0.0
 40
3.6545800000000002
  1
1 ： 5
 41
0.5
 72
     1
 11
93.959699999999998
 21
13.2179
 31
0.0
  0
TEXT
  5
18D
  8
_________2
 62
     7
 10
137.64644999999999
 20
9.1078600000000005
 30
0.0
 40
3.9357000000000002
  1
EC18600
 41
0.5
 72
     1
 11
143.55000000000001
 21
9.1078600000000005
 31
0.0
  0
TEXT
  5
18E
  8
_________2
 62
     7
 10
137.64644999999999
 20
-0.8926299999999999
 30
0.0
 40
3.9357000000000002
  1
EC18600
 41
0.5
 72
     1
 11
143.55000000000001
 21
-0.8926299999999999
 31
0.0
  0
TEXT
  5
18F
  8
_________2
 62
     7
 10
20.856200000000001
 20
39.373600000000003
 30
0.0
 40
4.2168199999999993
  1
※壁取付部には厚さ30mm以上の補強木を入れてください。
 41
0.5
  0
TEXT
  5
190
  8
_________2
 62
     7
 10
109.179
 20
24.2257
 30
0.0
 40
3.9357000000000002
  1
リエゾン　タオルバー
 41
0.5
  0
TEXT
  5
191
  8
_________2
 62
     7
 10
39.364390666666672
 20
13.603
 30
0.0
 40
3.6545800000000002
  1
井伊
 41
0.5
 72
     1
 11
41.313499999999998
 21
13.603
 31
0.0
  0
TEXT
  5
192
  8
_________2
 62
     7
 10
20.790090666666661
 20
13.603
 30
0.0
 40
3.6545800000000002
  1
近藤
 41
0.5
 72
     1
 11
22.7392
 21
13.603
 31
0.0
  0
TEXT
  5
193
  8
_________2
 62
     7
 10
67.785399999999996
 20
13.2179
 30
0.0
 40
3.6545800000000002
  1
20.02.03
 41
0.5
  0
TEXT
  5
194
  8
_________2
 62
     7
 10
66.593100000000007
 20
19.410799999999998
 30
0.0
 40
3.0923400000000001
  1
日付
 41
0.5
  0
TEXT
  5
195
  8
_________2
 62
     7
 10
29.639399999999998
 20
19.410799999999998
 30
0.0
 40
3.0923400000000001
  1
検図
 41
0.5
  0
TEXT
  5
196
  8
_________2
 62
     7
 10
18.021100000000001
 20
5.21143
 30
0.0
 40
3.0923400000000001
  1
備考
 41
0.5
  0
TEXT
  5
197
  8
_________2
 62
     7
 10
18.021100000000001
 20
19.410799999999998
 30
0.0
 40
3.0923400000000001
  1
製図
 41
0.5
  0
TEXT
  5
198
  8
_________2
 62
     7
 10
23.788465333333338
 20
27.936800000000002
 30
0.0
 40
4.4979399999999989
  1
セラトレーディング株式会社
 41
0.5
 72
     1
 11
41.180500000000002
 21
27.936800000000002
 31
0.0
  0
LINE
  5
199
  8
_________2
 62
     7
 10
183.55099999999999
 20
-4.0910799999999998
 30
0.0
 11
17.049499999999998
 21
-4.0910799999999998
 31
0.0
  0
LINE
  5
19A
  8
_________2
 62
     7
 10
17.049499999999998
 20
-4.0910799999999998
 30
0.0
 11
17.049499999999998
 21
258.911
 31
0.0
  0
LINE
  5
19B
  8
_________2
 62
     7
 10
17.049499999999998
 20
258.911
 30
0.0
 11
183.55099999999999
 21
258.911
 31
0.0
  0
LINE
  5
19C
  8
_________2
 62
     7
 10
183.55099999999999
 20
258.911
 30
0.0
 11
183.55099999999999
 21
-4.0910799999999998
 31
0.0
  0
LINE
  5
19D
  8
_________2
 62
     7
 10
65.549599999999998
 20
9.4089600000000004
 30
0.0
 11
65.549599999999998
 21
35.908799999999999
 31
0.0
  0
LINE
  5
19E
  8
_________2
 62
     7
 10
84.549700000000016
 20
9.4089600000000004
 30
0.0
 11
84.549700000000016
 21
35.908799999999999
 31
0.0
  0
LINE
  5
19F
  8
_________2
 62
     7
 10
103.55
 20
-4.0910799999999998
 30
0.0
 11
103.55
 21
35.908799999999999
 31
0.0
  0
LINE
  5
1A0
  8
_________2
 62
     7
 10
28.549299999999999
 20
9.4089600000000004
 30
0.0
 11
28.549299999999999
 21
23.409199999999998
 31
0.0
  0
LINE
  5
1A1
  8
_________2
 62
     7
 10
17.049499999999998
 20
9.4089600000000004
 30
0.0
 11
103.55
 21
9.4089600000000004
 31
0.0
  0
LINE
  5
1A2
  8
_________2
 62
     7
 10
17.049499999999998
 20
23.409199999999998
 30
0.0
 11
103.55
 21
23.409199999999998
 31
0.0
  0
LINE
  5
1A3
  8
_________2
 62
     7
 10
103.55
 20
15.9085
 30
0.0
 11
183.55099999999999
 21
15.9085
 31
0.0
  0
LINE
  5
1A4
  8
_________2
 62
     7
 10
17.049499999999998
 20
35.908799999999999
 30
0.0
 11
183.55099999999999
 21
35.908799999999999
 31
0.0
  0
ENDSEC
  0
EOF
