  0
SECTION
  2
HEADER
  9
$ACADVER
  1
AC1009
  9
$INSBASE
 10
0.0
 20
0.0
 30
0.0
  9
$EXTMIN
 10
-4.70052
 20
-21.071400000000001
 30
0.0
  9
$EXTMAX
 10
205.30099999999999
 20
275.93099999999998
 30
0.0
  9
$LIMMIN
 10
0.0
 20
0.0
  9
$LIMMAX
 10
12.0
 20
9.0
  9
$ORTHOMODE
 70
     0
  9
$REGENMODE
 70
     1
  9
$FILLMODE
 70
     1
  9
$QTEXTMODE
 70
     0
  9
$MIRRTEXT
 70
     1
  9
$DRAGMODE
 70
     2
  9
$LTSCALE
 40
1.0
  9
$OSMODE
 70
    37
  9
$ATTMODE
 70
     1
  9
$TEXTSIZE
 40
0.0
  9
$TRACEWID
 40
0.05
  9
$TEXTSTYLE
  7
STANDARD
  9
$CLAYER
  8
0
  9
$CELTYPE
  6
CONTINUOUS
  9
$CECOLOR
 62
   256
  9
$DIMSCALE
 40
1.0
  9
$DIMASZ
 40
0.18
  9
$DIMEXO
 40
0.0625
  9
$DIMDLI
 40
0.38
  9
$DIMRND
 40
0.0
  9
$DIMDLE
 40
0.0
  9
$DIMEXE
 40
0.18
  9
$DIMTP
 40
0.0
  9
$DIMTM
 40
0.0
  9
$DIMTXT
 40
0.18
  9
$DIMCEN
 40
0.09
  9
$DIMTSZ
 40
0.0
  9
$DIMTOL
 70
     0
  9
$DIMLIM
 70
     0
  9
$DIMTIH
 70
     1
  9
$DIMTOH
 70
     1
  9
$DIMSE1
 70
     0
  9
$DIMSE2
 70
     0
  9
$DIMTAD
 70
     0
  9
$DIMZIN
 70
     0
  9
$DIMBLK
  1

  9
$DIMASO
 70
     1
  9
$DIMSHO
 70
     1
  9
$DIMPOST
  1

  9
$DIMAPOST
  1

  9
$DIMALT
 70
     0
  9
$DIMALTD
 70
     2
  9
$DIMALTF
 40
25.399999999999999
  9
$DIMLFAC
 40
1.0
  9
$DIMTOFL
 70
     0
  9
$DIMTVP
 40
0.0
  9
$DIMTIX
 70
     0
  9
$DIMSOXD
 70
     0
  9
$DIMSAH
 70
     0
  9
$DIMBLK1
  1

  9
$DIMBLK2
  1

  9
$DIMSTYLE
  2
STANDARD
  9
$DIMCLRD
 70
     0
  9
$DIMCLRE
 70
     0
  9
$DIMCLRT
 70
     0
  9
$DIMTFAC
 40
1.0
  9
$DIMGAP
 40
0.09
  9
$LUNITS
 70
     2
  9
$LUPREC
 70
     4
  9
$SKETCHINC
 40
0.1
  9
$FILLETRAD
 40
0.0
  9
$AUNITS
 70
     0
  9
$AUPREC
 70
     0
  9
$MENU
  1
.
  9
$ELEVATION
 40
0.0
  9
$PELEVATION
 40
0.0
  9
$THICKNESS
 40
0.0
  9
$LIMCHECK
 70
     0
  9
$BLIPMODE
 70
     0
  9
$CHAMFERA
 40
0.0
  9
$CHAMFERB
 40
0.0
  9
$SKPOLY
 70
     0
  9
$TDCREATE
 40
2444972.375
  9
$TDUPDATE
 40
2458941.2484725928
  9
$TDINDWG
 40
0.0000415856
  9
$TDUSRTIMER
 40
0.0000415856
  9
$USRTIMER
 70
     1
  9
$ANGBASE
 50
0.0
  9
$ANGDIR
 70
     0
  9
$PDMODE
 70
     0
  9
$PDSIZE
 40
0.0
  9
$PLINEWID
 40
0.0
  9
$COORDS
 70
     1
  9
$SPLFRAME
 70
     0
  9
$SPLINETYPE
 70
     6
  9
$SPLINESEGS
 70
     8
  9
$ATTDIA
 70
     1
  9
$ATTREQ
 70
     1
  9
$HANDLING
 70
     1
  9
$HANDSEED
  5
2B4
  9
$SURFTAB1
 70
     6
  9
$SURFTAB2
 70
     6
  9
$SURFTYPE
 70
     6
  9
$SURFU
 70
     6
  9
$SURFV
 70
     6
  9
$UCSNAME
  2

  9
$UCSORG
 10
0.0
 20
0.0
 30
0.0
  9
$UCSXDIR
 10
1.0
 20
0.0
 30
0.0
  9
$UCSYDIR
 10
0.0
 20
1.0
 30
0.0
  9
$PUCSNAME
  2

  9
$PUCSORG
 10
0.0
 20
0.0
 30
0.0
  9
$PUCSXDIR
 10
1.0
 20
0.0
 30
0.0
  9
$PUCSYDIR
 10
0.0
 20
1.0
 30
0.0
  9
$USERI1
 70
     0
  9
$USERI2
 70
     0
  9
$USERI3
 70
     0
  9
$USERI4
 70
     0
  9
$USERI5
 70
     0
  9
$USERR1
 40
0.0
  9
$USERR2
 40
0.0
  9
$USERR3
 40
0.0
  9
$USERR4
 40
0.0
  9
$USERR5
 40
0.0
  9
$WORLDVIEW
 70
     1
  9
$SHADEDGE
 70
     3
  9
$SHADEDIF
 70
    70
  9
$TILEMODE
 70
     1
  9
$MAXACTVP
 70
    48
  9
$PLIMCHECK
 70
     0
  9
$PEXTMIN
 10
1.0000000000000000E+020
 20
1.0000000000000000E+020
 30
1.0000000000000000E+020
  9
$PEXTMAX
 10
-1.0000000000000000E+020
 20
-1.0000000000000000E+020
 30
-1.0000000000000000E+020
  9
$PLIMMIN
 10
0.0
 20
0.0
  9
$PLIMMAX
 10
12.0
 20
9.0
  9
$UNITMODE
 70
     0
  9
$VISRETAIN
 70
     1
  9
$PLINEGEN
 70
     0
  9
$PSLTSCALE
 70
     1
  0
ENDSEC
  0
SECTION
  2
TABLES
  0
TABLE
  2
VPORT
 70
     1
  0
VPORT
  2
*ACTIVE
 70
     0
 10
0.0
 20
0.0
 11
1.0
 21
1.0
 12
154.64614572345729
 22
127.4298
 13
0.0
 23
0.0
 14
1.0
 24
1.0
 15
0.0
 25
0.0
 16
0.0
 26
0.0
 36
1.0
 17
0.0
 27
0.0
 37
0.0
 40
204.78382598709459
 41
2.8015873015873001
 42
50.0
 43
0.0
 44
0.0
 50
0.0
 51
0.0
 71
     0
 72
   100
 73
     1
 74
     1
 75
     0
 76
     0
 77
     0
 78
     0
  0
ENDTAB
  0
TABLE
  2
LTYPE
 70
     4
  0
LTYPE
  2
CONTINUOUS
 70
     0
  3
Solid line
 72
    65
 73
     0
 40
0.0
  0
LTYPE
  2
AIGENLINE001
 70
     0
  3
generate AI->DXF Converter
 72
    65
 73
     4
 40
5.8561449999999988
 49
3.5278
 49
-0.776115
 49
0.776115
 49
-0.776115
  0
LTYPE
  2
AIGENLINE002
 70
     0
  3
generate AI->DXF Converter
 72
    65
 73
     6
 40
7.4083750000000004
 49
3.5278
 49
-0.776115
 49
0.776115
 49
-0.776115
 49
0.776115
 49
-0.776115
  0
LTYPE
  2
AIGENLINE003
 70
     0
  3
generate AI->DXF Converter
 72
    65
 73
     2
 40
1.5522299999999991
 49
0.776115
 49
-0.776115
  0
ENDTAB
  0
TABLE
  2
LAYER
 70
     4
  0
LAYER
  2
0
 70
     0
 62
     7
  6
CONTINUOUS
  0
LAYER
  2
____
 70
     0
 62
     7
  6
CONTINUOUS
  0
LAYER
  2
_________1
 70
     0
 62
     7
  6
CONTINUOUS
  0
LAYER
  2
_________2
 70
     0
 62
     7
  6
CONTINUOUS
  0
ENDTAB
  0
TABLE
  2
STYLE
 70
     1
  0
STYLE
  2
STANDARD
 70
     0
 40
0.0
 41
0.0
 50
0.0
 71
     0
 42
0.0
  3
TXT
  4
EXTFONT.SHX
  0
ENDTAB
  0
TABLE
  2
VIEW
 70
     0
  0
ENDTAB
  0
TABLE
  2
UCS
 70
     0
  0
ENDTAB
  0
TABLE
  2
APPID
 70
     3
  0
APPID
  2
ACAD
 70
     0
  0
APPID
  2
ACAD_NAV_VCDISPLAY
 70
     0
  0
APPID
  2
ACAD_MLEADERVER
 70
     0
  0
ENDTAB
  0
TABLE
  2
DIMSTYLE
 70
     1
  0
DIMSTYLE
  2
STANDARD
 70
     0
  3

  4

  5

  6

  7

 40
1.0
 41
0.18
 42
0.0625
 43
0.38
 44
0.18
 45
0.0
 46
0.0
 47
0.0
 48
0.0
140
0.18
141
0.09
142
0.0
143
25.399999999999999
144
1.0
145
0.0
146
1.0
147
0.09
 71
     0
 72
     0
 73
     1
 74
     1
 75
     0
 76
     0
 77
     0
 78
     0
170
     0
171
     2
172
     0
173
     0
174
     0
175
     0
176
     0
177
     0
178
     0
  0
ENDTAB
  0
ENDSEC
  0
SECTION
  2
BLOCKS
  0
BLOCK
  8
0
  2
$MODEL_SPACE
 70
     0
 10
0.0
 20
0.0
 30
0.0
  3
$MODEL_SPACE
  1

  0
ENDBLK
  5
1A
  8
0
  0
BLOCK
 67
     1
  8
0
  2
$PAPER_SPACE
 70
     0
 10
0.0
 20
0.0
 30
0.0
  3
$PAPER_SPACE
  1

  0
ENDBLK
  5
17
 67
     1
  8
0
  0
BLOCK
  8
____
  2
AIGNBL01010002
 70
     0
 10
0.0
 20
0.0
 30
0.0
  3
AIGNBL01010002
  1

  0
TEXT
  5
28
  8
____
 62
     7
 10
111.356646
 20
225.143
 30
0.0
 40
3.0923400000000001
  1
壁仕上げ面
 41
0.5
 72
     1
 11
115.789
 21
225.143
 31
0.0
  0
ENDBLK
  5
29
  8
____
  0
BLOCK
  8
____
  2
AIGNBL01010003
 70
     0
 10
0.0
 20
0.0
 30
0.0
  3
AIGNBL01010003
  1

  0
TEXT
  5
2C
  8
____
 62
     7
 10
59.724600000000002
 20
204.25899999999999
 30
0.0
 40
3.0923400000000001
  1
壁仕上げ面
 41
0.5
  0
ENDBLK
  5
2D
  8
____
  0
BLOCK
  8
____
  2
AIGNBL01010004
 70
     0
 10
0.0
 20
0.0
 30
0.0
  3
AIGNBL01010004
  1

  0
TEXT
  5
30
  8
____
 62
     7
 10
146.65899999999999
 20
237.408525
 30
0.0
 40
3.0923400000000001
  1
48
 50
90.0
 41
0.5
 72
     1
 11
146.65899999999999
 21
238.697
 31
0.0
  0
ENDBLK
  5
31
  8
____
  0
BLOCK
  8
____
  2
AIGNBL01010005
 70
     0
 10
0.0
 20
0.0
 30
0.0
  3
AIGNBL01010005
  1

  0
TEXT
  5
34
  8
____
 62
     7
 10
32.711199999999998
 20
75.535899999999984
 30
0.0
 40
3.0923400000000001
  1
メーカーロゴ
 41
0.5
  0
ENDBLK
  5
35
  8
____
  0
BLOCK
  8
____
  2
AIGNBL01010006
 70
     0
 10
0.0
 20
0.0
 30
0.0
  3
AIGNBL01010006
  1

  0
TEXT
  5
38
  8
____
 62
     7
 10
128.48174499999999
 20
69.02600000000001
 30
0.0
 40
3.0923400000000001
  1
29.5
 41
0.5
 72
     1
 11
130.80099999999999
 21
69.02600000000001
 31
0.0
  0
ENDBLK
  5
39
  8
____
  0
BLOCK
  8
____
  2
AIGNBL01010007
 70
     0
 10
0.0
 20
0.0
 30
0.0
  3
AIGNBL01010007
  1

  0
TEXT
  5
3C
  8
____
 62
     7
 10
92.000799999999984
 20
135.24343999999999
 30
0.0
 40
3.0923400000000001
  1
468
 50
90.0
 41
0.5
 72
     1
 11
92.000799999999984
 21
137.30500000000001
 31
0.0
  0
ENDBLK
  5
3D
  8
____
  0
BLOCK
  8
____
  2
AIGNBL01010008
 70
     0
 10
0.0
 20
0.0
 30
0.0
  3
AIGNBL01010008
  1

  0
TEXT
  5
40
  8
____
 62
     7
 10
65.793850000000006
 20
69.02600000000001
 30
0.0
 40
3.0923400000000001
  1
100.5
 41
0.5
 72
     1
 11
68.370800000000003
 21
69.02600000000001
 31
0.0
  0
ENDBLK
  5
41
  8
____
  0
BLOCK
  8
____
  2
AIGNBL01010009
 70
     0
 10
0.0
 20
0.0
 30
0.0
  3
AIGNBL01010009
  1

  0
TEXT
  5
44
  8
____
 62
     7
 10
146.65899999999999
 20
134.94044
 30
0.0
 40
3.0923400000000001
  1
438
 50
90.0
 41
0.5
 72
     1
 11
146.65899999999999
 21
137.00200000000001
 31
0.0
  0
ENDBLK
  5
45
  8
____
  0
BLOCK
  8
____
  2
AIGNBL0101000A
 70
     0
 10
0.0
 20
0.0
 30
0.0
  3
AIGNBL0101000A
  1

  0
TEXT
  5
48
  8
____
 62
     7
 10
73.627200000000002
 20
242.62100000000001
 30
0.0
 40
3.0923400000000001
  1
（%%c8\U+00D750 樹脂プラグ付）
 41
0.5
  0
ENDBLK
  5
49
  8
____
  0
BLOCK
  8
____
  2
AIGNBL0101000B
 70
     0
 10
0.0
 20
0.0
 30
0.0
  3
AIGNBL0101000B
  1

  0
TEXT
  5
4C
  8
____
 62
     7
 10
73.627200000000002
 20
247.27500000000001
 30
0.0
 40
3.0923400000000001
  1
%%c5.5\U+00D770 十字穴付SUS皿頭タッピングネジ 2本
 41
0.5
  0
ENDBLK
  5
4D
  8
____
  0
BLOCK
  8
_________1
  2
AIGNBL02010002
 70
     0
 10
0.0
 20
0.0
 30
0.0
  3
AIGNBL02010002
  1

  0
LINE
  5
50
  8
_________1
 62
     7
 10
45.078000000000003
 20
83.241600000000005
 30
0.0
 11
43.808100000000003
 21
82.554299999999998
 31
0.0
  0
LINE
  5
51
  8
_________1
 62
     7
 10
45.078000000000003
 20
81.867000000000004
 30
0.0
 11
43.808100000000003
 21
82.554299999999998
 31
0.0
  0
LINE
  5
52
  8
_________1
 62
     7
 10
55.808100000000003
 20
83.241600000000005
 30
0.0
 11
45.078000000000003
 21
83.241600000000005
 31
0.0
  0
LINE
  5
53
  8
_________1
 62
     7
 10
55.808100000000003
 20
81.867000000000004
 30
0.0
 11
45.078000000000003
 21
81.867000000000004
 31
0.0
  0
LINE
  5
54
  8
_________1
  6
AIGENLINE001
 62
     7
 10
58.25
 20
82.554299999999998
 30
0.0
 11
42.91879999999999
 21
82.554299999999998
 31
0.0
  0
LINE
  5
55
  8
_________1
 62
     7
 10
54.892299999999999
 20
83.241600000000005
 30
0.0
 11
55.293399999999998
 21
81.866699999999994
 31
0.0
  0
LINE
  5
56
  8
_________1
 62
     7
 10
54.0548
 20
83.241600000000005
 30
0.0
 11
54.4559
 21
81.866699999999994
 31
0.0
  0
LINE
  5
57
  8
_________1
 62
     7
 10
53.217199999999998
 20
83.241600000000005
 30
0.0
 11
53.618400000000001
 21
81.866699999999994
 31
0.0
  0
LINE
  5
58
  8
_________1
 62
     7
 10
52.3797
 20
83.241600000000005
 30
0.0
 11
52.780900000000003
 21
81.866699999999994
 31
0.0
  0
LINE
  5
59
  8
_________1
 62
     7
 10
51.542200000000001
 20
83.241600000000005
 30
0.0
 11
51.943399999999997
 21
81.866699999999994
 31
0.0
  0
LINE
  5
5A
  8
_________1
 62
     7
 10
50.704700000000003
 20
83.241600000000005
 30
0.0
 11
51.105899999999998
 21
81.866699999999994
 31
0.0
  0
LINE
  5
5B
  8
_________1
 62
     7
 10
49.867199999999997
 20
83.241600000000005
 30
0.0
 11
50.268399999999993
 21
81.866699999999994
 31
0.0
  0
LINE
  5
5C
  8
_________1
 62
     7
 10
49.029699999999991
 20
83.241600000000005
 30
0.0
 11
49.430900000000001
 21
81.866699999999994
 31
0.0
  0
LINE
  5
5D
  8
_________1
 62
     7
 10
48.1922
 20
83.241600000000005
 30
0.0
 11
48.593400000000003
 21
81.866699999999994
 31
0.0
  0
LINE
  5
5E
  8
_________1
 62
     7
 10
47.354700000000001
 20
83.241600000000005
 30
0.0
 11
47.755899999999997
 21
81.866699999999994
 31
0.0
  0
LINE
  5
5F
  8
_________1
 62
     7
 10
46.517200000000003
 20
83.241600000000005
 30
0.0
 11
46.918399999999998
 21
81.866699999999994
 31
0.0
  0
LINE
  5
60
  8
_________1
 62
     7
 10
45.67969999999999
 20
83.241600000000005
 30
0.0
 11
46.080899999999993
 21
81.866699999999994
 31
0.0
  0
LINE
  5
61
  8
_________1
 62
     7
 10
44.874200000000002
 20
83.131399999999999
 30
0.0
 11
45.243299999999991
 21
81.866699999999994
 31
0.0
  0
ENDBLK
  5
62
  8
_________1
  0
BLOCK
  8
_________1
  2
AIGNBL02010003
 70
     0
 10
0.0
 20
0.0
 30
0.0
  3
AIGNBL02010003
  1

  0
LINE
  5
65
  8
_________1
 62
     7
 10
45.078000000000003
 20
192.74199999999999
 30
0.0
 11
43.808100000000003
 21
192.05500000000001
 31
0.0
  0
LINE
  5
66
  8
_________1
 62
     7
 10
45.078000000000003
 20
191.36799999999999
 30
0.0
 11
43.808100000000003
 21
192.05500000000001
 31
0.0
  0
LINE
  5
67
  8
_________1
 62
     7
 10
55.808100000000003
 20
192.74199999999999
 30
0.0
 11
45.078000000000003
 21
192.74199999999999
 31
0.0
  0
LINE
  5
68
  8
_________1
 62
     7
 10
55.808100000000003
 20
191.36799999999999
 30
0.0
 11
45.078000000000003
 21
191.36799999999999
 31
0.0
  0
LINE
  5
69
  8
_________1
  6
AIGENLINE001
 62
     7
 10
58.25
 20
192.05500000000001
 30
0.0
 11
42.91879999999999
 21
192.05500000000001
 31
0.0
  0
LINE
  5
6A
  8
_________1
 62
     7
 10
55.808100000000003
 20
191.36799999999999
 30
0.0
 11
55.808100000000003
 21
192.74199999999999
 31
0.0
  0
LINE
  5
6B
  8
_________1
 62
     7
 10
54.892299999999999
 20
192.74199999999999
 30
0.0
 11
55.293399999999998
 21
191.36699999999999
 31
0.0
  0
LINE
  5
6C
  8
_________1
 62
     7
 10
54.0548
 20
192.74199999999999
 30
0.0
 11
54.4559
 21
191.36699999999999
 31
0.0
  0
LINE
  5
6D
  8
_________1
 62
     7
 10
53.217199999999998
 20
192.74199999999999
 30
0.0
 11
53.618400000000001
 21
191.36699999999999
 31
0.0
  0
LINE
  5
6E
  8
_________1
 62
     7
 10
52.3797
 20
192.74199999999999
 30
0.0
 11
52.780900000000003
 21
191.36699999999999
 31
0.0
  0
LINE
  5
6F
  8
_________1
 62
     7
 10
51.542200000000001
 20
192.74199999999999
 30
0.0
 11
51.943399999999997
 21
191.36699999999999
 31
0.0
  0
LINE
  5
70
  8
_________1
 62
     7
 10
50.704700000000003
 20
192.74199999999999
 30
0.0
 11
51.105899999999998
 21
191.36699999999999
 31
0.0
  0
LINE
  5
71
  8
_________1
 62
     7
 10
49.867199999999997
 20
192.74199999999999
 30
0.0
 11
50.268399999999993
 21
191.36699999999999
 31
0.0
  0
LINE
  5
72
  8
_________1
 62
     7
 10
49.029699999999991
 20
192.74199999999999
 30
0.0
 11
49.430900000000001
 21
191.36699999999999
 31
0.0
  0
LINE
  5
73
  8
_________1
 62
     7
 10
48.1922
 20
192.74199999999999
 30
0.0
 11
48.593400000000003
 21
191.36699999999999
 31
0.0
  0
LINE
  5
74
  8
_________1
 62
     7
 10
47.354700000000001
 20
192.74199999999999
 30
0.0
 11
47.755899999999997
 21
191.36699999999999
 31
0.0
  0
LINE
  5
75
  8
_________1
 62
     7
 10
46.517200000000003
 20
192.74199999999999
 30
0.0
 11
46.918399999999998
 21
191.36699999999999
 31
0.0
  0
LINE
  5
76
  8
_________1
 62
     7
 10
45.67969999999999
 20
192.74199999999999
 30
0.0
 11
46.080899999999993
 21
191.36699999999999
 31
0.0
  0
LINE
  5
77
  8
_________1
 62
     7
 10
44.874200000000002
 20
192.63200000000001
 30
0.0
 11
45.243299999999991
 21
191.36699999999999
 31
0.0
  0
ENDBLK
  5
78
  8
_________1
  0
BLOCK
  8
_________1
  2
AIGNBL02010004
 70
     0
 10
0.0
 20
0.0
 30
0.0
  3
AIGNBL02010004
  1

  0
LINE
  5
7B
  8
_________1
 62
     7
 10
131.464
 20
243.428
 30
0.0
 11
130.77699999999999
 21
244.697
 31
0.0
  0
LINE
  5
7C
  8
_________1
 62
     7
 10
130.09
 20
243.428
 30
0.0
 11
130.77699999999999
 21
244.697
 31
0.0
  0
LINE
  5
7D
  8
_________1
 62
     7
 10
131.464
 20
232.697
 30
0.0
 11
131.464
 21
243.428
 31
0.0
  0
LINE
  5
7E
  8
_________1
 62
     7
 10
130.09
 20
232.697
 30
0.0
 11
130.09
 21
243.428
 31
0.0
  0
LINE
  5
7F
  8
_________1
  6
AIGENLINE001
 62
     7
 10
130.77699999999999
 20
230.255
 30
0.0
 11
130.77699999999999
 21
245.58699999999999
 31
0.0
  0
LINE
  5
80
  8
_________1
 62
     7
 10
131.464
 20
233.613
 30
0.0
 11
130.089
 21
233.21199999999999
 31
0.0
  0
LINE
  5
81
  8
_________1
 62
     7
 10
131.464
 20
234.45099999999999
 30
0.0
 11
130.089
 21
234.05000000000001
 31
0.0
  0
LINE
  5
82
  8
_________1
 62
     7
 10
131.464
 20
235.28800000000001
 30
0.0
 11
130.089
 21
234.887
 31
0.0
  0
LINE
  5
83
  8
_________1
 62
     7
 10
131.464
 20
236.126
 30
0.0
 11
130.089
 21
235.72499999999999
 31
0.0
  0
LINE
  5
84
  8
_________1
 62
     7
 10
131.464
 20
236.96299999999999
 30
0.0
 11
130.089
 21
236.56200000000001
 31
0.0
  0
LINE
  5
85
  8
_________1
 62
     7
 10
131.464
 20
237.80099999999999
 30
0.0
 11
130.089
 21
237.40000000000001
 31
0.0
  0
LINE
  5
86
  8
_________1
 62
     7
 10
131.464
 20
238.63800000000001
 30
0.0
 11
130.089
 21
238.23699999999999
 31
0.0
  0
LINE
  5
87
  8
_________1
 62
     7
 10
131.464
 20
239.476
 30
0.0
 11
130.089
 21
239.07499999999999
 31
0.0
  0
LINE
  5
88
  8
_________1
 62
     7
 10
131.464
 20
240.31299999999999
 30
0.0
 11
130.089
 21
239.91200000000001
 31
0.0
  0
LINE
  5
89
  8
_________1
 62
     7
 10
131.464
 20
241.15100000000001
 30
0.0
 11
130.089
 21
240.75
 31
0.0
  0
LINE
  5
8A
  8
_________1
 62
     7
 10
131.464
 20
241.988
 30
0.0
 11
130.089
 21
241.58699999999999
 31
0.0
  0
LINE
  5
8B
  8
_________1
 62
     7
 10
131.464
 20
242.82599999999999
 30
0.0
 11
130.089
 21
242.42500000000001
 31
0.0
  0
LINE
  5
8C
  8
_________1
 62
     7
 10
131.35400000000001
 20
243.631
 30
0.0
 11
130.089
 21
243.262
 31
0.0
  0
ENDBLK
  5
8D
  8
_________1
  0
BLOCK
  8
_________1
  2
AIGNBL02010005
 70
     0
 10
0.0
 20
0.0
 30
0.0
  3
AIGNBL02010005
  1

  0
LINE
  5
90
  8
_________1
 62
     7
 10
132.25399999999999
 20
67.741
 30
0.0
 11
134.46600000000001
 21
68.333600000000004
 31
0.0
  0
LINE
  5
91
  8
_________1
 62
     7
 10
134.46600000000001
 20
68.333600000000004
 30
0.0
 11
132.25399999999999
 21
68.926100000000005
 31
0.0
  0
LINE
  5
92
  8
_________1
 62
     7
 10
132.25399999999999
 20
68.926100000000005
 30
0.0
 11
132.25399999999999
 21
67.741
 31
0.0
  0
LINE
  5
93
  8
_________1
 62
     7
 10
129.30000000000001
 20
68.911600000000007
 30
0.0
 11
127.08799999999999
 21
68.319100000000006
 31
0.0
  0
LINE
  5
94
  8
_________1
 62
     7
 10
127.08799999999999
 20
68.319100000000006
 30
0.0
 11
129.30000000000001
 21
67.725800000000007
 31
0.0
  0
LINE
  5
95
  8
_________1
 62
     7
 10
129.30000000000001
 20
67.725800000000007
 30
0.0
 11
129.30000000000001
 21
68.911600000000007
 31
0.0
  0
LINE
  5
96
  8
_________1
 62
     7
 10
134.464
 20
68.326000000000008
 30
0.0
 11
127.089
 21
68.326000000000008
 31
0.0
  0
ENDBLK
  5
97
  8
_________1
  0
BLOCK
  8
_________1
  2
AIGNBL02010006
 70
     0
 10
0.0
 20
0.0
 30
0.0
  3
AIGNBL02010006
  1

  0
LINE
  5
9A
  8
_________1
 62
     7
 10
93.286199999999994
 20
193.607
 30
0.0
 11
92.693600000000004
 21
195.81899999999999
 31
0.0
  0
LINE
  5
9B
  8
_________1
 62
     7
 10
92.693600000000004
 20
195.81899999999999
 30
0.0
 11
92.101100000000002
 21
193.607
 31
0.0
  0
LINE
  5
9C
  8
_________1
 62
     7
 10
92.101100000000002
 20
193.607
 30
0.0
 11
93.286199999999994
 21
193.607
 31
0.0
  0
LINE
  5
9D
  8
_________1
 62
     7
 10
92.115499999999997
 20
81.002600000000001
 30
0.0
 11
92.708100000000002
 21
78.790899999999993
 31
0.0
  0
LINE
  5
9E
  8
_________1
 62
     7
 10
92.708100000000002
 20
78.790899999999993
 30
0.0
 11
93.300700000000006
 21
81.002600000000001
 31
0.0
  0
LINE
  5
9F
  8
_________1
 62
     7
 10
93.300700000000006
 20
81.002600000000001
 30
0.0
 11
92.115499999999997
 21
81.002600000000001
 31
0.0
  0
LINE
  5
A0
  8
_________1
 62
     7
 10
92.700900000000004
 20
195.81800000000001
 30
0.0
 11
92.700900000000004
 21
78.792199999999994
 31
0.0
  0
ENDBLK
  5
A1
  8
_________1
  0
BLOCK
  8
_________1
  2
AIGNBL02010007
 70
     0
 10
0.0
 20
0.0
 30
0.0
  3
AIGNBL02010007
  1

  0
LINE
  5
A4
  8
_________1
 62
     7
 10
58.018500000000003
 20
68.911600000000007
 30
0.0
 11
55.806800000000003
 21
68.319100000000006
 31
0.0
  0
LINE
  5
A5
  8
_________1
 62
     7
 10
55.806800000000003
 20
68.319100000000006
 30
0.0
 11
58.018500000000003
 21
67.725800000000007
 31
0.0
  0
LINE
  5
A6
  8
_________1
 62
     7
 10
58.018500000000003
 20
67.725800000000007
 30
0.0
 11
58.018500000000003
 21
68.911600000000007
 31
0.0
  0
LINE
  5
A7
  8
_________1
 62
     7
 10
78.722999999999999
 20
67.741
 30
0.0
 11
80.934799999999996
 21
68.333600000000004
 31
0.0
  0
LINE
  5
A8
  8
_________1
 62
     7
 10
80.934799999999996
 20
68.333600000000004
 30
0.0
 11
78.722999999999999
 21
68.926100000000005
 31
0.0
  0
LINE
  5
A9
  8
_________1
 62
     7
 10
78.722999999999999
 20
68.926100000000005
 30
0.0
 11
78.722999999999999
 21
67.741
 31
0.0
  0
LINE
  5
AA
  8
_________1
 62
     7
 10
55.808100000000003
 20
68.326000000000008
 30
0.0
 11
80.933400000000006
 21
68.326000000000008
 31
0.0
  0
ENDBLK
  5
AB
  8
_________1
  0
BLOCK
  8
_________1
  2
AIGNBL02010008
 70
     0
 10
0.0
 20
0.0
 30
0.0
  3
AIGNBL02010008
  1

  0
LINE
  5
AE
  8
_________1
 62
     7
 10
147.94399999999999
 20
189.542
 30
0.0
 11
147.351
 21
191.75399999999999
 31
0.0
  0
LINE
  5
AF
  8
_________1
 62
     7
 10
147.351
 20
191.75399999999999
 30
0.0
 11
146.75899999999999
 21
189.542
 31
0.0
  0
LINE
  5
B0
  8
_________1
 62
     7
 10
146.75899999999999
 20
189.542
 30
0.0
 11
147.94399999999999
 21
189.542
 31
0.0
  0
LINE
  5
B1
  8
_________1
 62
     7
 10
146.773
 20
84.462900000000005
 30
0.0
 11
147.36600000000001
 21
82.251099999999994
 31
0.0
  0
LINE
  5
B2
  8
_________1
 62
     7
 10
147.36600000000001
 20
82.251099999999994
 30
0.0
 11
147.958
 21
84.462900000000005
 31
0.0
  0
LINE
  5
B3
  8
_________1
 62
     7
 10
147.958
 20
84.462900000000005
 30
0.0
 11
146.773
 21
84.462900000000005
 31
0.0
  0
LINE
  5
B4
  8
_________1
 62
     7
 10
147.35900000000001
 20
191.75299999999999
 30
0.0
 11
147.35900000000001
 21
82.252499999999998
 31
0.0
  0
ENDBLK
  5
B5
  8
_________1
  0
BLOCK
  8
_________1
  2
AIGNBL02010009
 70
     0
 10
0.0
 20
0.0
 30
0.0
  3
AIGNBL02010009
  1

  0
LINE
  5
B8
  8
_________1
 62
     7
 10
127.93000000000001
 20
240.08600000000001
 30
0.0
 11
130.089
 21
239.32499999999999
 31
0.0
  0
LINE
  5
B9
  8
_________1
 62
     7
 10
130.089
 20
239.32499999999999
 30
0.0
 11
128.59999999999999
 21
241.06399999999999
 31
0.0
  0
LINE
  5
BA
  8
_________1
 62
     7
 10
128.59999999999999
 20
241.06399999999999
 30
0.0
 11
127.93000000000001
 21
240.08600000000001
 31
0.0
  0
LINE
  5
BB
  8
_________1
 62
     7
 10
130.08500000000001
 20
239.31899999999999
 30
0.0
 11
119.499
 21
246.57499999999999
 31
0.0
  0
LINE
  5
BC
  8
_________1
 62
     7
 10
119.499
 20
246.57499999999999
 30
0.0
 11
73.627200000000002
 21
246.57499999999999
 31
0.0
  0
ENDBLK
  5
BD
  8
_________1
  0
BLOCK
  8
_________2
  2
AIGNBL03010002
 70
     0
 10
0.0
 20
0.0
 30
0.0
  3
AIGNBL03010002
  1

  0
LINE
  5
C0
  8
_________2
 62
     7
 10
76.741
 20
29.8047
 30
0.0
 11
74.554699999999997
 21
29.8047
 31
0.0
  0
LINE
  5
C1
  8
_________2
 62
     7
 10
77.233699999999999
 20
29.8047
 30
0.0
 11
76.981499999999997
 21
29.8047
 31
0.0
  0
LINE
  5
C2
  8
_________2
 62
     7
 10
77.726299999999995
 20
29.8047
 30
0.0
 11
80.651200000000003
 21
29.8047
 31
0.0
  0
LINE
  5
C3
  8
_________2
 62
     7
 10
77.233699999999999
 20
29.8047
 30
0.0
 11
77.485500000000002
 21
29.8047
 31
0.0
  0
LINE
  5
C4
  8
_________2
 62
     7
 10
70.837100000000007
 20
29.8047
 30
0.0
 11
68.650499999999994
 21
29.8047
 31
0.0
  0
LINE
  5
C5
  8
_________2
 62
     7
 10
71.329400000000007
 20
29.8047
 30
0.0
 11
71.077600000000004
 21
29.8047
 31
0.0
  0
LINE
  5
C6
  8
_________2
 62
     7
 10
71.329400000000007
 20
30.2974
 30
0.0
 11
71.329400000000007
 21
32.484400000000001
 31
0.0
  0
LINE
  5
C7
  8
_________2
 62
     7
 10
71.329400000000007
 20
29.8047
 30
0.0
 11
71.329400000000007
 21
30.056899999999999
 31
0.0
  0
LINE
  5
C8
  8
_________2
 62
     7
 10
71.822100000000006
 20
29.8047
 30
0.0
 11
74.009
 21
29.8047
 31
0.0
  0
LINE
  5
C9
  8
_________2
 62
     7
 10
71.329400000000007
 20
29.8047
 30
0.0
 11
71.581599999999995
 21
29.8047
 31
0.0
  0
LINE
  5
CA
  8
_________2
 62
     7
 10
71.329400000000007
 20
29.312799999999999
 30
0.0
 11
71.329400000000007
 21
27.125800000000002
 31
0.0
  0
LINE
  5
CB
  8
_________2
 62
     7
 10
71.329400000000007
 20
29.8047
 30
0.0
 11
71.329400000000007
 21
29.5532
 31
0.0
  0
LINE
  5
CC
  8
_________2
 62
     7
 10
75.040499999999994
 20
28.5852
 30
0.0
 11
80.218500000000006
 21
27.720400000000001
 31
0.0
  0
LINE
  5
CD
  8
_________2
 62
     7
 10
75.040499999999994
 20
31.0243
 30
0.0
 11
80.218500000000006
 21
31.889700000000001
 31
0.0
  0
LINE
  5
CE
  8
_________2
 62
     7
 10
80.218500000000006
 20
27.720400000000001
 30
0.0
 11
80.218500000000006
 21
31.889700000000001
 31
0.0
  0
LINE
  5
CF
  8
_________2
 62
     7
 10
75.040499999999994
 20
28.5852
 30
0.0
 11
75.040499999999994
 21
31.0243
 31
0.0
  0
ARC
  5
D0
  8
_________2
 62
     7
 10
71.28285600000001
 20
29.757811
 30
0.0
 40
1.2673589999999999
 50
2.122214
 51
87.893958999999995
  0
ARC
  5
D1
  8
_________2
 62
     7
 10
71.375959999999992
 20
29.758213000000001
 30
0.0
 40
1.2669559999999991
 50
92.104701000000006
 51
177.89526900000001
  0
ARC
  5
D2
  8
_________2
 62
     7
 10
71.376357999999996
 20
29.851671
 30
0.0
 40
1.2673680000000001
 50
182.12203600000001
 51
267.877993
  0
ARC
  5
D3
  8
_________2
 62
     7
 10
71.282531999999989
 20
29.851998999999999
 30
0.0
 40
1.267695999999999
 50
272.12015300000002
 51
357.863674
  0
ARC
  5
D4
  8
_________2
 62
     7
 10
71.329430000000002
 20
29.804742999999998
 30
0.0
 40
2.0849849999999992
 50
0.00001
 51
89.999980000000008
  0
ARC
  5
D5
  8
_________2
 62
     7
 10
71.329603000000006
 20
29.804915000000001
 30
0.0
 40
2.084813
 50
90.004733999999999
 51
180.00474399999999
  0
ARC
  5
D6
  8
_________2
 62
     7
 10
71.409106000000008
 20
29.884775999999999
 30
0.0
 40
2.1657950000000001
 50
182.11776599999999
 51
267.89173399999999
  0
ARC
  5
D7
  8
_________2
 62
     7
 10
71.249459000000002
 20
29.885429999999999
 30
0.0
 40
2.1664590000000001
 50
272.11546800000002
 51
357.86560400000002
  0
ENDBLK
  5
D8
  8
_________2
  0
ENDSEC
  0
SECTION
  2
ENTITIES
  0
INSERT
  5
D9
  8
____
 62
     7
  2
AIGNBL01010002
 10
0.0
 20
0.0
 30
0.0
  0
INSERT
  5
DA
  8
____
 62
     7
  2
AIGNBL01010003
 10
0.0
 20
0.0
 30
0.0
  0
INSERT
  5
DB
  8
____
 62
     7
  2
AIGNBL01010004
 10
0.0
 20
0.0
 30
0.0
  0
INSERT
  5
DC
  8
____
 62
     7
  2
AIGNBL01010005
 10
0.0
 20
0.0
 30
0.0
  0
INSERT
  5
DD
  8
____
 62
     7
  2
AIGNBL01010006
 10
0.0
 20
0.0
 30
0.0
  0
INSERT
  5
DE
  8
____
 62
     7
  2
AIGNBL01010007
 10
0.0
 20
0.0
 30
0.0
  0
INSERT
  5
DF
  8
____
 62
     7
  2
AIGNBL01010008
 10
0.0
 20
0.0
 30
0.0
  0
INSERT
  5
E0
  8
____
 62
     7
  2
AIGNBL01010009
 10
0.0
 20
0.0
 30
0.0
  0
INSERT
  5
E1
  8
____
 62
     7
  2
AIGNBL0101000A
 10
0.0
 20
0.0
 30
0.0
  0
INSERT
  5
E2
  8
____
 62
     7
  2
AIGNBL0101000B
 10
0.0
 20
0.0
 30
0.0
  0
LINE
  5
E3
  8
_________1
  6
AIGENLINE002
 62
     7
 10
153.64500000000001
 20
232.697
 30
0.0
 11
106.605
 21
232.697
 31
0.0
  0
LINE
  5
E4
  8
_________1
 62
     7
 10
114.044
 20
229.67500000000001
 30
0.0
 11
115.789
 21
232.697
 31
0.0
  0
LINE
  5
E5
  8
_________1
 62
     7
 10
115.789
 20
232.697
 30
0.0
 11
117.53400000000001
 21
229.67500000000001
 31
0.0
  0
LINE
  5
E6
  8
_________1
 62
     7
 10
117.53400000000001
 20
229.67500000000001
 30
0.0
 11
114.044
 21
229.67500000000001
 31
0.0
  0
LINE
  5
E7
  8
_________1
 62
     7
 10
58.830500000000001
 20
203.85300000000001
 30
0.0
 11
55.808100000000003
 21
205.59800000000001
 31
0.0
  0
LINE
  5
E8
  8
_________1
 62
     7
 10
55.808100000000003
 20
205.59800000000001
 30
0.0
 11
58.830500000000001
 21
207.34299999999999
 31
0.0
  0
LINE
  5
E9
  8
_________1
 62
     7
 10
58.830500000000001
 20
207.34299999999999
 30
0.0
 11
58.830500000000001
 21
203.85300000000001
 31
0.0
  0
LINE
  5
EA
  8
_________1
 62
     7
 10
146.76599999999999
 20
234.90899999999999
 30
0.0
 11
147.35900000000001
 21
232.697
 31
0.0
  0
LINE
  5
EB
  8
_________1
 62
     7
 10
147.35900000000001
 20
232.697
 30
0.0
 11
147.95099999999999
 21
234.90899999999999
 31
0.0
  0
LINE
  5
EC
  8
_________1
 62
     7
 10
147.95099999999999
 20
234.90899999999999
 30
0.0
 11
146.76599999999999
 21
234.90899999999999
 31
0.0
  0
LINE
  5
ED
  8
_________1
 62
     7
 10
147.95099999999999
 20
242.48599999999999
 30
0.0
 11
147.35900000000001
 21
244.697
 31
0.0
  0
LINE
  5
EE
  8
_________1
 62
     7
 10
147.35900000000001
 20
244.697
 30
0.0
 11
146.76599999999999
 21
242.48599999999999
 31
0.0
  0
LINE
  5
EF
  8
_________1
 62
     7
 10
146.76599999999999
 20
242.48599999999999
 30
0.0
 11
147.95099999999999
 21
242.48599999999999
 31
0.0
  0
LINE
  5
F0
  8
_________1
 62
     7
 10
147.35900000000001
 20
232.697
 30
0.0
 11
147.35900000000001
 21
244.697
 31
0.0
  0
LINE
  5
F1
  8
_________1
 62
     7
 10
148.059
 20
244.697
 30
0.0
 11
132.11600000000001
 21
244.697
 31
0.0
  0
LINE
  5
F2
  8
_________1
  6
AIGENLINE002
 62
     7
 10
55.808100000000003
 20
210.23400000000001
 30
0.0
 11
55.808100000000003
 21
62.6736
 31
0.0
  0
LINE
  5
F3
  8
_________1
 62
     7
 10
60.058199999999992
 20
80.041799999999995
 30
0.0
 11
58.808300000000003
 21
80.041799999999995
 31
0.0
  0
LINE
  5
F4
  8
_________1
 62
     7
 10
58.808300000000003
 20
80.041799999999995
 30
0.0
 11
58.808300000000003
 21
82.541899999999984
 31
0.0
  0
LINE
  5
F5
  8
_________1
 62
     7
 10
58.808300000000003
 20
82.541899999999984
 30
0.0
 11
60.058199999999992
 21
82.541899999999984
 31
0.0
  0
LINE
  5
F6
  8
_________1
 62
     7
 10
60.058199999999992
 20
82.541899999999984
 30
0.0
 11
60.058199999999992
 21
80.041799999999995
 31
0.0
  0
LINE
  5
F7
  8
_________1
 62
     7
 10
57.23790000000001
 20
79.670100000000005
 30
0.0
 11
58.808300000000003
 21
81.336500000000015
 31
0.0
  0
LINE
  5
F8
  8
_________1
 62
     7
 10
58.808300000000003
 20
81.336500000000015
 30
0.0
 11
56.615200000000002
 21
80.678399999999996
 31
0.0
  0
LINE
  5
F9
  8
_________1
 62
     7
 10
56.615200000000002
 20
80.678399999999996
 30
0.0
 11
57.23790000000001
 21
79.670100000000005
 31
0.0
  0
LINE
  5
FA
  8
_________1
 62
     7
 10
32.711199999999998
 20
74.835899999999995
 30
0.0
 11
48.2819
 21
74.835899999999995
 31
0.0
  0
LINE
  5
FB
  8
_________1
 62
     7
 10
48.2819
 20
74.835899999999995
 30
0.0
 11
58.808300000000003
 21
81.336500000000015
 31
0.0
  0
INSERT
  5
FC
  8
_________1
 62
     7
  2
AIGNBL02010002
 10
0.0
 20
0.0
 30
0.0
  0
INSERT
  5
FD
  8
_________1
 62
     7
  2
AIGNBL02010003
 10
0.0
 20
0.0
 30
0.0
  0
INSERT
  5
FE
  8
_________1
 62
     7
  2
AIGNBL02010004
 10
0.0
 20
0.0
 30
0.0
  0
INSERT
  5
FF
  8
_________1
 62
     7
  2
AIGNBL02010005
 10
0.0
 20
0.0
 30
0.0
  0
LINE
  5
100
  8
_________1
 62
     7
 10
127.089
 20
67.619
 30
0.0
 11
127.089
 21
77.768399999999986
 31
0.0
  0
LINE
  5
101
  8
_________1
 62
     7
 10
134.464
 20
67.633499999999984
 30
0.0
 11
134.464
 21
77.768399999999986
 31
0.0
  0
INSERT
  5
102
  8
_________1
 62
     7
  2
AIGNBL02010006
 10
0.0
 20
0.0
 30
0.0
  0
LINE
  5
103
  8
_________1
 62
     7
 10
81.458399999999983
 20
78.792199999999994
 30
0.0
 11
93.400899999999993
 21
78.792199999999994
 31
0.0
  0
LINE
  5
104
  8
_________1
 62
     7
 10
81.458399999999983
 20
195.81800000000001
 30
0.0
 11
93.400899999999993
 21
195.81800000000001
 31
0.0
  0
INSERT
  5
105
  8
_________1
 62
     7
  2
AIGNBL02010007
 10
0.0
 20
0.0
 30
0.0
  0
LINE
  5
106
  8
_________1
 62
     7
 10
80.933400000000006
 20
67.633499999999984
 30
0.0
 11
80.933400000000006
 21
77.768399999999986
 31
0.0
  0
INSERT
  5
107
  8
_________1
 62
     7
  2
AIGNBL02010008
 10
0.0
 20
0.0
 30
0.0
  0
LINE
  5
108
  8
_________1
 62
     7
 10
148.059
 20
82.252499999999998
 30
0.0
 11
132.68199999999999
 21
82.252499999999998
 31
0.0
  0
LINE
  5
109
  8
_________1
 62
     7
 10
148.059
 20
191.75299999999999
 30
0.0
 11
132.68199999999999
 21
191.75299999999999
 31
0.0
  0
LINE
  5
10A
  8
_________1
  6
AIGENLINE001
 62
     7
 10
130.77699999999999
 20
81.002600000000001
 30
0.0
 11
130.77699999999999
 21
83.502399999999994
 31
0.0
  0
LINE
  5
10B
  8
_________1
  6
AIGENLINE001
 62
     7
 10
130.77699999999999
 20
190.446
 30
0.0
 11
130.77699999999999
 21
192.946
 31
0.0
  0
LINE
  5
10C
  8
_________1
  6
AIGENLINE001
 62
     7
 10
129.41
 20
191.75299999999999
 30
0.0
 11
131.91
 21
191.75299999999999
 31
0.0
  0
LINE
  5
10D
  8
_________1
  6
AIGENLINE001
 62
     7
 10
132.02699999999999
 20
82.252499999999998
 30
0.0
 11
129.52699999999999
 21
82.252499999999998
 31
0.0
  0
ARC
  5
10E
  8
_________1
  6
AIGENLINE003
 62
     7
 10
130.80393599999999
 20
191.725517
 30
0.0
 40
0.7151069999999999
 50
92.158987999999994
 51
177.81226899999999
  0
ARC
  5
10F
  8
_________1
  6
AIGENLINE003
 62
     7
 10
130.802817
 20
191.77899400000001
 30
0.0
 40
0.713946
 50
182.10135500000001
 51
267.92738700000001
  0
ARC
  5
110
  8
_________1
  6
AIGENLINE003
 62
     7
 10
130.750047
 20
191.779764
 30
0.0
 40
0.714758
 50
272.16076099999998
 51
357.839249
  0
ARC
  5
111
  8
_________1
  6
AIGENLINE003
 62
     7
 10
130.75084200000001
 20
191.72666100000001
 30
0.0
 40
0.7139340000000001
 50
2.0994320000000002
 51
87.90055799999999
  0
ARC
  5
112
  8
_________1
  6
AIGENLINE003
 62
     7
 10
130.80317500000001
 20
82.226340000000008
 30
0.0
 40
0.7143040000000001
 50
92.100324999999998
 51
177.89964599999999
  0
ARC
  5
113
  8
_________1
  6
AIGENLINE003
 62
     7
 10
130.80316999999999
 20
82.278693000000004
 30
0.0
 40
0.7142990000000001
 50
182.099975
 51
267.90005400000001
  0
ARC
  5
114
  8
_________1
  6
AIGENLINE003
 62
     7
 10
130.75080800000001
 20
82.278350000000003
 30
0.0
 40
0.713957
 50
272.10212000000001
 51
357.926602
  0
ARC
  5
115
  8
_________1
  6
AIGENLINE003
 62
     7
 10
130.75048799999999
 20
82.226368999999991
 30
0.0
 40
0.7142870000000001
 50
2.0980529999999988
 51
87.873223999999979
  0
ARC
  5
116
  8
_________1
 62
     7
 10
130.776824
 20
104.705404
 30
0.0
 40
90.809674000000001
 50
87.726056
 51
92.273923999999994
  0
ARC
  5
117
  8
_________1
 62
     7
 10
134.37428899999989
 20
195.36611199999999
 30
0.0
 40
0.07766
 50
1.9909269999999999
 51
85.857361999999995
  0
ARC
  5
118
  8
_________1
 62
     7
 10
127.179115
 20
195.36634599999999
 30
0.0
 40
0.077409
 50
93.975806999999975
 51
178.17586499999999
  0
LINE
  5
119
  8
_________1
 62
     7
 10
127.102
 20
194.94
 30
0.0
 11
127.17700000000001
 21
194.94
 31
0.0
  0
LINE
  5
11A
  8
_________1
 62
     7
 10
127.102
 20
194.94
 30
0.0
 11
127.102
 21
195.26900000000001
 31
0.0
  0
LINE
  5
11B
  8
_________1
 62
     7
 10
134.37700000000001
 20
194.94
 30
0.0
 11
127.17700000000001
 21
194.94
 31
0.0
  0
LINE
  5
11C
  8
_________1
 62
     7
 10
134.452
 20
195.26900000000001
 30
0.0
 11
134.452
 21
195.369
 31
0.0
  0
LINE
  5
11D
  8
_________1
 62
     7
 10
134.452
 20
195.26900000000001
 30
0.0
 11
134.452
 21
194.94
 31
0.0
  0
LINE
  5
11E
  8
_________1
 62
     7
 10
134.452
 20
194.94
 30
0.0
 11
134.37700000000001
 21
194.94
 31
0.0
  0
LINE
  5
11F
  8
_________1
 62
     7
 10
134.452
 20
194.94
 30
0.0
 11
134.452
 21
194.88999999999999
 31
0.0
  0
LINE
  5
120
  8
_________1
 62
     7
 10
127.102
 20
195.369
 30
0.0
 11
127.102
 21
195.26900000000001
 31
0.0
  0
LINE
  5
121
  8
_________1
 62
     7
 10
127.102
 20
194.88999999999999
 30
0.0
 11
127.102
 21
194.94
 31
0.0
  0
LINE
  5
122
  8
_________1
 62
     7
 10
127.164
 20
79.114699999999999
 30
0.0
 11
134.38999999999999
 21
79.114699999999999
 31
0.0
  0
LINE
  5
123
  8
_________1
 62
     7
 10
127.164
 20
194.88999999999999
 30
0.0
 11
134.38999999999999
 21
194.88999999999999
 31
0.0
  0
LINE
  5
124
  8
_________1
 62
     7
 10
134.452
 20
79.114699999999999
 30
0.0
 11
134.464
 21
79.114699999999999
 31
0.0
  0
LINE
  5
125
  8
_________1
 62
     7
 10
134.38999999999999
 20
79.114699999999999
 30
0.0
 11
134.452
 21
79.114699999999999
 31
0.0
  0
LINE
  5
126
  8
_________1
 62
     7
 10
134.464
 20
79.114699999999999
 30
0.0
 11
134.464
 21
194.88999999999999
 31
0.0
  0
LINE
  5
127
  8
_________1
 62
     7
 10
134.452
 20
194.88999999999999
 30
0.0
 11
134.464
 21
194.88999999999999
 31
0.0
  0
LINE
  5
128
  8
_________1
 62
     7
 10
134.38999999999999
 20
194.88999999999999
 30
0.0
 11
134.452
 21
194.88999999999999
 31
0.0
  0
LINE
  5
129
  8
_________1
 62
     7
 10
127.102
 20
79.114699999999999
 30
0.0
 11
127.089
 21
79.114699999999999
 31
0.0
  0
LINE
  5
12A
  8
_________1
 62
     7
 10
127.164
 20
79.114699999999999
 30
0.0
 11
127.102
 21
79.114699999999999
 31
0.0
  0
LINE
  5
12B
  8
_________1
 62
     7
 10
127.102
 20
194.88999999999999
 30
0.0
 11
127.089
 21
194.88999999999999
 31
0.0
  0
LINE
  5
12C
  8
_________1
 62
     7
 10
127.164
 20
194.88999999999999
 30
0.0
 11
127.102
 21
194.88999999999999
 31
0.0
  0
LINE
  5
12D
  8
_________1
 62
     7
 10
127.089
 20
194.88999999999999
 30
0.0
 11
127.089
 21
79.114699999999999
 31
0.0
  0
ARC
  5
12E
  8
_________1
 62
     7
 10
130.776824
 20
168.86134100000001
 30
0.0
 40
90.371775
 50
267.71505100000002
 51
272.28496799999999
  0
ARC
  5
12F
  8
_________1
 62
     7
 10
134.37445
 20
78.638711999999998
 30
0.0
 40
0.077483
 50
274.03295500000002
 51
358.3819759999999
  0
ARC
  5
130
  8
_________1
 62
     7
 10
127.179698
 20
78.639192000000008
 30
0.0
 40
0.077999
 50
181.960385
 51
265.62472400000001
  0
LINE
  5
131
  8
_________1
 62
     7
 10
127.17700000000001
 20
79.065100000000001
 30
0.0
 11
134.37700000000001
 21
79.065100000000001
 31
0.0
  0
LINE
  5
132
  8
_________1
 62
     7
 10
134.452
 20
78.636499999999984
 30
0.0
 11
134.452
 21
78.736400000000003
 31
0.0
  0
LINE
  5
133
  8
_________1
 62
     7
 10
134.452
 20
79.065100000000001
 30
0.0
 11
134.452
 21
78.736400000000003
 31
0.0
  0
LINE
  5
134
  8
_________1
 62
     7
 10
134.452
 20
79.114699999999999
 30
0.0
 11
134.452
 21
79.065100000000001
 31
0.0
  0
LINE
  5
135
  8
_________1
 62
     7
 10
134.452
 20
79.065100000000001
 30
0.0
 11
134.37700000000001
 21
79.065100000000001
 31
0.0
  0
LINE
  5
136
  8
_________1
 62
     7
 10
127.102
 20
78.736400000000003
 30
0.0
 11
127.102
 21
78.636499999999984
 31
0.0
  0
LINE
  5
137
  8
_________1
 62
     7
 10
127.102
 20
78.736400000000003
 30
0.0
 11
127.102
 21
79.065100000000001
 31
0.0
  0
LINE
  5
138
  8
_________1
 62
     7
 10
127.102
 20
79.065100000000001
 30
0.0
 11
127.102
 21
79.114699999999999
 31
0.0
  0
LINE
  5
139
  8
_________1
 62
     7
 10
127.102
 20
79.065100000000001
 30
0.0
 11
127.17700000000001
 21
79.065100000000001
 31
0.0
  0
LINE
  5
13A
  8
_________1
 62
     7
 10
127.164
 20
79.114699999999999
 30
0.0
 11
134.38999999999999
 21
79.114699999999999
 31
0.0
  0
LINE
  5
13B
  8
_________1
 62
     7
 10
127.164
 20
194.88999999999999
 30
0.0
 11
134.38999999999999
 21
194.88999999999999
 31
0.0
  0
LINE
  5
13C
  8
_________1
 62
     7
 10
134.452
 20
79.114699999999999
 30
0.0
 11
134.464
 21
79.114699999999999
 31
0.0
  0
LINE
  5
13D
  8
_________1
 62
     7
 10
134.38999999999999
 20
79.114699999999999
 30
0.0
 11
134.452
 21
79.114699999999999
 31
0.0
  0
LINE
  5
13E
  8
_________1
 62
     7
 10
134.464
 20
79.114699999999999
 30
0.0
 11
134.464
 21
194.88999999999999
 31
0.0
  0
LINE
  5
13F
  8
_________1
 62
     7
 10
134.452
 20
194.88999999999999
 30
0.0
 11
134.464
 21
194.88999999999999
 31
0.0
  0
LINE
  5
140
  8
_________1
 62
     7
 10
134.38999999999999
 20
194.88999999999999
 30
0.0
 11
134.452
 21
194.88999999999999
 31
0.0
  0
LINE
  5
141
  8
_________1
 62
     7
 10
127.102
 20
79.114699999999999
 30
0.0
 11
127.089
 21
79.114699999999999
 31
0.0
  0
LINE
  5
142
  8
_________1
 62
     7
 10
127.164
 20
79.114699999999999
 30
0.0
 11
127.102
 21
79.114699999999999
 31
0.0
  0
LINE
  5
143
  8
_________1
 62
     7
 10
127.102
 20
194.88999999999999
 30
0.0
 11
127.089
 21
194.88999999999999
 31
0.0
  0
LINE
  5
144
  8
_________1
 62
     7
 10
127.164
 20
194.88999999999999
 30
0.0
 11
127.102
 21
194.88999999999999
 31
0.0
  0
LINE
  5
145
  8
_________1
 62
     7
 10
127.089
 20
194.88999999999999
 30
0.0
 11
127.089
 21
79.114699999999999
 31
0.0
  0
ARC
  5
146
  8
_________1
 62
     7
 10
80.751530999999986
 20
195.63585599999999
 30
0.0
 40
0.181982
 50
2.1543759999999992
 51
87.845613999999983
  0
ARC
  5
147
  8
_________1
 62
     7
 10
56.490608999999999
 20
195.63547500000001
 30
0.0
 40
0.182377
 50
92.269598999999999
 51
177.73037199999999
  0
LINE
  5
148
  8
_________1
 62
     7
 10
79.433400000000006
 20
188.364
 30
0.0
 11
79.433400000000006
 21
188.29300000000001
 31
0.0
  0
LINE
  5
149
  8
_________1
 62
     7
 10
79.433400000000006
 20
188.43899999999999
 30
0.0
 11
79.433400000000006
 21
188.364
 31
0.0
  0
LINE
  5
14A
  8
_________1
 62
     7
 10
79.433400000000006
 20
195.19300000000001
 30
0.0
 11
79.433400000000006
 21
188.43899999999999
 31
0.0
  0
LINE
  5
14B
  8
_________1
 62
     7
 10
57.808399999999999
 20
195.19300000000001
 30
0.0
 11
57.808399999999999
 21
195.21600000000001
 31
0.0
  0
LINE
  5
14C
  8
_________1
 62
     7
 10
57.808399999999999
 20
188.364
 30
0.0
 11
57.808399999999999
 21
188.29300000000001
 31
0.0
  0
LINE
  5
14D
  8
_________1
 62
     7
 10
57.808399999999999
 20
188.43899999999999
 30
0.0
 11
57.808399999999999
 21
188.364
 31
0.0
  0
LINE
  5
14E
  8
_________1
 62
     7
 10
57.808399999999999
 20
188.84800000000001
 30
0.0
 11
57.808399999999999
 21
188.72399999999999
 31
0.0
  0
LINE
  5
14F
  8
_________1
 62
     7
 10
57.808399999999999
 20
189.68000000000001
 30
0.0
 11
57.808399999999999
 21
188.84800000000001
 31
0.0
  0
LINE
  5
150
  8
_________1
 62
     7
 10
57.808399999999999
 20
189.95500000000001
 30
0.0
 11
57.808399999999999
 21
189.68000000000001
 31
0.0
  0
LINE
  5
151
  8
_________1
 62
     7
 10
57.808399999999999
 20
190.60499999999999
 30
0.0
 11
57.808399999999999
 21
189.95500000000001
 31
0.0
  0
LINE
  5
152
  8
_________1
 62
     7
 10
57.808399999999999
 20
188.72399999999999
 30
0.0
 11
57.808399999999999
 21
188.66800000000001
 31
0.0
  0
LINE
  5
153
  8
_________1
 62
     7
 10
57.808399999999999
 20
194.43000000000001
 30
0.0
 11
57.808399999999999
 21
194.155
 31
0.0
  0
LINE
  5
154
  8
_________1
 62
     7
 10
57.808399999999999
 20
194.155
 30
0.0
 11
57.808399999999999
 21
193.505
 31
0.0
  0
LINE
  5
155
  8
_________1
 62
     7
 10
57.808399999999999
 20
195.09100000000001
 30
0.0
 11
57.808399999999999
 21
194.43000000000001
 31
0.0
  0
LINE
  5
156
  8
_________1
 62
     7
 10
57.808399999999999
 20
195.19300000000001
 30
0.0
 11
57.808399999999999
 21
195.09100000000001
 31
0.0
  0
LINE
  5
157
  8
_________1
 62
     7
 10
57.808399999999999
 20
193.505
 30
0.0
 11
57.808399999999999
 21
190.60499999999999
 31
0.0
  0
LINE
  5
158
  8
_________1
 62
     7
 10
79.433400000000006
 20
188.29300000000001
 30
0.0
 11
57.808399999999999
 21
188.29300000000001
 31
0.0
  0
LINE
  5
159
  8
_________1
 62
     7
 10
57.808399999999999
 20
188.66800000000001
 30
0.0
 11
57.808399999999999
 21
188.43899999999999
 31
0.0
  0
LINE
  5
15A
  8
_________1
 62
     7
 10
80.933400000000006
 20
195.643
 30
0.0
 11
80.933400000000006
 21
195.571
 31
0.0
  0
LINE
  5
15B
  8
_________1
 62
     7
 10
56.48340000000001
 20
195.81800000000001
 30
0.0
 11
80.758399999999995
 21
195.81800000000001
 31
0.0
  0
LINE
  5
15C
  8
_________1
 62
     7
 10
56.308399999999999
 20
195.24199999999999
 30
0.0
 11
56.308399999999999
 21
195.30500000000001
 31
0.0
  0
LINE
  5
15D
  8
_________1
 62
     7
 10
56.308399999999999
 20
195.30500000000001
 30
0.0
 11
56.308399999999999
 21
195.571
 31
0.0
  0
LINE
  5
15E
  8
_________1
 62
     7
 10
56.308399999999999
 20
195.643
 30
0.0
 11
56.308399999999999
 21
195.571
 31
0.0
  0
LINE
  5
15F
  8
_________1
 62
     7
 10
79.433400000000006
 20
195.19300000000001
 30
0.0
 11
79.433400000000006
 21
195.24199999999999
 31
0.0
  0
LINE
  5
160
  8
_________1
 62
     7
 10
80.858299999999986
 20
195.24199999999999
 30
0.0
 11
79.433400000000006
 21
195.24199999999999
 31
0.0
  0
LINE
  5
161
  8
_________1
 62
     7
 10
57.808399999999999
 20
195.21600000000001
 30
0.0
 11
56.382800000000003
 21
195.24100000000001
 31
0.0
  0
LINE
  5
162
  8
_________1
 62
     7
 10
80.858299999999986
 20
195.24199999999999
 30
0.0
 11
80.933400000000006
 21
195.24199999999999
 31
0.0
  0
LINE
  5
163
  8
_________1
 62
     7
 10
80.933400000000006
 20
195.24199999999999
 30
0.0
 11
80.933400000000006
 21
195.571
 31
0.0
  0
LINE
  5
164
  8
_________1
 62
     7
 10
56.308399999999999
 20
195.24199999999999
 30
0.0
 11
56.382800000000003
 21
195.24100000000001
 31
0.0
  0
LINE
  5
165
  8
_________1
 62
     7
 10
56.308399999999999
 20
189.80500000000001
 30
0.0
 11
56.308399999999999
 21
188.80500000000001
 31
0.0
  0
LINE
  5
166
  8
_________1
 62
     7
 10
56.308399999999999
 20
194.30500000000001
 30
0.0
 11
56.308399999999999
 21
189.80500000000001
 31
0.0
  0
LINE
  5
167
  8
_________1
 62
     7
 10
56.308399999999999
 20
195.19300000000001
 30
0.0
 11
56.308399999999999
 21
194.30500000000001
 31
0.0
  0
LINE
  5
168
  8
_________1
 62
     7
 10
56.308399999999999
 20
195.24199999999999
 30
0.0
 11
56.308399999999999
 21
195.30500000000001
 31
0.0
  0
LINE
  5
169
  8
_________1
 62
     7
 10
55.808100000000003
 20
188.80500000000001
 30
0.0
 11
55.808100000000003
 21
195.30500000000001
 31
0.0
  0
LINE
  5
16A
  8
_________1
 62
     7
 10
56.308399999999999
 20
195.30500000000001
 30
0.0
 11
55.808100000000003
 21
195.30500000000001
 31
0.0
  0
LINE
  5
16B
  8
_________1
 62
     7
 10
56.308399999999999
 20
188.80500000000001
 30
0.0
 11
55.808100000000003
 21
188.80500000000001
 31
0.0
  0
LINE
  5
16C
  8
_________1
 62
     7
 10
56.308399999999999
 20
195.19300000000001
 30
0.0
 11
56.308399999999999
 21
195.24199999999999
 31
0.0
  0
LINE
  5
16D
  8
_________1
 62
     7
 10
57.808399999999999
 20
190.60499999999999
 30
0.0
 11
57.808399999999999
 21
189.95500000000001
 31
0.0
  0
LINE
  5
16E
  8
_________1
 62
     7
 10
57.808399999999999
 20
194.155
 30
0.0
 11
57.808399999999999
 21
193.505
 31
0.0
  0
LINE
  5
16F
  8
_________1
 62
     7
 10
57.808399999999999
 20
193.505
 30
0.0
 11
57.808399999999999
 21
190.60499999999999
 31
0.0
  0
LINE
  5
170
  8
_________1
 62
     7
 10
79.433400000000006
 20
86.245400000000004
 30
0.0
 11
79.433400000000006
 21
86.170299999999983
 31
0.0
  0
LINE
  5
171
  8
_________1
 62
     7
 10
79.433400000000006
 20
188.364
 30
0.0
 11
79.433400000000006
 21
188.29300000000001
 31
0.0
  0
LINE
  5
172
  8
_________1
 62
     7
 10
79.433400000000006
 20
188.43899999999999
 30
0.0
 11
79.433400000000006
 21
188.364
 31
0.0
  0
LINE
  5
173
  8
_________1
 62
     7
 10
79.433400000000006
 20
195.19300000000001
 30
0.0
 11
79.433400000000006
 21
188.43899999999999
 31
0.0
  0
LINE
  5
174
  8
_________1
 62
     7
 10
79.433400000000006
 20
86.317099999999996
 30
0.0
 11
79.433400000000006
 21
86.245400000000004
 31
0.0
  0
LINE
  5
175
  8
_________1
 62
     7
 10
79.433400000000006
 20
188.29300000000001
 30
0.0
 11
79.433400000000006
 21
86.317099999999996
 31
0.0
  0
LINE
  5
176
  8
_________1
 62
     7
 10
79.433400000000006
 20
86.170299999999983
 30
0.0
 11
79.433400000000006
 21
79.417199999999994
 31
0.0
  0
LINE
  5
177
  8
_________1
 62
     7
 10
80.933400000000006
 20
79.417199999999994
 30
0.0
 11
80.858299999999986
 21
79.417199999999994
 31
0.0
  0
LINE
  5
178
  8
_________1
 62
     7
 10
79.508499999999984
 20
79.417199999999994
 30
0.0
 11
79.433400000000006
 21
79.417199999999994
 31
0.0
  0
LINE
  5
179
  8
_________1
 62
     7
 10
80.858299999999986
 20
79.417199999999994
 30
0.0
 11
79.508499999999984
 21
79.417199999999994
 31
0.0
  0
LINE
  5
17A
  8
_________1
 62
     7
 10
80.933400000000006
 20
195.19300000000001
 30
0.0
 11
80.933400000000006
 21
79.417199999999994
 31
0.0
  0
LINE
  5
17B
  8
_________1
 62
     7
 10
79.508499999999984
 20
195.19300000000001
 30
0.0
 11
79.433400000000006
 21
195.19300000000001
 31
0.0
  0
LINE
  5
17C
  8
_________1
 62
     7
 10
80.933400000000006
 20
195.19300000000001
 30
0.0
 11
80.858299999999986
 21
195.19300000000001
 31
0.0
  0
LINE
  5
17D
  8
_________1
 62
     7
 10
80.858299999999986
 20
195.19300000000001
 30
0.0
 11
79.508499999999984
 21
195.19300000000001
 31
0.0
  0
ARC
  5
17E
  8
_________1
 62
     7
 10
56.490217000000001
 20
78.974086
 30
0.0
 40
0.181971
 50
182.15116800000001
 51
267.848861
  0
ARC
  5
17F
  8
_________1
 62
     7
 10
80.751524999999987
 20
78.974102000000002
 30
0.0
 40
0.181987
 50
272.15600599999999
 51
357.84400399999998
  0
LINE
  5
180
  8
_________1
 62
     7
 10
56.48340000000001
 20
78.792199999999994
 30
0.0
 11
80.758399999999995
 21
78.792199999999994
 31
0.0
  0
LINE
  5
181
  8
_________1
 62
     7
 10
80.933400000000006
 20
79.038899999999998
 30
0.0
 11
80.933400000000006
 21
78.967299999999994
 31
0.0
  0
LINE
  5
182
  8
_________1
 62
     7
 10
79.433400000000006
 20
79.366900000000001
 30
0.0
 11
80.858299999999986
 21
79.366900000000001
 31
0.0
  0
LINE
  5
183
  8
_________1
 62
     7
 10
56.308399999999999
 20
79.038899999999998
 30
0.0
 11
56.308399999999999
 21
78.967299999999994
 31
0.0
  0
LINE
  5
184
  8
_________1
 62
     7
 10
56.308399999999999
 20
79.304900000000004
 30
0.0
 11
56.308399999999999
 21
79.366900000000001
 31
0.0
  0
LINE
  5
185
  8
_________1
 62
     7
 10
56.308399999999999
 20
79.038899999999998
 30
0.0
 11
56.308399999999999
 21
79.304900000000004
 31
0.0
  0
LINE
  5
186
  8
_________1
 62
     7
 10
57.808399999999999
 20
79.393100000000004
 30
0.0
 11
57.808399999999999
 21
79.417199999999994
 31
0.0
  0
LINE
  5
187
  8
_________1
 62
     7
 10
56.382800000000003
 20
79.368300000000005
 30
0.0
 11
57.808399999999999
 21
79.393100000000004
 31
0.0
  0
LINE
  5
188
  8
_________1
 62
     7
 10
56.382800000000003
 20
79.368300000000005
 30
0.0
 11
56.308399999999999
 21
79.366900000000001
 31
0.0
  0
LINE
  5
189
  8
_________1
 62
     7
 10
79.433400000000006
 20
79.366900000000001
 30
0.0
 11
79.433400000000006
 21
79.417199999999994
 31
0.0
  0
LINE
  5
18A
  8
_________1
 62
     7
 10
79.433400000000006
 20
86.245400000000004
 30
0.0
 11
79.433400000000006
 21
86.170299999999983
 31
0.0
  0
LINE
  5
18B
  8
_________1
 62
     7
 10
79.433400000000006
 20
86.317099999999996
 30
0.0
 11
79.433400000000006
 21
86.245400000000004
 31
0.0
  0
LINE
  5
18C
  8
_________1
 62
     7
 10
57.808399999999999
 20
86.317099999999996
 30
0.0
 11
57.808399999999999
 21
86.245400000000004
 31
0.0
  0
LINE
  5
18D
  8
_________1
 62
     7
 10
57.808399999999999
 20
85.886399999999995
 30
0.0
 11
57.808399999999999
 21
85.761000000000024
 31
0.0
  0
LINE
  5
18E
  8
_________1
 62
     7
 10
57.808399999999999
 20
85.761000000000024
 30
0.0
 11
57.808399999999999
 21
84.929400000000001
 31
0.0
  0
LINE
  5
18F
  8
_________1
 62
     7
 10
57.808399999999999
 20
85.942199999999985
 30
0.0
 11
57.808399999999999
 21
85.886399999999995
 31
0.0
  0
LINE
  5
190
  8
_________1
 62
     7
 10
57.808399999999999
 20
86.245400000000004
 30
0.0
 11
57.808399999999999
 21
86.170299999999983
 31
0.0
  0
LINE
  5
191
  8
_________1
 62
     7
 10
57.808399999999999
 20
86.170299999999983
 30
0.0
 11
57.808399999999999
 21
85.942199999999985
 31
0.0
  0
LINE
  5
192
  8
_________1
 62
     7
 10
57.808399999999999
 20
79.518500000000003
 30
0.0
 11
57.808399999999999
 21
79.417199999999994
 31
0.0
  0
LINE
  5
193
  8
_________1
 62
     7
 10
57.808399999999999
 20
80.179199999999994
 30
0.0
 11
57.808399999999999
 21
79.518500000000003
 31
0.0
  0
LINE
  5
194
  8
_________1
 62
     7
 10
57.808399999999999
 20
80.454899999999995
 30
0.0
 11
57.808399999999999
 21
80.179199999999994
 31
0.0
  0
LINE
  5
195
  8
_________1
 62
     7
 10
79.433400000000006
 20
86.317099999999996
 30
0.0
 11
57.808399999999999
 21
86.317099999999996
 31
0.0
  0
LINE
  5
196
  8
_________1
 62
     7
 10
57.808399999999999
 20
81.104600000000005
 30
0.0
 11
57.808399999999999
 21
80.454899999999995
 31
0.0
  0
LINE
  5
197
  8
_________1
 62
     7
 10
57.808399999999999
 20
84.0047
 30
0.0
 11
57.808399999999999
 21
81.104600000000005
 31
0.0
  0
LINE
  5
198
  8
_________1
 62
     7
 10
57.808399999999999
 20
84.929400000000001
 30
0.0
 11
57.808399999999999
 21
84.654499999999999
 31
0.0
  0
LINE
  5
199
  8
_________1
 62
     7
 10
57.808399999999999
 20
84.654499999999999
 30
0.0
 11
57.808399999999999
 21
84.0047
 31
0.0
  0
LINE
  5
19A
  8
_________1
 62
     7
 10
79.433400000000006
 20
86.170299999999983
 30
0.0
 11
79.433400000000006
 21
79.417199999999994
 31
0.0
  0
LINE
  5
19B
  8
_________1
 62
     7
 10
80.858299999999986
 20
79.366900000000001
 30
0.0
 11
80.933400000000006
 21
79.366900000000001
 31
0.0
  0
LINE
  5
19C
  8
_________1
 62
     7
 10
80.933400000000006
 20
79.038899999999998
 30
0.0
 11
80.933400000000006
 21
79.366900000000001
 31
0.0
  0
LINE
  5
19D
  8
_________1
 62
     7
 10
56.308399999999999
 20
79.366900000000001
 30
0.0
 11
56.308399999999999
 21
79.417199999999994
 31
0.0
  0
LINE
  5
19E
  8
_________1
 62
     7
 10
56.308399999999999
 20
79.304900000000004
 30
0.0
 11
56.308399999999999
 21
79.366900000000001
 31
0.0
  0
LINE
  5
19F
  8
_________1
 62
     7
 10
55.808100000000003
 20
79.304900000000004
 30
0.0
 11
55.808100000000003
 21
85.804400000000015
 31
0.0
  0
LINE
  5
1A0
  8
_________1
 62
     7
 10
56.308399999999999
 20
79.304900000000004
 30
0.0
 11
55.808100000000003
 21
79.304900000000004
 31
0.0
  0
LINE
  5
1A1
  8
_________1
 62
     7
 10
56.308399999999999
 20
85.804400000000015
 30
0.0
 11
55.808100000000003
 21
85.804400000000015
 31
0.0
  0
LINE
  5
1A2
  8
_________1
 62
     7
 10
56.308399999999999
 20
80.304599999999994
 30
0.0
 11
56.308399999999999
 21
79.417199999999994
 31
0.0
  0
LINE
  5
1A3
  8
_________1
 62
     7
 10
56.308399999999999
 20
85.804400000000015
 30
0.0
 11
56.308399999999999
 21
84.804699999999997
 31
0.0
  0
LINE
  5
1A4
  8
_________1
 62
     7
 10
56.308399999999999
 20
84.804699999999997
 30
0.0
 11
56.308399999999999
 21
80.304599999999994
 31
0.0
  0
LINE
  5
1A5
  8
_________1
 62
     7
 10
57.808399999999999
 20
81.104600000000005
 30
0.0
 11
57.808399999999999
 21
80.454899999999995
 31
0.0
  0
LINE
  5
1A6
  8
_________1
 62
     7
 10
57.808399999999999
 20
84.0047
 30
0.0
 11
57.808399999999999
 21
81.104600000000005
 31
0.0
  0
LINE
  5
1A7
  8
_________1
 62
     7
 10
57.808399999999999
 20
84.654499999999999
 30
0.0
 11
57.808399999999999
 21
84.0047
 31
0.0
  0
LINE
  5
1A8
  8
_________1
 62
     7
 10
56.382800000000003
 20
79.417199999999994
 30
0.0
 11
56.308399999999999
 21
79.417199999999994
 31
0.0
  0
LINE
  5
1A9
  8
_________1
 62
     7
 10
57.7333
 20
79.417199999999994
 30
0.0
 11
56.382800000000003
 21
79.417199999999994
 31
0.0
  0
LINE
  5
1AA
  8
_________1
 62
     7
 10
57.808399999999999
 20
79.417199999999994
 30
0.0
 11
57.7333
 21
79.417199999999994
 31
0.0
  0
LINE
  5
1AB
  8
_________1
 62
     7
 10
57.808399999999999
 20
86.317099999999996
 30
0.0
 11
57.808399999999999
 21
86.245400000000004
 31
0.0
  0
LINE
  5
1AC
  8
_________1
 62
     7
 10
57.808399999999999
 20
85.886399999999995
 30
0.0
 11
57.808399999999999
 21
85.761000000000024
 31
0.0
  0
LINE
  5
1AD
  8
_________1
 62
     7
 10
57.808399999999999
 20
85.761000000000024
 30
0.0
 11
57.808399999999999
 21
84.929400000000001
 31
0.0
  0
LINE
  5
1AE
  8
_________1
 62
     7
 10
57.808399999999999
 20
85.942199999999985
 30
0.0
 11
57.808399999999999
 21
85.886399999999995
 31
0.0
  0
LINE
  5
1AF
  8
_________1
 62
     7
 10
57.808399999999999
 20
86.245400000000004
 30
0.0
 11
57.808399999999999
 21
86.170299999999983
 31
0.0
  0
LINE
  5
1B0
  8
_________1
 62
     7
 10
57.808399999999999
 20
86.170299999999983
 30
0.0
 11
57.808399999999999
 21
85.942199999999985
 31
0.0
  0
LINE
  5
1B1
  8
_________1
 62
     7
 10
57.808399999999999
 20
79.518500000000003
 30
0.0
 11
57.808399999999999
 21
79.417199999999994
 31
0.0
  0
LINE
  5
1B2
  8
_________1
 62
     7
 10
57.808399999999999
 20
80.179199999999994
 30
0.0
 11
57.808399999999999
 21
79.518500000000003
 31
0.0
  0
LINE
  5
1B3
  8
_________1
 62
     7
 10
57.808399999999999
 20
80.454899999999995
 30
0.0
 11
57.808399999999999
 21
80.179199999999994
 31
0.0
  0
LINE
  5
1B4
  8
_________1
 62
     7
 10
57.808399999999999
 20
188.364
 30
0.0
 11
57.808399999999999
 21
188.29300000000001
 31
0.0
  0
LINE
  5
1B5
  8
_________1
 62
     7
 10
57.808399999999999
 20
188.43899999999999
 30
0.0
 11
57.808399999999999
 21
188.364
 31
0.0
  0
LINE
  5
1B6
  8
_________1
 62
     7
 10
57.808399999999999
 20
188.84800000000001
 30
0.0
 11
57.808399999999999
 21
188.72399999999999
 31
0.0
  0
LINE
  5
1B7
  8
_________1
 62
     7
 10
57.808399999999999
 20
189.68000000000001
 30
0.0
 11
57.808399999999999
 21
188.84800000000001
 31
0.0
  0
LINE
  5
1B8
  8
_________1
 62
     7
 10
57.808399999999999
 20
189.95500000000001
 30
0.0
 11
57.808399999999999
 21
189.68000000000001
 31
0.0
  0
LINE
  5
1B9
  8
_________1
 62
     7
 10
57.808399999999999
 20
190.60499999999999
 30
0.0
 11
57.808399999999999
 21
189.95500000000001
 31
0.0
  0
LINE
  5
1BA
  8
_________1
 62
     7
 10
57.808399999999999
 20
188.72399999999999
 30
0.0
 11
57.808399999999999
 21
188.66800000000001
 31
0.0
  0
LINE
  5
1BB
  8
_________1
 62
     7
 10
57.808399999999999
 20
194.43000000000001
 30
0.0
 11
57.808399999999999
 21
194.155
 31
0.0
  0
LINE
  5
1BC
  8
_________1
 62
     7
 10
57.808399999999999
 20
194.155
 30
0.0
 11
57.808399999999999
 21
193.505
 31
0.0
  0
LINE
  5
1BD
  8
_________1
 62
     7
 10
57.808399999999999
 20
195.09100000000001
 30
0.0
 11
57.808399999999999
 21
194.43000000000001
 31
0.0
  0
LINE
  5
1BE
  8
_________1
 62
     7
 10
57.808399999999999
 20
195.19300000000001
 30
0.0
 11
57.808399999999999
 21
195.09100000000001
 31
0.0
  0
LINE
  5
1BF
  8
_________1
 62
     7
 10
57.808399999999999
 20
193.505
 30
0.0
 11
57.808399999999999
 21
190.60499999999999
 31
0.0
  0
LINE
  5
1C0
  8
_________1
 62
     7
 10
57.808399999999999
 20
195.19300000000001
 30
0.0
 11
57.7333
 21
195.19300000000001
 31
0.0
  0
LINE
  5
1C1
  8
_________1
 62
     7
 10
57.808399999999999
 20
188.29300000000001
 30
0.0
 11
57.808399999999999
 21
86.317099999999996
 31
0.0
  0
LINE
  5
1C2
  8
_________1
 62
     7
 10
56.308399999999999
 20
189.80500000000001
 30
0.0
 11
56.308399999999999
 21
188.80500000000001
 31
0.0
  0
LINE
  5
1C3
  8
_________1
 62
     7
 10
57.808399999999999
 20
188.66800000000001
 30
0.0
 11
57.808399999999999
 21
188.43899999999999
 31
0.0
  0
LINE
  5
1C4
  8
_________1
 62
     7
 10
56.308399999999999
 20
194.30500000000001
 30
0.0
 11
56.308399999999999
 21
189.80500000000001
 31
0.0
  0
LINE
  5
1C5
  8
_________1
 62
     7
 10
56.308399999999999
 20
195.19300000000001
 30
0.0
 11
56.308399999999999
 21
194.30500000000001
 31
0.0
  0
LINE
  5
1C6
  8
_________1
 62
     7
 10
56.382800000000003
 20
195.19300000000001
 30
0.0
 11
56.308399999999999
 21
195.19300000000001
 31
0.0
  0
LINE
  5
1C7
  8
_________1
 62
     7
 10
57.7333
 20
195.19300000000001
 30
0.0
 11
56.382800000000003
 21
195.19300000000001
 31
0.0
  0
LINE
  5
1C8
  8
_________1
 62
     7
 10
57.808399999999999
 20
81.104600000000005
 30
0.0
 11
57.808399999999999
 21
80.454899999999995
 31
0.0
  0
LINE
  5
1C9
  8
_________1
 62
     7
 10
57.808399999999999
 20
84.0047
 30
0.0
 11
57.808399999999999
 21
81.104600000000005
 31
0.0
  0
LINE
  5
1CA
  8
_________1
 62
     7
 10
57.808399999999999
 20
84.929400000000001
 30
0.0
 11
57.808399999999999
 21
84.654499999999999
 31
0.0
  0
LINE
  5
1CB
  8
_________1
 62
     7
 10
57.808399999999999
 20
84.654499999999999
 30
0.0
 11
57.808399999999999
 21
84.0047
 31
0.0
  0
LINE
  5
1CC
  8
_________1
 62
     7
 10
56.308399999999999
 20
80.304599999999994
 30
0.0
 11
56.308399999999999
 21
79.417199999999994
 31
0.0
  0
LINE
  5
1CD
  8
_________1
 62
     7
 10
56.308399999999999
 20
85.804400000000015
 30
0.0
 11
56.308399999999999
 21
84.804699999999997
 31
0.0
  0
LINE
  5
1CE
  8
_________1
 62
     7
 10
56.308399999999999
 20
84.804699999999997
 30
0.0
 11
56.308399999999999
 21
80.304599999999994
 31
0.0
  0
LINE
  5
1CF
  8
_________1
 62
     7
 10
56.308399999999999
 20
188.80500000000001
 30
0.0
 11
56.308399999999999
 21
85.804400000000015
 31
0.0
  0
LINE
  5
1D0
  8
_________1
 62
     7
 10
127.465
 20
232.697
 30
0.0
 11
127.465
 21
232.197
 31
0.0
  0
LINE
  5
1D1
  8
_________1
 62
     7
 10
134.089
 20
232.697
 30
0.0
 11
134.089
 21
232.197
 31
0.0
  0
LINE
  5
1D2
  8
_________1
 62
     7
 10
134.089
 20
232.697
 30
0.0
 11
127.465
 21
232.697
 31
0.0
  0
LINE
  5
1D3
  8
_________1
 62
     7
 10
134.464
 20
232.197
 30
0.0
 11
134.464
 21
207.572
 31
0.0
  0
LINE
  5
1D4
  8
_________1
 62
     7
 10
127.089
 20
232.197
 30
0.0
 11
134.464
 21
232.197
 31
0.0
  0
LINE
  5
1D5
  8
_________1
 62
     7
 10
127.089
 20
207.572
 30
0.0
 11
127.089
 21
232.197
 31
0.0
  0
LINE
  5
1D6
  8
_________1
 62
     7
 10
134.464
 20
207.572
 30
0.0
 11
127.089
 21
207.572
 31
0.0
  0
INSERT
  5
1D7
  8
_________1
 62
     7
  2
AIGNBL02010009
 10
0.0
 20
0.0
 30
0.0
  0
LINE
  5
1D8
  8
_________2
 62
     7
 10
205.30099999999999
 20
127.411
 30
0.0
 11
183.55000000000001
 21
127.411
 31
0.0
  0
LINE
  5
1D9
  8
_________2
 62
     7
 10
100.3
 20
-4.0910799999999998
 30
0.0
 11
100.3
 21
-21.071400000000001
 31
0.0
  0
LINE
  5
1DA
  8
_________2
 62
     7
 10
100.3
 20
275.93099999999998
 30
0.0
 11
100.3
 21
258.911
 31
0.0
  0
LINE
  5
1DB
  8
_________2
 62
     7
 10
17.049499999999998
 20
127.411
 30
0.0
 11
-4.70052
 21
127.411
 31
0.0
  0
INSERT
  5
1DC
  8
_________2
 62
     7
  2
AIGNBL03010002
 10
0.0
 20
0.0
 30
0.0
  0
TEXT
  5
1DD
  8
_________2
 62
     7
 10
104.605
 20
1.6794899999999999
 30
0.0
 40
3.0923400000000001
  1
図番
 41
0.5
  0
LINE
  5
1DE
  8
_________2
 62
     7
 10
103.55
 20
5.9087199999999989
 30
0.0
 11
183.55099999999999
 21
5.9087199999999989
 31
0.0
  0
TEXT
  5
1DF
  8
_________2
 62
     7
 10
104.605
 20
11.6793
 30
0.0
 40
3.0923400000000001
  1
品番
 41
0.5
  0
TEXT
  5
1E0
  8
_________2
 62
     7
 10
104.605
 20
31.818100000000001
 30
0.0
 40
3.0923400000000001
  1
名称
 41
0.5
  0
TEXT
  5
1E1
  8
_________2
 62
     7
 10
91.845058333333341
 20
26.821999999999999
 30
0.0
 40
3.6545800000000002
  1
mm
 41
0.5
 72
     1
 11
93.367800000000003
 21
26.821999999999999
 31
0.0
  0
TEXT
  5
1E2
  8
_________2
 62
     7
 10
85.643199999999993
 20
31.818100000000001
 30
0.0
 40
3.0923400000000001
  1
単位
 41
0.5
  0
TEXT
  5
1E3
  8
_________2
 62
     7
 10
85.643199999999993
 20
19.410799999999998
 30
0.0
 40
3.0923400000000001
  1
尺度
 41
0.5
  0
TEXT
  5
1E4
  8
_________2
 62
     7
 10
90.548758666666686
 20
13.2179
 30
0.0
 40
3.6545800000000002
  1
1 ： 4
 41
0.5
 72
     1
 11
93.959699999999998
 21
13.2179
 31
0.0
  0
TEXT
  5
1E5
  8
_________2
 62
     7
 10
137.4824625
 20
9.1078600000000005
 30
0.0
 40
3.9357000000000002
  1
EC18660
 41
0.5
 72
     1
 11
143.55000000000001
 21
9.1078600000000005
 31
0.0
  0
TEXT
  5
1E6
  8
_________2
 62
     7
 10
137.4824625
 20
-0.8926299999999999
 30
0.0
 40
3.9357000000000002
  1
EC18660
 41
0.5
 72
     1
 11
143.55000000000001
 21
-0.8926299999999999
 31
0.0
  0
TEXT
  5
1E7
  8
_________2
 62
     7
 10
20.856200000000001
 20
52.372700000000002
 30
0.0
 40
4.2168199999999993
  1
※浴室設置禁止
 41
0.5
  0
TEXT
  5
1E8
  8
_________2
 62
     7
 10
20.856200000000001
 20
45.873100000000001
 30
0.0
 40
4.2168199999999993
  1
※デザイン上、角部がシャープになっていますので、ご使用には十分ご注意ください。
 41
0.5
  0
TEXT
  5
1E9
  8
_________2
 62
     7
 10
20.856200000000001
 20
39.373600000000003
 30
0.0
 40
4.2168199999999993
  1
※壁取付部には厚さ30mm以上の補強木を入れてください。
 41
0.5
  0
TEXT
  5
1EA
  8
_________2
 62
     7
 10
109.179
 20
24.2257
 30
0.0
 40
3.9357000000000002
  1
リエゾン　タオルバー
 41
0.5
  0
TEXT
  5
1EB
  8
_________2
 62
     7
 10
39.364390666666672
 20
13.603
 30
0.0
 40
3.6545800000000002
  1
井伊
 41
0.5
 72
     1
 11
41.313499999999998
 21
13.603
 31
0.0
  0
TEXT
  5
1EC
  8
_________2
 62
     7
 10
20.790090666666661
 20
13.603
 30
0.0
 40
3.6545800000000002
  1
近藤
 41
0.5
 72
     1
 11
22.7392
 21
13.603
 31
0.0
  0
TEXT
  5
1ED
  8
_________2
 62
     7
 10
67.785399999999996
 20
13.2179
 30
0.0
 40
3.6545800000000002
  1
20.02.03
 41
0.5
  0
TEXT
  5
1EE
  8
_________2
 62
     7
 10
66.593100000000007
 20
19.410799999999998
 30
0.0
 40
3.0923400000000001
  1
日付
 41
0.5
  0
TEXT
  5
1EF
  8
_________2
 62
     7
 10
29.639399999999998
 20
19.410799999999998
 30
0.0
 40
3.0923400000000001
  1
検図
 41
0.5
  0
TEXT
  5
1F0
  8
_________2
 62
     7
 10
18.021100000000001
 20
5.21143
 30
0.0
 40
3.0923400000000001
  1
備考
 41
0.5
  0
TEXT
  5
1F1
  8
_________2
 62
     7
 10
18.021100000000001
 20
19.410799999999998
 30
0.0
 40
3.0923400000000001
  1
製図
 41
0.5
  0
TEXT
  5
1F2
  8
_________2
 62
     7
 10
23.788465333333338
 20
27.936800000000002
 30
0.0
 40
4.4979399999999989
  1
セラトレーディング株式会社
 41
0.5
 72
     1
 11
41.180500000000002
 21
27.936800000000002
 31
0.0
  0
LINE
  5
1F3
  8
_________2
 62
     7
 10
183.55099999999999
 20
-4.0910799999999998
 30
0.0
 11
17.049499999999998
 21
-4.0910799999999998
 31
0.0
  0
LINE
  5
1F4
  8
_________2
 62
     7
 10
17.049499999999998
 20
-4.0910799999999998
 30
0.0
 11
17.049499999999998
 21
258.911
 31
0.0
  0
LINE
  5
1F5
  8
_________2
 62
     7
 10
17.049499999999998
 20
258.911
 30
0.0
 11
183.55099999999999
 21
258.911
 31
0.0
  0
LINE
  5
1F6
  8
_________2
 62
     7
 10
183.55099999999999
 20
258.911
 30
0.0
 11
183.55099999999999
 21
-4.0910799999999998
 31
0.0
  0
LINE
  5
1F7
  8
_________2
 62
     7
 10
65.549599999999998
 20
9.4089600000000004
 30
0.0
 11
65.549599999999998
 21
35.908799999999999
 31
0.0
  0
LINE
  5
1F8
  8
_________2
 62
     7
 10
84.549700000000016
 20
9.4089600000000004
 30
0.0
 11
84.549700000000016
 21
35.908799999999999
 31
0.0
  0
LINE
  5
1F9
  8
_________2
 62
     7
 10
103.55
 20
-4.0910799999999998
 30
0.0
 11
103.55
 21
35.908799999999999
 31
0.0
  0
LINE
  5
1FA
  8
_________2
 62
     7
 10
28.549299999999999
 20
9.4089600000000004
 30
0.0
 11
28.549299999999999
 21
23.409199999999998
 31
0.0
  0
LINE
  5
1FB
  8
_________2
 62
     7
 10
17.049499999999998
 20
9.4089600000000004
 30
0.0
 11
103.55
 21
9.4089600000000004
 31
0.0
  0
LINE
  5
1FC
  8
_________2
 62
     7
 10
17.049499999999998
 20
23.409199999999998
 30
0.0
 11
103.55
 21
23.409199999999998
 31
0.0
  0
LINE
  5
1FD
  8
_________2
 62
     7
 10
103.55
 20
15.9085
 30
0.0
 11
183.55099999999999
 21
15.9085
 31
0.0
  0
LINE
  5
1FE
  8
_________2
 62
     7
 10
17.049499999999998
 20
35.908799999999999
 30
0.0
 11
183.55099999999999
 21
35.908799999999999
 31
0.0
  0
ENDSEC
  0
EOF
