  0
SECTION
  2
HEADER
  9
$ACADVER
  1
AC1009
  9
$INSBASE
 10
0.0
 20
0.0
 30
0.0
  9
$EXTMIN
 10
-4.70052
 20
-21.071400000000001
 30
0.0
  9
$EXTMAX
 10
205.30099999999999
 20
275.93099999999998
 30
0.0
  9
$LIMMIN
 10
0.0
 20
0.0
  9
$LIMMAX
 10
12.0
 20
9.0
  9
$ORTHOMODE
 70
     0
  9
$REGENMODE
 70
     1
  9
$FILLMODE
 70
     1
  9
$QTEXTMODE
 70
     0
  9
$MIRRTEXT
 70
     1
  9
$DRAGMODE
 70
     2
  9
$LTSCALE
 40
1.0
  9
$OSMODE
 70
    37
  9
$ATTMODE
 70
     1
  9
$TEXTSIZE
 40
0.0
  9
$TRACEWID
 40
0.05
  9
$TEXTSTYLE
  7
STANDARD
  9
$CLAYER
  8
0
  9
$CELTYPE
  6
CONTINUOUS
  9
$CECOLOR
 62
   256
  9
$DIMSCALE
 40
1.0
  9
$DIMASZ
 40
0.18
  9
$DIMEXO
 40
0.0625
  9
$DIMDLI
 40
0.38
  9
$DIMRND
 40
0.0
  9
$DIMDLE
 40
0.0
  9
$DIMEXE
 40
0.18
  9
$DIMTP
 40
0.0
  9
$DIMTM
 40
0.0
  9
$DIMTXT
 40
0.18
  9
$DIMCEN
 40
0.09
  9
$DIMTSZ
 40
0.0
  9
$DIMTOL
 70
     0
  9
$DIMLIM
 70
     0
  9
$DIMTIH
 70
     1
  9
$DIMTOH
 70
     1
  9
$DIMSE1
 70
     0
  9
$DIMSE2
 70
     0
  9
$DIMTAD
 70
     0
  9
$DIMZIN
 70
     0
  9
$DIMBLK
  1

  9
$DIMASO
 70
     1
  9
$DIMSHO
 70
     1
  9
$DIMPOST
  1

  9
$DIMAPOST
  1

  9
$DIMALT
 70
     0
  9
$DIMALTD
 70
     2
  9
$DIMALTF
 40
25.399999999999999
  9
$DIMLFAC
 40
1.0
  9
$DIMTOFL
 70
     0
  9
$DIMTVP
 40
0.0
  9
$DIMTIX
 70
     0
  9
$DIMSOXD
 70
     0
  9
$DIMSAH
 70
     0
  9
$DIMBLK1
  1

  9
$DIMBLK2
  1

  9
$DIMSTYLE
  2
STANDARD
  9
$DIMCLRD
 70
     0
  9
$DIMCLRE
 70
     0
  9
$DIMCLRT
 70
     0
  9
$DIMTFAC
 40
1.0
  9
$DIMGAP
 40
0.09
  9
$LUNITS
 70
     2
  9
$LUPREC
 70
     4
  9
$SKETCHINC
 40
0.1
  9
$FILLETRAD
 40
0.0
  9
$AUNITS
 70
     0
  9
$AUPREC
 70
     0
  9
$MENU
  1
.
  9
$ELEVATION
 40
0.0
  9
$PELEVATION
 40
0.0
  9
$THICKNESS
 40
0.0
  9
$LIMCHECK
 70
     0
  9
$BLIPMODE
 70
     0
  9
$CHAMFERA
 40
0.0
  9
$CHAMFERB
 40
0.0
  9
$SKPOLY
 70
     0
  9
$TDCREATE
 40
2444972.375
  9
$TDUPDATE
 40
2458941.2471990171
  9
$TDINDWG
 40
0.0000325231
  9
$TDUSRTIMER
 40
0.0000325231
  9
$USRTIMER
 70
     1
  9
$ANGBASE
 50
0.0
  9
$ANGDIR
 70
     0
  9
$PDMODE
 70
     0
  9
$PDSIZE
 40
0.0
  9
$PLINEWID
 40
0.0
  9
$COORDS
 70
     1
  9
$SPLFRAME
 70
     0
  9
$SPLINETYPE
 70
     6
  9
$SPLINESEGS
 70
     8
  9
$ATTDIA
 70
     1
  9
$ATTREQ
 70
     1
  9
$HANDLING
 70
     1
  9
$HANDSEED
  5
25A
  9
$SURFTAB1
 70
     6
  9
$SURFTAB2
 70
     6
  9
$SURFTYPE
 70
     6
  9
$SURFU
 70
     6
  9
$SURFV
 70
     6
  9
$UCSNAME
  2

  9
$UCSORG
 10
0.0
 20
0.0
 30
0.0
  9
$UCSXDIR
 10
1.0
 20
0.0
 30
0.0
  9
$UCSYDIR
 10
0.0
 20
1.0
 30
0.0
  9
$PUCSNAME
  2

  9
$PUCSORG
 10
0.0
 20
0.0
 30
0.0
  9
$PUCSXDIR
 10
1.0
 20
0.0
 30
0.0
  9
$PUCSYDIR
 10
0.0
 20
1.0
 30
0.0
  9
$USERI1
 70
     0
  9
$USERI2
 70
     0
  9
$USERI3
 70
     0
  9
$USERI4
 70
     0
  9
$USERI5
 70
     0
  9
$USERR1
 40
0.0
  9
$USERR2
 40
0.0
  9
$USERR3
 40
0.0
  9
$USERR4
 40
0.0
  9
$USERR5
 40
0.0
  9
$WORLDVIEW
 70
     1
  9
$SHADEDGE
 70
     3
  9
$SHADEDIF
 70
    70
  9
$TILEMODE
 70
     1
  9
$MAXACTVP
 70
    48
  9
$PLIMCHECK
 70
     0
  9
$PEXTMIN
 10
1.0000000000000000E+020
 20
1.0000000000000000E+020
 30
1.0000000000000000E+020
  9
$PEXTMAX
 10
-1.0000000000000000E+020
 20
-1.0000000000000000E+020
 30
-1.0000000000000000E+020
  9
$PLIMMIN
 10
0.0
 20
0.0
  9
$PLIMMAX
 10
12.0
 20
9.0
  9
$UNITMODE
 70
     0
  9
$VISRETAIN
 70
     1
  9
$PLINEGEN
 70
     0
  9
$PSLTSCALE
 70
     1
  0
ENDSEC
  0
SECTION
  2
TABLES
  0
TABLE
  2
VPORT
 70
     1
  0
VPORT
  2
*ACTIVE
 70
     0
 10
0.0
 20
0.0
 11
1.0
 21
1.0
 12
160.69134016008601
 22
127.4298
 13
0.0
 23
0.0
 14
1.0
 24
1.0
 15
0.0
 25
0.0
 16
0.0
 26
0.0
 36
1.0
 17
0.0
 27
0.0
 37
0.0
 40
279.0110506481771
 41
2.0982367758186391
 42
50.0
 43
0.0
 44
0.0
 50
0.0
 51
0.0
 71
     0
 72
   100
 73
     1
 74
     1
 75
     0
 76
     0
 77
     0
 78
     0
  0
ENDTAB
  0
TABLE
  2
LTYPE
 70
     4
  0
LTYPE
  2
CONTINUOUS
 70
     0
  3
Solid line
 72
    65
 73
     0
 40
0.0
  0
LTYPE
  2
AIGENLINE001
 70
     0
  3
generate AI->DXF Converter
 72
    65
 73
     4
 40
5.8561449999999988
 49
3.5278
 49
-0.776115
 49
0.776115
 49
-0.776115
  0
LTYPE
  2
AIGENLINE002
 70
     0
  3
generate AI->DXF Converter
 72
    65
 73
     6
 40
7.4083750000000004
 49
3.5278
 49
-0.776115
 49
0.776115
 49
-0.776115
 49
0.776115
 49
-0.776115
  0
LTYPE
  2
AIGENLINE003
 70
     0
  3
generate AI->DXF Converter
 72
    65
 73
     2
 40
1.5522299999999991
 49
0.776115
 49
-0.776115
  0
ENDTAB
  0
TABLE
  2
LAYER
 70
     4
  0
LAYER
  2
0
 70
     0
 62
     7
  6
CONTINUOUS
  0
LAYER
  2
____
 70
     0
 62
     7
  6
CONTINUOUS
  0
LAYER
  2
_________1
 70
     0
 62
     7
  6
CONTINUOUS
  0
LAYER
  2
_________2
 70
     0
 62
     7
  6
CONTINUOUS
  0
ENDTAB
  0
TABLE
  2
STYLE
 70
     1
  0
STYLE
  2
STANDARD
 70
     0
 40
0.0
 41
0.0
 50
0.0
 71
     0
 42
0.0
  3
TXT
  4
EXTFONT.SHX
  0
ENDTAB
  0
TABLE
  2
VIEW
 70
     0
  0
ENDTAB
  0
TABLE
  2
UCS
 70
     0
  0
ENDTAB
  0
TABLE
  2
APPID
 70
     3
  0
APPID
  2
ACAD
 70
     0
  0
APPID
  2
ACAD_NAV_VCDISPLAY
 70
     0
  0
APPID
  2
ACAD_MLEADERVER
 70
     0
  0
ENDTAB
  0
TABLE
  2
DIMSTYLE
 70
     1
  0
DIMSTYLE
  2
STANDARD
 70
     0
  3

  4

  5

  6

  7

 40
1.0
 41
0.18
 42
0.0625
 43
0.38
 44
0.18
 45
0.0
 46
0.0
 47
0.0
 48
0.0
140
0.18
141
0.09
142
0.0
143
25.399999999999999
144
1.0
145
0.0
146
1.0
147
0.09
 71
     0
 72
     0
 73
     1
 74
     1
 75
     0
 76
     0
 77
     0
 78
     0
170
     0
171
     2
172
     0
173
     0
174
     0
175
     0
176
     0
177
     0
178
     0
  0
ENDTAB
  0
ENDSEC
  0
SECTION
  2
BLOCKS
  0
BLOCK
  8
0
  2
$MODEL_SPACE
 70
     0
 10
0.0
 20
0.0
 30
0.0
  3
$MODEL_SPACE
  1

  0
ENDBLK
  5
1A
  8
0
  0
BLOCK
 67
     1
  8
0
  2
$PAPER_SPACE
 70
     0
 10
0.0
 20
0.0
 30
0.0
  3
$PAPER_SPACE
  1

  0
ENDBLK
  5
17
 67
     1
  8
0
  0
BLOCK
  8
____
  2
AIGNBL01010002
 70
     0
 10
0.0
 20
0.0
 30
0.0
  3
AIGNBL01010002
  1

  0
TEXT
  5
28
  8
____
 62
     7
 10
112.830646
 20
216.23400000000001
 30
0.0
 40
3.0923400000000001
  1
壁仕上げ面
 41
0.5
 72
     1
 11
117.26300000000001
 21
216.23400000000001
 31
0.0
  0
ENDBLK
  5
29
  8
____
  0
BLOCK
  8
____
  2
AIGNBL01010003
 70
     0
 10
0.0
 20
0.0
 30
0.0
  3
AIGNBL01010003
  1

  0
TEXT
  5
2C
  8
____
 62
     7
 10
61.279299999999999
 20
196.892
 30
0.0
 40
3.0923400000000001
  1
壁仕上げ面
 41
0.5
  0
ENDBLK
  5
2D
  8
____
  0
BLOCK
  8
____
  2
AIGNBL01010004
 70
     0
 10
0.0
 20
0.0
 30
0.0
  3
AIGNBL01010004
  1

  0
TEXT
  5
30
  8
____
 62
     7
 10
149.548
 20
229.99952500000001
 30
0.0
 40
3.0923400000000001
  1
45
 50
90.0
 41
0.5
 72
     1
 11
149.548
 21
231.28800000000001
 31
0.0
  0
ENDBLK
  5
31
  8
____
  0
BLOCK
  8
____
  2
AIGNBL01010005
 70
     0
 10
0.0
 20
0.0
 30
0.0
  3
AIGNBL01010005
  1

  0
TEXT
  5
34
  8
____
 62
     7
 10
131.5123725
 20
69.000900000000001
 30
0.0
 40
3.0923400000000001
  1
30
 41
0.5
 72
     1
 11
132.672
 21
69.000900000000001
 31
0.0
  0
ENDBLK
  5
35
  8
____
  0
BLOCK
  8
____
  2
AIGNBL01010006
 70
     0
 10
0.0
 20
0.0
 30
0.0
  3
AIGNBL01010006
  1

  0
TEXT
  5
38
  8
____
 62
     7
 10
91.199100000000001
 20
131.81128749999999
 30
0.0
 40
3.0923400000000001
  1
330
 50
90.0
 41
0.5
 72
     1
 11
91.199100000000001
 21
133.744
 31
0.0
  0
ENDBLK
  5
39
  8
____
  0
BLOCK
  8
____
  2
AIGNBL01010007
 70
     0
 10
0.0
 20
0.0
 30
0.0
  3
AIGNBL01010007
  1

  0
TEXT
  5
3C
  8
____
 62
     7
 10
149.548
 20
132.21613500000001
 30
0.0
 40
3.0923400000000001
  1
300
 50
90.0
 41
0.5
 72
     1
 11
149.548
 21
134.02000000000001
 31
0.0
  0
ENDBLK
  5
3D
  8
____
  0
BLOCK
  8
____
  2
AIGNBL01010008
 70
     0
 10
0.0
 20
0.0
 30
0.0
  3
AIGNBL01010008
  1

  0
TEXT
  5
40
  8
____
 62
     7
 10
32.932600000000001
 20
75.452500000000001
 30
0.0
 40
3.0923400000000001
  1
メーカーロゴ
 41
0.5
  0
ENDBLK
  5
41
  8
____
  0
BLOCK
  8
____
  2
AIGNBL01010009
 70
     0
 10
0.0
 20
0.0
 30
0.0
  3
AIGNBL01010009
  1

  0
TEXT
  5
44
  8
____
 62
     7
 10
67.074324999999988
 20
69.000900000000001
 30
0.0
 40
3.0923400000000001
  1
66
 41
0.5
 72
     1
 11
68.362799999999993
 21
69.000900000000001
 31
0.0
  0
ENDBLK
  5
45
  8
____
  0
BLOCK
  8
____
  2
AIGNBL0101000A
 70
     0
 10
0.0
 20
0.0
 30
0.0
  3
AIGNBL0101000A
  1

  0
TEXT
  5
48
  8
____
 62
     7
 10
87.712900000000005
 20
236.47900000000001
 30
0.0
 40
3.0923400000000001
  1
（%%c8\U+00D750 樹脂プラグ付）
 41
0.5
  0
ENDBLK
  5
49
  8
____
  0
BLOCK
  8
____
  2
AIGNBL0101000B
 70
     0
 10
0.0
 20
0.0
 30
0.0
  3
AIGNBL0101000B
  1

  0
TEXT
  5
4C
  8
____
 62
     7
 10
87.712900000000005
 20
241.13300000000001
 30
0.0
 40
3.0923400000000001
  1
%%c6\U+00D760 SUS専用ネジ 2本
 41
0.5
  0
ENDBLK
  5
4D
  8
____
  0
BLOCK
  8
_________1
  2
AIGNBL02010002
 70
     0
 10
0.0
 20
0.0
 30
0.0
  3
AIGNBL02010002
  1

  0
LINE
  5
50
  8
_________1
 62
     7
 10
129.96700000000001
 20
68.8934
 30
0.0
 11
127.755
 21
68.300799999999995
 31
0.0
  0
LINE
  5
51
  8
_________1
 62
     7
 10
127.755
 20
68.300799999999995
 30
0.0
 11
129.96700000000001
 21
67.708299999999994
 31
0.0
  0
LINE
  5
52
  8
_________1
 62
     7
 10
129.96700000000001
 20
67.708299999999994
 30
0.0
 11
129.96700000000001
 21
68.8934
 31
0.0
  0
LINE
  5
53
  8
_________1
 62
     7
 10
135.37700000000001
 20
67.708299999999994
 30
0.0
 11
137.58799999999999
 21
68.300799999999995
 31
0.0
  0
LINE
  5
54
  8
_________1
 62
     7
 10
137.58799999999999
 20
68.300799999999995
 30
0.0
 11
135.37700000000001
 21
68.8934
 31
0.0
  0
LINE
  5
55
  8
_________1
 62
     7
 10
135.37700000000001
 20
68.8934
 30
0.0
 11
135.37700000000001
 21
67.708299999999994
 31
0.0
  0
LINE
  5
56
  8
_________1
 62
     7
 10
127.755
 20
68.300799999999995
 30
0.0
 11
137.58799999999999
 21
68.300799999999995
 31
0.0
  0
ENDBLK
  5
57
  8
_________1
  0
BLOCK
  8
_________1
  2
AIGNBL02010003
 70
     0
 10
0.0
 20
0.0
 30
0.0
  3
AIGNBL02010003
  1

  0
LINE
  5
5A
  8
_________1
 62
     7
 10
92.491799999999998
 20
186.51400000000001
 30
0.0
 11
91.899199999999979
 21
188.726
 31
0.0
  0
LINE
  5
5B
  8
_________1
 62
     7
 10
91.899199999999979
 20
188.726
 30
0.0
 11
91.306600000000003
 21
186.51400000000001
 31
0.0
  0
LINE
  5
5C
  8
_________1
 62
     7
 10
91.306600000000003
 20
186.51400000000001
 30
0.0
 11
92.491799999999998
 21
186.51400000000001
 31
0.0
  0
LINE
  5
5D
  8
_________1
 62
     7
 10
91.306600000000003
 20
80.973299999999995
 30
0.0
 11
91.899199999999979
 21
78.761600000000001
 31
0.0
  0
LINE
  5
5E
  8
_________1
 62
     7
 10
91.899199999999979
 20
78.761600000000001
 30
0.0
 11
92.491799999999998
 21
80.973299999999995
 31
0.0
  0
LINE
  5
5F
  8
_________1
 62
     7
 10
92.491799999999998
 20
80.973299999999995
 30
0.0
 11
91.306600000000003
 21
80.973299999999995
 31
0.0
  0
LINE
  5
60
  8
_________1
 62
     7
 10
91.899199999999979
 20
188.726
 30
0.0
 11
91.899199999999979
 21
78.761600000000001
 31
0.0
  0
ENDBLK
  5
61
  8
_________1
  0
BLOCK
  8
_________1
  2
AIGNBL02010004
 70
     0
 10
0.0
 20
0.0
 30
0.0
  3
AIGNBL02010004
  1

  0
LINE
  5
64
  8
_________1
 62
     7
 10
150.84
 20
181.80799999999999
 30
0.0
 11
150.24799999999999
 21
184.02000000000001
 31
0.0
  0
LINE
  5
65
  8
_________1
 62
     7
 10
150.24799999999999
 20
184.02000000000001
 30
0.0
 11
149.655
 21
181.80799999999999
 31
0.0
  0
LINE
  5
66
  8
_________1
 62
     7
 10
149.655
 20
181.80799999999999
 30
0.0
 11
150.84
 21
181.80799999999999
 31
0.0
  0
LINE
  5
67
  8
_________1
 62
     7
 10
149.655
 20
86.231300000000005
 30
0.0
 11
150.24799999999999
 21
84.019499999999994
 31
0.0
  0
LINE
  5
68
  8
_________1
 62
     7
 10
150.24799999999999
 20
84.019499999999994
 30
0.0
 11
150.84
 21
86.231300000000005
 31
0.0
  0
LINE
  5
69
  8
_________1
 62
     7
 10
150.84
 20
86.231300000000005
 30
0.0
 11
149.655
 21
86.231300000000005
 31
0.0
  0
LINE
  5
6A
  8
_________1
 62
     7
 10
150.24799999999999
 20
184.02000000000001
 30
0.0
 11
150.24799999999999
 21
84.019499999999994
 31
0.0
  0
ENDBLK
  5
6B
  8
_________1
  0
BLOCK
  8
_________1
  2
AIGNBL02010005
 70
     0
 10
0.0
 20
0.0
 30
0.0
  3
AIGNBL02010005
  1

  0
LINE
  5
6E
  8
_________1
 62
     7
 10
43.917499999999997
 20
84.743300000000005
 30
0.0
 11
42.362900000000003
 21
83.743200000000002
 31
0.0
  0
LINE
  5
6F
  8
_________1
 62
     7
 10
43.917499999999997
 20
82.743099999999984
 30
0.0
 11
42.362900000000003
 21
83.743200000000002
 31
0.0
  0
LINE
  5
70
  8
_________1
 62
     7
 10
54.301600000000001
 20
82.743099999999984
 30
0.0
 11
54.607900000000001
 21
83.076599999999999
 31
0.0
  0
LINE
  5
71
  8
_________1
 62
     7
 10
57.362900000000003
 20
82.743099999999984
 30
0.0
 11
57.056699999999999
 21
83.076599999999999
 31
0.0
  0
LINE
  5
72
  8
_________1
 62
     7
 10
57.056699999999999
 20
83.076599999999999
 30
0.0
 11
54.607900000000001
 21
83.076599999999999
 31
0.0
  0
LINE
  5
73
  8
_________1
 62
     7
 10
54.301600000000001
 20
84.743300000000005
 30
0.0
 11
54.607900000000001
 21
84.409899999999993
 31
0.0
  0
LINE
  5
74
  8
_________1
 62
     7
 10
57.362900000000003
 20
84.743300000000005
 30
0.0
 11
57.056699999999999
 21
84.409899999999993
 31
0.0
  0
LINE
  5
75
  8
_________1
 62
     7
 10
57.056699999999999
 20
84.409899999999993
 30
0.0
 11
54.607900000000001
 21
84.409899999999993
 31
0.0
  0
LINE
  5
76
  8
_________1
 62
     7
 10
57.362900000000003
 20
84.743300000000005
 30
0.0
 11
43.917499999999997
 21
84.743300000000005
 31
0.0
  0
LINE
  5
77
  8
_________1
 62
     7
 10
57.362900000000003
 20
82.743099999999984
 30
0.0
 11
43.917499999999997
 21
82.743099999999984
 31
0.0
  0
LINE
  5
78
  8
_________1
  6
AIGENLINE001
 62
     7
 10
58.429200000000002
 20
83.743200000000002
 30
0.0
 11
40.781199999999998
 21
83.743200000000002
 31
0.0
  0
LINE
  5
79
  8
_________1
 62
     7
 10
51.240099999999998
 20
82.743099999999984
 30
0.0
 11
51.240099999999998
 21
84.743300000000005
 31
0.0
  0
LINE
  5
7A
  8
_________1
 62
     7
 10
54.301600000000001
 20
82.743099999999984
 30
0.0
 11
54.301600000000001
 21
84.743300000000005
 31
0.0
  0
LINE
  5
7B
  8
_________1
 62
     7
 10
57.362900000000003
 20
82.743099999999984
 30
0.0
 11
57.362900000000003
 21
84.743300000000005
 31
0.0
  0
LINE
  5
7C
  8
_________1
 62
     7
 10
50.551099999999991
 20
84.743300000000005
 30
0.0
 11
51.042000000000002
 21
82.743099999999984
 31
0.0
  0
LINE
  5
7D
  8
_________1
 62
     7
 10
49.78159999999999
 20
84.743300000000005
 30
0.0
 11
50.273200000000003
 21
82.743099999999984
 31
0.0
  0
LINE
  5
7E
  8
_________1
 62
     7
 10
49.012599999999999
 20
84.743300000000005
 30
0.0
 11
49.503799999999998
 21
82.743099999999984
 31
0.0
  0
LINE
  5
7F
  8
_________1
 62
     7
 10
48.243400000000001
 20
84.743300000000005
 30
0.0
 11
48.734999999999992
 21
82.743099999999984
 31
0.0
  0
LINE
  5
80
  8
_________1
 62
     7
 10
47.474400000000003
 20
84.743300000000005
 30
0.0
 11
47.965499999999992
 21
82.743099999999984
 31
0.0
  0
LINE
  5
81
  8
_________1
 62
     7
 10
46.704900000000002
 20
84.743300000000005
 30
0.0
 11
47.196699999999993
 21
82.743099999999984
 31
0.0
  0
LINE
  5
82
  8
_________1
 62
     7
 10
45.936199999999999
 20
84.743300000000005
 30
0.0
 11
46.427300000000002
 21
82.743099999999984
 31
0.0
  0
LINE
  5
83
  8
_________1
 62
     7
 10
45.166699999999999
 20
84.743300000000005
 30
0.0
 11
45.658299999999997
 21
82.743099999999984
 31
0.0
  0
LINE
  5
84
  8
_________1
 62
     7
 10
44.3979
 20
84.743300000000005
 30
0.0
 11
44.888800000000003
 21
82.743099999999984
 31
0.0
  0
LINE
  5
85
  8
_________1
 62
     7
 10
43.6676
 20
84.582800000000006
 30
0.0
 11
44.120100000000001
 21
82.743099999999984
 31
0.0
  0
ENDBLK
  5
86
  8
_________1
  0
BLOCK
  8
_________1
  2
AIGNBL02010006
 70
     0
 10
0.0
 20
0.0
 30
0.0
  3
AIGNBL02010006
  1

  0
LINE
  5
89
  8
_________1
 62
     7
 10
43.917499999999997
 20
184.744
 30
0.0
 11
42.362900000000003
 21
183.744
 31
0.0
  0
LINE
  5
8A
  8
_________1
 62
     7
 10
43.917499999999997
 20
182.744
 30
0.0
 11
42.362900000000003
 21
183.744
 31
0.0
  0
LINE
  5
8B
  8
_________1
 62
     7
 10
54.301600000000001
 20
182.744
 30
0.0
 11
54.607900000000001
 21
183.077
 31
0.0
  0
LINE
  5
8C
  8
_________1
 62
     7
 10
57.362900000000003
 20
182.744
 30
0.0
 11
57.056699999999999
 21
183.077
 31
0.0
  0
LINE
  5
8D
  8
_________1
 62
     7
 10
57.056699999999999
 20
183.077
 30
0.0
 11
54.607900000000001
 21
183.077
 31
0.0
  0
LINE
  5
8E
  8
_________1
 62
     7
 10
54.301600000000001
 20
184.744
 30
0.0
 11
54.607900000000001
 21
184.41099999999989
 31
0.0
  0
LINE
  5
8F
  8
_________1
 62
     7
 10
57.362900000000003
 20
184.744
 30
0.0
 11
57.056699999999999
 21
184.41099999999989
 31
0.0
  0
LINE
  5
90
  8
_________1
 62
     7
 10
57.056699999999999
 20
184.41099999999989
 30
0.0
 11
54.607900000000001
 21
184.41099999999989
 31
0.0
  0
LINE
  5
91
  8
_________1
 62
     7
 10
57.362900000000003
 20
184.744
 30
0.0
 11
43.917499999999997
 21
184.744
 31
0.0
  0
LINE
  5
92
  8
_________1
 62
     7
 10
57.362900000000003
 20
182.744
 30
0.0
 11
43.917499999999997
 21
182.744
 31
0.0
  0
LINE
  5
93
  8
_________1
  6
AIGENLINE001
 62
     7
 10
59.009
 20
183.744
 30
0.0
 11
40.781199999999998
 21
183.744
 31
0.0
  0
LINE
  5
94
  8
_________1
 62
     7
 10
51.240099999999998
 20
182.744
 30
0.0
 11
51.240099999999998
 21
184.744
 31
0.0
  0
LINE
  5
95
  8
_________1
 62
     7
 10
54.301600000000001
 20
182.744
 30
0.0
 11
54.301600000000001
 21
184.744
 31
0.0
  0
LINE
  5
96
  8
_________1
 62
     7
 10
57.362900000000003
 20
182.744
 30
0.0
 11
57.362900000000003
 21
184.744
 31
0.0
  0
LINE
  5
97
  8
_________1
 62
     7
 10
50.551099999999991
 20
184.744
 30
0.0
 11
51.042000000000002
 21
182.744
 31
0.0
  0
LINE
  5
98
  8
_________1
 62
     7
 10
49.78159999999999
 20
184.744
 30
0.0
 11
50.273200000000003
 21
182.744
 31
0.0
  0
LINE
  5
99
  8
_________1
 62
     7
 10
49.012599999999999
 20
184.744
 30
0.0
 11
49.503799999999998
 21
182.744
 31
0.0
  0
LINE
  5
9A
  8
_________1
 62
     7
 10
48.243400000000001
 20
184.744
 30
0.0
 11
48.734999999999992
 21
182.744
 31
0.0
  0
LINE
  5
9B
  8
_________1
 62
     7
 10
47.474400000000003
 20
184.744
 30
0.0
 11
47.965499999999992
 21
182.744
 31
0.0
  0
LINE
  5
9C
  8
_________1
 62
     7
 10
46.704900000000002
 20
184.744
 30
0.0
 11
47.196699999999993
 21
182.744
 31
0.0
  0
LINE
  5
9D
  8
_________1
 62
     7
 10
45.936199999999999
 20
184.744
 30
0.0
 11
46.427300000000002
 21
182.744
 31
0.0
  0
LINE
  5
9E
  8
_________1
 62
     7
 10
45.166699999999999
 20
184.744
 30
0.0
 11
45.658299999999997
 21
182.744
 31
0.0
  0
LINE
  5
9F
  8
_________1
 62
     7
 10
44.3979
 20
184.744
 30
0.0
 11
44.888800000000003
 21
182.744
 31
0.0
  0
LINE
  5
A0
  8
_________1
 62
     7
 10
43.6676
 20
184.584
 30
0.0
 11
44.120100000000001
 21
182.744
 31
0.0
  0
ENDBLK
  5
A1
  8
_________1
  0
BLOCK
  8
_________1
  2
AIGNBL02010007
 70
     0
 10
0.0
 20
0.0
 30
0.0
  3
AIGNBL02010007
  1

  0
LINE
  5
A4
  8
_________1
 62
     7
 10
129.512
 20
233.94499999999999
 30
0.0
 11
131.672
 21
233.18299999999999
 31
0.0
  0
LINE
  5
A5
  8
_________1
 62
     7
 10
131.672
 20
233.18299999999999
 30
0.0
 11
130.18299999999999
 21
234.922
 31
0.0
  0
LINE
  5
A6
  8
_________1
 62
     7
 10
130.18299999999999
 20
234.922
 30
0.0
 11
129.512
 21
233.94499999999999
 31
0.0
  0
LINE
  5
A7
  8
_________1
 62
     7
 10
131.667
 20
233.17699999999999
 30
0.0
 11
121.081
 21
240.43299999999999
 31
0.0
  0
LINE
  5
A8
  8
_________1
 62
     7
 10
121.081
 20
240.43299999999999
 30
0.0
 11
87.712900000000005
 21
240.43299999999999
 31
0.0
  0
ENDBLK
  5
A9
  8
_________1
  0
BLOCK
  8
_________2
  2
AIGNBL03010002
 70
     0
 10
0.0
 20
0.0
 30
0.0
  3
AIGNBL03010002
  1

  0
LINE
  5
AC
  8
_________2
 62
     7
 10
76.741
 20
29.8047
 30
0.0
 11
74.554699999999997
 21
29.8047
 31
0.0
  0
LINE
  5
AD
  8
_________2
 62
     7
 10
77.233699999999999
 20
29.8047
 30
0.0
 11
76.981499999999997
 21
29.8047
 31
0.0
  0
LINE
  5
AE
  8
_________2
 62
     7
 10
77.726299999999995
 20
29.8047
 30
0.0
 11
80.651200000000003
 21
29.8047
 31
0.0
  0
LINE
  5
AF
  8
_________2
 62
     7
 10
77.233699999999999
 20
29.8047
 30
0.0
 11
77.485500000000002
 21
29.8047
 31
0.0
  0
LINE
  5
B0
  8
_________2
 62
     7
 10
70.837100000000007
 20
29.8047
 30
0.0
 11
68.650499999999994
 21
29.8047
 31
0.0
  0
LINE
  5
B1
  8
_________2
 62
     7
 10
71.329400000000007
 20
29.8047
 30
0.0
 11
71.077600000000004
 21
29.8047
 31
0.0
  0
LINE
  5
B2
  8
_________2
 62
     7
 10
71.329400000000007
 20
30.2974
 30
0.0
 11
71.329400000000007
 21
32.484400000000001
 31
0.0
  0
LINE
  5
B3
  8
_________2
 62
     7
 10
71.329400000000007
 20
29.8047
 30
0.0
 11
71.329400000000007
 21
30.056899999999999
 31
0.0
  0
LINE
  5
B4
  8
_________2
 62
     7
 10
71.822100000000006
 20
29.8047
 30
0.0
 11
74.009
 21
29.8047
 31
0.0
  0
LINE
  5
B5
  8
_________2
 62
     7
 10
71.329400000000007
 20
29.8047
 30
0.0
 11
71.581599999999995
 21
29.8047
 31
0.0
  0
LINE
  5
B6
  8
_________2
 62
     7
 10
71.329400000000007
 20
29.312799999999999
 30
0.0
 11
71.329400000000007
 21
27.125800000000002
 31
0.0
  0
LINE
  5
B7
  8
_________2
 62
     7
 10
71.329400000000007
 20
29.8047
 30
0.0
 11
71.329400000000007
 21
29.5532
 31
0.0
  0
LINE
  5
B8
  8
_________2
 62
     7
 10
75.040499999999994
 20
28.5852
 30
0.0
 11
80.218500000000006
 21
27.720400000000001
 31
0.0
  0
LINE
  5
B9
  8
_________2
 62
     7
 10
75.040499999999994
 20
31.0243
 30
0.0
 11
80.218500000000006
 21
31.889700000000001
 31
0.0
  0
LINE
  5
BA
  8
_________2
 62
     7
 10
80.218500000000006
 20
27.720400000000001
 30
0.0
 11
80.218500000000006
 21
31.889700000000001
 31
0.0
  0
LINE
  5
BB
  8
_________2
 62
     7
 10
75.040499999999994
 20
28.5852
 30
0.0
 11
75.040499999999994
 21
31.0243
 31
0.0
  0
ARC
  5
BC
  8
_________2
 62
     7
 10
71.28285600000001
 20
29.757811
 30
0.0
 40
1.2673589999999999
 50
2.122214
 51
87.893958999999995
  0
ARC
  5
BD
  8
_________2
 62
     7
 10
71.375959999999992
 20
29.758213000000001
 30
0.0
 40
1.2669559999999991
 50
92.104701000000006
 51
177.89526900000001
  0
ARC
  5
BE
  8
_________2
 62
     7
 10
71.376357999999996
 20
29.851671
 30
0.0
 40
1.2673680000000001
 50
182.12203600000001
 51
267.877993
  0
ARC
  5
BF
  8
_________2
 62
     7
 10
71.282531999999989
 20
29.851998999999999
 30
0.0
 40
1.267695999999999
 50
272.12015300000002
 51
357.863674
  0
ARC
  5
C0
  8
_________2
 62
     7
 10
71.329430000000002
 20
29.804742999999998
 30
0.0
 40
2.0849849999999992
 50
0.00001
 51
89.999980000000008
  0
ARC
  5
C1
  8
_________2
 62
     7
 10
71.329603000000006
 20
29.804915000000001
 30
0.0
 40
2.084813
 50
90.004733999999999
 51
180.00474399999999
  0
ARC
  5
C2
  8
_________2
 62
     7
 10
71.409106000000008
 20
29.884775999999999
 30
0.0
 40
2.1657950000000001
 50
182.11776599999999
 51
267.89173399999999
  0
ARC
  5
C3
  8
_________2
 62
     7
 10
71.249459000000002
 20
29.885429999999999
 30
0.0
 40
2.1664590000000001
 50
272.11546800000002
 51
357.86560400000002
  0
ENDBLK
  5
C4
  8
_________2
  0
ENDSEC
  0
SECTION
  2
ENTITIES
  0
INSERT
  5
C5
  8
____
 62
     7
  2
AIGNBL01010002
 10
0.0
 20
0.0
 30
0.0
  0
INSERT
  5
C6
  8
____
 62
     7
  2
AIGNBL01010003
 10
0.0
 20
0.0
 30
0.0
  0
INSERT
  5
C7
  8
____
 62
     7
  2
AIGNBL01010004
 10
0.0
 20
0.0
 30
0.0
  0
INSERT
  5
C8
  8
____
 62
     7
  2
AIGNBL01010005
 10
0.0
 20
0.0
 30
0.0
  0
INSERT
  5
C9
  8
____
 62
     7
  2
AIGNBL01010006
 10
0.0
 20
0.0
 30
0.0
  0
INSERT
  5
CA
  8
____
 62
     7
  2
AIGNBL01010007
 10
0.0
 20
0.0
 30
0.0
  0
INSERT
  5
CB
  8
____
 62
     7
  2
AIGNBL01010008
 10
0.0
 20
0.0
 30
0.0
  0
INSERT
  5
CC
  8
____
 62
     7
  2
AIGNBL01010009
 10
0.0
 20
0.0
 30
0.0
  0
INSERT
  5
CD
  8
____
 62
     7
  2
AIGNBL0101000A
 10
0.0
 20
0.0
 30
0.0
  0
INSERT
  5
CE
  8
____
 62
     7
  2
AIGNBL0101000B
 10
0.0
 20
0.0
 30
0.0
  0
LINE
  5
CF
  8
_________1
  6
AIGENLINE002
 62
     7
 10
155.119
 20
223.78800000000001
 30
0.0
 11
108.07899999999999
 21
223.78800000000001
 31
0.0
  0
LINE
  5
D0
  8
_________1
 62
     7
 10
115.518
 20
220.76499999999999
 30
0.0
 11
117.26300000000001
 21
223.78800000000001
 31
0.0
  0
LINE
  5
D1
  8
_________1
 62
     7
 10
117.26300000000001
 20
223.78800000000001
 30
0.0
 11
119.008
 21
220.76499999999999
 31
0.0
  0
LINE
  5
D2
  8
_________1
 62
     7
 10
119.008
 20
220.76499999999999
 30
0.0
 11
115.518
 21
220.76499999999999
 31
0.0
  0
LINE
  5
D3
  8
_________1
 62
     7
 10
60.385699999999993
 20
196.48500000000001
 30
0.0
 11
57.362900000000003
 21
198.22999999999999
 31
0.0
  0
LINE
  5
D4
  8
_________1
 62
     7
 10
57.362900000000003
 20
198.22999999999999
 30
0.0
 11
60.385699999999993
 21
199.97499999999999
 31
0.0
  0
LINE
  5
D5
  8
_________1
 62
     7
 10
60.385699999999993
 20
199.97499999999999
 30
0.0
 11
60.385699999999993
 21
196.48500000000001
 31
0.0
  0
LINE
  5
D6
  8
_________1
 62
     7
 10
149.655
 20
226.0
 30
0.0
 11
150.24799999999999
 21
223.78800000000001
 31
0.0
  0
LINE
  5
D7
  8
_________1
 62
     7
 10
150.24799999999999
 20
223.78800000000001
 30
0.0
 11
150.84
 21
226.0
 31
0.0
  0
LINE
  5
D8
  8
_________1
 62
     7
 10
150.84
 20
226.0
 30
0.0
 11
149.655
 21
226.0
 31
0.0
  0
LINE
  5
D9
  8
_________1
 62
     7
 10
150.84
 20
236.57599999999999
 30
0.0
 11
150.24799999999999
 21
238.78800000000001
 31
0.0
  0
LINE
  5
DA
  8
_________1
 62
     7
 10
150.24799999999999
 20
238.78800000000001
 30
0.0
 11
149.655
 21
236.57599999999999
 31
0.0
  0
LINE
  5
DB
  8
_________1
 62
     7
 10
149.655
 20
236.57599999999999
 30
0.0
 11
150.84
 21
236.57599999999999
 31
0.0
  0
LINE
  5
DC
  8
_________1
 62
     7
 10
150.24799999999999
 20
223.78800000000001
 30
0.0
 11
150.24799999999999
 21
238.78800000000001
 31
0.0
  0
LINE
  5
DD
  8
_________1
 62
     7
 10
150.94800000000001
 20
238.78800000000001
 30
0.0
 11
133.59
 21
238.78800000000001
 31
0.0
  0
LINE
  5
DE
  8
_________1
  6
AIGENLINE002
 62
     7
 10
57.362900000000003
 20
202.86600000000001
 30
0.0
 11
57.362900000000003
 21
60.361899999999999
 31
0.0
  0
LINE
  5
DF
  8
_________1
 62
     7
 10
60.696199999999997
 20
80.427999999999983
 30
0.0
 11
59.029699999999991
 21
80.427999999999983
 31
0.0
  0
LINE
  5
E0
  8
_________1
 62
     7
 10
59.029699999999991
 20
80.427999999999983
 30
0.0
 11
59.029699999999991
 21
83.761499999999998
 31
0.0
  0
LINE
  5
E1
  8
_________1
 62
     7
 10
59.029699999999991
 20
83.761499999999998
 30
0.0
 11
60.696199999999997
 21
83.761499999999998
 31
0.0
  0
LINE
  5
E2
  8
_________1
 62
     7
 10
60.696199999999997
 20
83.761499999999998
 30
0.0
 11
60.696199999999997
 21
80.427999999999983
 31
0.0
  0
INSERT
  5
E3
  8
_________1
 62
     7
  2
AIGNBL02010002
 10
0.0
 20
0.0
 30
0.0
  0
LINE
  5
E4
  8
_________1
 62
     7
 10
127.755
 20
78.435699999999997
 30
0.0
 11
127.755
 21
67.600800000000007
 31
0.0
  0
LINE
  5
E5
  8
_________1
 62
     7
 10
137.58799999999999
 20
78.435699999999997
 30
0.0
 11
137.58799999999999
 21
67.600800000000007
 31
0.0
  0
INSERT
  5
E6
  8
_________1
 62
     7
  2
AIGNBL02010003
 10
0.0
 20
0.0
 30
0.0
  0
LINE
  5
E7
  8
_________1
 62
     7
 10
79.829599999999999
 20
78.761600000000001
 30
0.0
 11
92.599199999999996
 21
78.761600000000001
 31
0.0
  0
LINE
  5
E8
  8
_________1
 62
     7
 10
79.829599999999999
 20
188.726
 30
0.0
 11
92.599199999999996
 21
188.726
 31
0.0
  0
INSERT
  5
E9
  8
_________1
 62
     7
  2
AIGNBL02010004
 10
0.0
 20
0.0
 30
0.0
  0
LINE
  5
EA
  8
_________1
 62
     7
 10
150.94800000000001
 20
84.019499999999994
 30
0.0
 11
135.44499999999999
 21
84.019499999999994
 31
0.0
  0
LINE
  5
EB
  8
_________1
  6
AIGENLINE001
 62
     7
 10
130.59899999999999
 20
84.019499999999994
 30
0.0
 11
134.745
 21
84.019499999999994
 31
0.0
  0
LINE
  5
EC
  8
_________1
  6
AIGENLINE001
 62
     7
 10
132.672
 20
85.977399999999989
 30
0.0
 11
132.672
 21
82.061000000000007
 31
0.0
  0
ARC
  5
ED
  8
_________1
  6
AIGENLINE003
 62
     7
 10
132.710048
 20
83.981282999999991
 30
0.0
 40
1.038713999999999
 50
92.109643999999989
 51
177.89032599999999
  0
ARC
  5
EE
  8
_________1
  6
AIGENLINE003
 62
     7
 10
132.711128
 20
84.058121999999983
 30
0.0
 40
1.039806999999999
 50
182.12754899999999
 51
267.83300800000001
  0
ARC
  5
EF
  8
_________1
  6
AIGENLINE003
 62
     7
 10
132.671638
 20
84.019347999999994
 30
0.0
 40
1.000289999999999
 50
270.00988699999999
 51
0.009857
  0
ARC
  5
F0
  8
_________1
  6
AIGENLINE003
 62
     7
 10
132.633509
 20
83.980861000000004
 30
0.0
 40
1.039137999999999
 50
2.1320790000000001
 51
87.887651000000005
  0
LINE
  5
F1
  8
_________1
 62
     7
 10
150.94800000000001
 20
184.02000000000001
 30
0.0
 11
135.44499999999999
 21
184.02000000000001
 31
0.0
  0
LINE
  5
F2
  8
_________1
 62
     7
 10
59.5747
 20
68.8934
 30
0.0
 11
57.362900000000003
 21
68.300799999999995
 31
0.0
  0
LINE
  5
F3
  8
_________1
 62
     7
 10
57.362900000000003
 20
68.300799999999995
 30
0.0
 11
59.5747
 21
67.708299999999994
 31
0.0
  0
LINE
  5
F4
  8
_________1
 62
     7
 10
59.5747
 20
67.708299999999994
 30
0.0
 11
59.5747
 21
68.8934
 31
0.0
  0
LINE
  5
F5
  8
_________1
 62
     7
 10
57.459200000000003
 20
79.586699999999993
 30
0.0
 11
59.029699999999991
 21
81.253100000000003
 31
0.0
  0
LINE
  5
F6
  8
_________1
 62
     7
 10
59.029699999999991
 20
81.253100000000003
 30
0.0
 11
56.836500000000001
 21
80.595100000000016
 31
0.0
  0
LINE
  5
F7
  8
_________1
 62
     7
 10
56.836500000000001
 20
80.595100000000016
 30
0.0
 11
57.459200000000003
 21
79.586699999999993
 31
0.0
  0
LINE
  5
F8
  8
_________1
 62
     7
 10
32.932600000000001
 20
74.752499999999984
 30
0.0
 11
48.503300000000003
 21
74.752499999999984
 31
0.0
  0
LINE
  5
F9
  8
_________1
 62
     7
 10
48.503300000000003
 20
74.752499999999984
 30
0.0
 11
59.029699999999991
 21
81.253100000000003
 31
0.0
  0
LINE
  5
FA
  8
_________1
 62
     7
 10
77.151300000000006
 20
67.708299999999994
 30
0.0
 11
79.363100000000003
 21
68.300799999999995
 31
0.0
  0
LINE
  5
FB
  8
_________1
 62
     7
 10
79.363100000000003
 20
68.300799999999995
 30
0.0
 11
77.151300000000006
 21
68.8934
 31
0.0
  0
LINE
  5
FC
  8
_________1
 62
     7
 10
77.151300000000006
 20
68.8934
 30
0.0
 11
77.151300000000006
 21
67.708299999999994
 31
0.0
  0
LINE
  5
FD
  8
_________1
 62
     7
 10
57.362900000000003
 20
68.300799999999995
 30
0.0
 11
79.363100000000003
 21
68.300799999999995
 31
0.0
  0
LINE
  5
FE
  8
_________1
 62
     7
 10
79.363100000000003
 20
78.1601
 30
0.0
 11
79.363100000000003
 21
67.600800000000007
 31
0.0
  0
LINE
  5
FF
  8
_________1
  6
AIGENLINE001
 62
     7
 10
130.59899999999999
 20
184.02000000000001
 30
0.0
 11
134.745
 21
184.02000000000001
 31
0.0
  0
LINE
  5
100
  8
_________1
  6
AIGENLINE001
 62
     7
 10
132.672
 20
185.97799999999989
 30
0.0
 11
132.672
 21
182.06200000000001
 31
0.0
  0
ARC
  5
101
  8
_________1
  6
AIGENLINE003
 62
     7
 10
132.71044000000001
 20
183.98161999999999
 30
0.0
 40
1.0391209999999991
 50
92.130477999999997
 51
177.86949300000001
  0
ARC
  5
102
  8
_________1
  6
AIGENLINE003
 62
     7
 10
132.711118
 20
184.058841
 30
0.0
 40
1.039796999999999
 50
182.127003
 51
267.83355299999999
  0
ARC
  5
103
  8
_________1
  6
AIGENLINE003
 62
     7
 10
132.671638
 20
184.02007800000001
 30
0.0
 40
1.000289999999999
 50
270.00988699999999
 51
0.009857
  0
ARC
  5
104
  8
_________1
  6
AIGENLINE003
 62
     7
 10
132.63351399999999
 20
183.981596
 30
0.0
 40
1.0391330000000001
 50
2.1318060000000001
 51
87.887923999999998
  0
ARC
  5
105
  8
_________1
 62
     7
 10
79.121086000000005
 20
188.483552
 30
0.0
 40
0.242186
 50
2.165049999999999
 51
88.004204000000001
  0
LINE
  5
106
  8
_________1
 62
     7
 10
79.363100000000003
 20
188.39699999999999
 30
0.0
 11
79.363100000000003
 21
188.49299999999999
 31
0.0
  0
LINE
  5
107
  8
_________1
 62
     7
 10
79.363100000000003
 20
187.994
 30
0.0
 11
79.363100000000003
 21
188.39699999999999
 31
0.0
  0
LINE
  5
108
  8
_________1
 62
     7
 10
57.362900000000003
 20
186.495
 30
0.0
 11
57.362900000000003
 21
188.53100000000001
 31
0.0
  0
LINE
  5
109
  8
_________1
 62
     7
 10
77.362899999999996
 20
187.92699999999999
 30
0.0
 11
77.362899999999996
 21
187.994
 31
0.0
  0
LINE
  5
10A
  8
_________1
 62
     7
 10
79.263199999999998
 20
187.994
 30
0.0
 11
77.362899999999996
 21
187.994
 31
0.0
  0
LINE
  5
10B
  8
_________1
 62
     7
 10
57.362900000000003
 20
183.744
 30
0.0
 11
57.362900000000003
 21
184.91099999999989
 31
0.0
  0
LINE
  5
10C
  8
_________1
 62
     7
 10
57.362900000000003
 20
178.923
 30
0.0
 11
57.362900000000003
 21
180.994
 31
0.0
  0
LINE
  5
10D
  8
_________1
 62
     7
 10
57.362900000000003
 20
180.994
 30
0.0
 11
57.362900000000003
 21
183.744
 31
0.0
  0
LINE
  5
10E
  8
_________1
 62
     7
 10
57.362900000000003
 20
184.91099999999989
 30
0.0
 11
57.362900000000003
 21
186.495
 31
0.0
  0
LINE
  5
10F
  8
_________1
 62
     7
 10
77.362899999999996
 20
178.82299999999989
 30
0.0
 11
77.362899999999996
 21
178.727
 31
0.0
  0
LINE
  5
110
  8
_________1
 62
     7
 10
77.362899999999996
 20
178.923
 30
0.0
 11
77.362899999999996
 21
178.82299999999989
 31
0.0
  0
LINE
  5
111
  8
_________1
 62
     7
 10
77.362899999999996
 20
187.92699999999999
 30
0.0
 11
77.362899999999996
 21
178.923
 31
0.0
  0
LINE
  5
112
  8
_________1
 62
     7
 10
77.362899999999996
 20
178.727
 30
0.0
 11
57.362900000000003
 21
178.727
 31
0.0
  0
LINE
  5
113
  8
_________1
 62
     7
 10
57.362900000000003
 20
178.727
 30
0.0
 11
57.362900000000003
 21
178.82299999999989
 31
0.0
  0
LINE
  5
114
  8
_________1
 62
     7
 10
57.362900000000003
 20
178.82299999999989
 30
0.0
 11
57.362900000000003
 21
178.923
 31
0.0
  0
LINE
  5
115
  8
_________1
 62
     7
 10
57.362900000000003
 20
188.53100000000001
 30
0.0
 11
57.362900000000003
 21
188.63099999999989
 31
0.0
  0
LINE
  5
116
  8
_________1
 62
     7
 10
57.362900000000003
 20
188.63099999999989
 30
0.0
 11
57.362900000000003
 21
188.726
 31
0.0
  0
LINE
  5
117
  8
_________1
 62
     7
 10
79.129499999999993
 20
188.726
 30
0.0
 11
57.362900000000003
 21
188.726
 31
0.0
  0
LINE
  5
118
  8
_________1
 62
     7
 10
79.263199999999998
 20
187.994
 30
0.0
 11
79.363100000000003
 21
187.994
 31
0.0
  0
LINE
  5
119
  8
_________1
 62
     7
 10
57.362900000000003
 20
183.744
 30
0.0
 11
57.362900000000003
 21
184.91099999999989
 31
0.0
  0
LINE
  5
11A
  8
_________1
 62
     7
 10
57.362900000000003
 20
180.994
 30
0.0
 11
57.362900000000003
 21
183.744
 31
0.0
  0
LINE
  5
11B
  8
_________1
 62
     7
 10
57.362900000000003
 20
184.91099999999989
 30
0.0
 11
57.362900000000003
 21
186.495
 31
0.0
  0
LINE
  5
11C
  8
_________1
 62
     7
 10
77.463099999999997
 20
79.560199999999995
 30
0.0
 11
77.362899999999996
 21
79.560199999999995
 31
0.0
  0
LINE
  5
11D
  8
_________1
 62
     7
 10
79.263199999999998
 20
79.560199999999995
 30
0.0
 11
77.463099999999997
 21
79.560199999999995
 31
0.0
  0
LINE
  5
11E
  8
_________1
 62
     7
 10
79.363100000000003
 20
187.92699999999999
 30
0.0
 11
79.363100000000003
 21
79.560199999999995
 31
0.0
  0
LINE
  5
11F
  8
_________1
 62
     7
 10
77.463099999999997
 20
187.92699999999999
 30
0.0
 11
77.362899999999996
 21
187.92699999999999
 31
0.0
  0
LINE
  5
120
  8
_________1
 62
     7
 10
79.263199999999998
 20
187.92699999999999
 30
0.0
 11
77.463099999999997
 21
187.92699999999999
 31
0.0
  0
LINE
  5
121
  8
_________1
 62
     7
 10
77.362899999999996
 20
88.760000000000005
 30
0.0
 11
77.362899999999996
 21
88.664900000000003
 31
0.0
  0
LINE
  5
122
  8
_________1
 62
     7
 10
77.362899999999996
 20
88.664900000000003
 30
0.0
 11
77.362899999999996
 21
88.564999999999998
 31
0.0
  0
LINE
  5
123
  8
_________1
 62
     7
 10
77.362899999999996
 20
178.82299999999989
 30
0.0
 11
77.362899999999996
 21
178.727
 31
0.0
  0
LINE
  5
124
  8
_________1
 62
     7
 10
77.362899999999996
 20
178.923
 30
0.0
 11
77.362899999999996
 21
178.82299999999989
 31
0.0
  0
LINE
  5
125
  8
_________1
 62
     7
 10
77.362899999999996
 20
187.92699999999999
 30
0.0
 11
77.362899999999996
 21
178.923
 31
0.0
  0
LINE
  5
126
  8
_________1
 62
     7
 10
77.362899999999996
 20
178.727
 30
0.0
 11
77.362899999999996
 21
88.760000000000005
 31
0.0
  0
LINE
  5
127
  8
_________1
 62
     7
 10
79.363100000000003
 20
187.92699999999999
 30
0.0
 11
79.263199999999998
 21
187.92699999999999
 31
0.0
  0
LINE
  5
128
  8
_________1
 62
     7
 10
77.362899999999996
 20
88.564999999999998
 30
0.0
 11
77.362899999999996
 21
79.560199999999995
 31
0.0
  0
LINE
  5
129
  8
_________1
 62
     7
 10
79.363100000000003
 20
79.560199999999995
 30
0.0
 11
79.263199999999998
 21
79.560199999999995
 31
0.0
  0
ARC
  5
12A
  8
_________1
 62
     7
 10
79.120389000000003
 20
79.004293000000004
 30
0.0
 40
0.242882
 50
272.15470299999998
 51
357.84530599999999
  0
LINE
  5
12B
  8
_________1
 62
     7
 10
57.362900000000003
 20
78.761600000000001
 30
0.0
 11
57.362900000000003
 21
78.857399999999998
 31
0.0
  0
LINE
  5
12C
  8
_________1
 62
     7
 10
57.362900000000003
 20
78.857399999999998
 30
0.0
 11
57.362900000000003
 21
78.957300000000004
 31
0.0
  0
LINE
  5
12D
  8
_________1
 62
     7
 10
57.362900000000003
 20
80.993300000000005
 30
0.0
 11
57.362900000000003
 21
78.957300000000004
 31
0.0
  0
LINE
  5
12E
  8
_________1
 62
     7
 10
77.362899999999996
 20
79.560199999999995
 30
0.0
 11
77.362899999999996
 21
79.493300000000005
 31
0.0
  0
LINE
  5
12F
  8
_________1
 62
     7
 10
79.263199999999998
 20
79.493300000000005
 30
0.0
 11
77.362899999999996
 21
79.493300000000005
 31
0.0
  0
LINE
  5
130
  8
_________1
 62
     7
 10
79.129499999999993
 20
78.761600000000001
 30
0.0
 11
57.362900000000003
 21
78.761600000000001
 31
0.0
  0
LINE
  5
131
  8
_________1
 62
     7
 10
79.363100000000003
 20
79.493300000000005
 30
0.0
 11
79.363100000000003
 21
79.090900000000005
 31
0.0
  0
LINE
  5
132
  8
_________1
 62
     7
 10
79.363100000000003
 20
79.493300000000005
 30
0.0
 11
79.263199999999998
 21
79.493300000000005
 31
0.0
  0
LINE
  5
133
  8
_________1
 62
     7
 10
77.362899999999996
 20
88.760000000000005
 30
0.0
 11
77.362899999999996
 21
88.664900000000003
 31
0.0
  0
LINE
  5
134
  8
_________1
 62
     7
 10
77.362899999999996
 20
88.664900000000003
 30
0.0
 11
77.362899999999996
 21
88.564999999999998
 31
0.0
  0
LINE
  5
135
  8
_________1
 62
     7
 10
79.363100000000003
 20
78.995199999999997
 30
0.0
 11
79.363100000000003
 21
79.090900000000005
 31
0.0
  0
LINE
  5
136
  8
_________1
 62
     7
 10
77.362899999999996
 20
88.760000000000005
 30
0.0
 11
57.362900000000003
 21
88.760000000000005
 31
0.0
  0
LINE
  5
137
  8
_________1
 62
     7
 10
57.362900000000003
 20
88.664900000000003
 30
0.0
 11
57.362900000000003
 21
88.760000000000005
 31
0.0
  0
LINE
  5
138
  8
_________1
 62
     7
 10
57.362900000000003
 20
88.564999999999998
 30
0.0
 11
57.362900000000003
 21
88.664900000000003
 31
0.0
  0
LINE
  5
139
  8
_________1
 62
     7
 10
77.362899999999996
 20
88.564999999999998
 30
0.0
 11
77.362899999999996
 21
79.560199999999995
 31
0.0
  0
LINE
  5
13A
  8
_________1
 62
     7
 10
57.362900000000003
 20
88.564999999999998
 30
0.0
 11
57.362900000000003
 21
86.493799999999979
 31
0.0
  0
LINE
  5
13B
  8
_________1
 62
     7
 10
57.362900000000003
 20
83.743200000000002
 30
0.0
 11
57.362900000000003
 21
80.993300000000005
 31
0.0
  0
LINE
  5
13C
  8
_________1
 62
     7
 10
57.362900000000003
 20
86.493799999999979
 30
0.0
 11
57.362900000000003
 21
83.743200000000002
 31
0.0
  0
LINE
  5
13D
  8
_________1
 62
     7
 10
57.362900000000003
 20
83.743200000000002
 30
0.0
 11
57.362900000000003
 21
80.993300000000005
 31
0.0
  0
LINE
  5
13E
  8
_________1
 62
     7
 10
57.362900000000003
 20
86.493799999999979
 30
0.0
 11
57.362900000000003
 21
83.743200000000002
 31
0.0
  0
ARC
  5
13F
  8
_________1
 62
     7
 10
132.67198300000001
 20
68.519092999999984
 30
0.0
 40
120.48283600000001
 50
87.714815000000002
 51
92.285165000000006
  0
ARC
  5
140
  8
_________1
 62
     7
 10
127.875544
 20
188.80260699999999
 30
0.0
 40
0.103787
 50
94.202348999999998
 51
178.01264800000001
  0
ARC
  5
141
  8
_________1
 62
     7
 10
137.468075
 20
188.80263199999999
 30
0.0
 40
0.103788
 50
1.9735189999999989
 51
85.605882999999992
  0
LINE
  5
142
  8
_________1
 62
     7
 10
137.47200000000001
 20
188.26900000000001
 30
0.0
 11
127.872
 21
188.26900000000001
 31
0.0
  0
LINE
  5
143
  8
_________1
 62
     7
 10
127.77200000000001
 20
188.80600000000001
 30
0.0
 11
127.77200000000001
 21
188.673
 31
0.0
  0
LINE
  5
144
  8
_________1
 62
     7
 10
127.77200000000001
 20
188.26900000000001
 30
0.0
 11
127.872
 21
188.26900000000001
 31
0.0
  0
LINE
  5
145
  8
_________1
 62
     7
 10
127.77200000000001
 20
188.203
 30
0.0
 11
127.77200000000001
 21
188.26900000000001
 31
0.0
  0
LINE
  5
146
  8
_________1
 62
     7
 10
127.77200000000001
 20
188.26900000000001
 30
0.0
 11
127.77200000000001
 21
188.673
 31
0.0
  0
LINE
  5
147
  8
_________1
 62
     7
 10
137.572
 20
188.80600000000001
 30
0.0
 11
137.572
 21
188.673
 31
0.0
  0
LINE
  5
148
  8
_________1
 62
     7
 10
137.572
 20
188.203
 30
0.0
 11
137.572
 21
188.26900000000001
 31
0.0
  0
LINE
  5
149
  8
_________1
 62
     7
 10
137.572
 20
188.26900000000001
 30
0.0
 11
137.572
 21
188.673
 31
0.0
  0
LINE
  5
14A
  8
_________1
 62
     7
 10
137.47200000000001
 20
188.26900000000001
 30
0.0
 11
137.572
 21
188.26900000000001
 31
0.0
  0
ARC
  5
14B
  8
_________1
 62
     7
 10
132.67198300000001
 20
199.721261
 30
0.0
 40
120.68395
 50
267.71864499999998
 51
272.28137500000003
  0
ARC
  5
14C
  8
_________1
 62
     7
 10
127.87554799999999
 20
79.236476999999994
 30
0.0
 40
0.103791
 50
181.989315
 51
265.79568899999998
  0
ARC
  5
14D
  8
_________1
 62
     7
 10
137.46849
 20
79.236050000000006
 30
0.0
 40
0.10336
 50
274.18153999999998
 51
358.239058
  0
LINE
  5
14E
  8
_________1
 62
     7
 10
137.572
 20
79.769599999999997
 30
0.0
 11
137.572
 21
79.366500000000002
 31
0.0
  0
LINE
  5
14F
  8
_________1
 62
     7
 10
127.77200000000001
 20
79.769599999999997
 30
0.0
 11
127.77200000000001
 21
79.366500000000002
 31
0.0
  0
LINE
  5
150
  8
_________1
 62
     7
 10
137.572
 20
79.769599999999997
 30
0.0
 11
137.47200000000001
 21
79.769599999999997
 31
0.0
  0
LINE
  5
151
  8
_________1
 62
     7
 10
137.572
 20
79.835800000000006
 30
0.0
 11
137.572
 21
79.769599999999997
 31
0.0
  0
LINE
  5
152
  8
_________1
 62
     7
 10
127.77200000000001
 20
79.835800000000006
 30
0.0
 11
127.77200000000001
 21
79.769599999999997
 31
0.0
  0
LINE
  5
153
  8
_________1
 62
     7
 10
127.872
 20
79.769599999999997
 30
0.0
 11
127.77200000000001
 21
79.769599999999997
 31
0.0
  0
LINE
  5
154
  8
_________1
 62
     7
 10
127.872
 20
79.769599999999997
 30
0.0
 11
137.47200000000001
 21
79.769599999999997
 31
0.0
  0
LINE
  5
155
  8
_________1
 62
     7
 10
137.572
 20
79.232900000000001
 30
0.0
 11
137.572
 21
79.366500000000002
 31
0.0
  0
LINE
  5
156
  8
_________1
 62
     7
 10
127.77200000000001
 20
79.232900000000001
 30
0.0
 11
127.77200000000001
 21
79.366500000000002
 31
0.0
  0
LINE
  5
157
  8
_________1
 62
     7
 10
127.855
 20
188.203
 30
0.0
 11
137.488
 21
188.203
 31
0.0
  0
LINE
  5
158
  8
_________1
 62
     7
 10
137.488
 20
79.835800000000006
 30
0.0
 11
137.58799999999999
 21
79.835800000000006
 31
0.0
  0
LINE
  5
159
  8
_________1
 62
     7
 10
127.855
 20
79.835800000000006
 30
0.0
 11
137.488
 21
79.835800000000006
 31
0.0
  0
LINE
  5
15A
  8
_________1
 62
     7
 10
127.855
 20
79.835800000000006
 30
0.0
 11
127.755
 21
79.835800000000006
 31
0.0
  0
LINE
  5
15B
  8
_________1
 62
     7
 10
127.755
 20
188.203
 30
0.0
 11
127.755
 21
79.835800000000006
 31
0.0
  0
LINE
  5
15C
  8
_________1
 62
     7
 10
127.855
 20
188.203
 30
0.0
 11
127.755
 21
188.203
 31
0.0
  0
LINE
  5
15D
  8
_________1
 62
     7
 10
137.58799999999999
 20
79.835800000000006
 30
0.0
 11
137.58799999999999
 21
188.203
 31
0.0
  0
LINE
  5
15E
  8
_________1
 62
     7
 10
137.488
 20
188.203
 30
0.0
 11
137.58799999999999
 21
188.203
 31
0.0
  0
LINE
  5
15F
  8
_________1
 62
     7
 10
127.672
 20
223.78800000000001
 30
0.0
 11
127.672
 21
201.78800000000001
 31
0.0
  0
LINE
  5
160
  8
_________1
 62
     7
 10
137.672
 20
223.78800000000001
 30
0.0
 11
127.672
 21
223.78800000000001
 31
0.0
  0
LINE
  5
161
  8
_________1
 62
     7
 10
137.672
 20
201.78800000000001
 30
0.0
 11
137.672
 21
223.78800000000001
 31
0.0
  0
LINE
  5
162
  8
_________1
 62
     7
 10
127.672
 20
201.78800000000001
 30
0.0
 11
137.672
 21
201.78800000000001
 31
0.0
  0
INSERT
  5
163
  8
_________1
 62
     7
  2
AIGNBL02010005
 10
0.0
 20
0.0
 30
0.0
  0
INSERT
  5
164
  8
_________1
 62
     7
  2
AIGNBL02010006
 10
0.0
 20
0.0
 30
0.0
  0
LINE
  5
165
  8
_________1
 62
     7
 10
133.672
 20
237.233
 30
0.0
 11
132.672
 21
238.78800000000001
 31
0.0
  0
LINE
  5
166
  8
_________1
 62
     7
 10
131.672
 20
237.233
 30
0.0
 11
132.672
 21
238.78800000000001
 31
0.0
  0
LINE
  5
167
  8
_________1
 62
     7
 10
131.672
 20
226.84899999999999
 30
0.0
 11
132.005
 21
226.54300000000001
 31
0.0
  0
LINE
  5
168
  8
_________1
 62
     7
 10
131.672
 20
223.78800000000001
 30
0.0
 11
132.005
 21
224.09399999999999
 31
0.0
  0
LINE
  5
169
  8
_________1
 62
     7
 10
132.005
 20
224.09399999999999
 30
0.0
 11
132.005
 21
226.54300000000001
 31
0.0
  0
LINE
  5
16A
  8
_________1
 62
     7
 10
133.672
 20
226.84899999999999
 30
0.0
 11
133.33799999999999
 21
226.54300000000001
 31
0.0
  0
LINE
  5
16B
  8
_________1
 62
     7
 10
133.672
 20
223.78800000000001
 30
0.0
 11
133.33799999999999
 21
224.09399999999999
 31
0.0
  0
LINE
  5
16C
  8
_________1
 62
     7
 10
133.33799999999999
 20
224.09399999999999
 30
0.0
 11
133.33799999999999
 21
226.54300000000001
 31
0.0
  0
LINE
  5
16D
  8
_________1
 62
     7
 10
133.672
 20
223.78800000000001
 30
0.0
 11
133.672
 21
237.233
 31
0.0
  0
LINE
  5
16E
  8
_________1
 62
     7
 10
131.672
 20
223.78800000000001
 30
0.0
 11
131.672
 21
237.233
 31
0.0
  0
LINE
  5
16F
  8
_________1
  6
AIGENLINE001
 62
     7
 10
132.672
 20
222.142
 30
0.0
 11
132.672
 21
240.35900000000001
 31
0.0
  0
LINE
  5
170
  8
_________1
 62
     7
 10
131.672
 20
229.911
 30
0.0
 11
133.672
 21
229.911
 31
0.0
  0
LINE
  5
171
  8
_________1
 62
     7
 10
131.672
 20
226.84899999999999
 30
0.0
 11
133.672
 21
226.84899999999999
 31
0.0
  0
LINE
  5
172
  8
_________1
 62
     7
 10
131.672
 20
223.78800000000001
 30
0.0
 11
133.672
 21
223.78800000000001
 31
0.0
  0
LINE
  5
173
  8
_________1
 62
     7
 10
133.672
 20
230.59999999999999
 30
0.0
 11
131.672
 21
230.10900000000001
 31
0.0
  0
LINE
  5
174
  8
_________1
 62
     7
 10
133.672
 20
231.369
 30
0.0
 11
131.672
 21
230.87799999999999
 31
0.0
  0
LINE
  5
175
  8
_________1
 62
     7
 10
133.672
 20
232.13800000000001
 30
0.0
 11
131.672
 21
231.64699999999999
 31
0.0
  0
LINE
  5
176
  8
_________1
 62
     7
 10
133.672
 20
232.90700000000001
 30
0.0
 11
131.672
 21
232.416
 31
0.0
  0
LINE
  5
177
  8
_________1
 62
     7
 10
133.672
 20
233.67599999999999
 30
0.0
 11
131.672
 21
233.185
 31
0.0
  0
LINE
  5
178
  8
_________1
 62
     7
 10
133.672
 20
234.446
 30
0.0
 11
131.672
 21
233.95400000000001
 31
0.0
  0
LINE
  5
179
  8
_________1
 62
     7
 10
133.672
 20
235.215
 30
0.0
 11
131.672
 21
234.72399999999999
 31
0.0
  0
LINE
  5
17A
  8
_________1
 62
     7
 10
133.672
 20
235.98400000000001
 30
0.0
 11
131.672
 21
235.49299999999999
 31
0.0
  0
LINE
  5
17B
  8
_________1
 62
     7
 10
133.672
 20
236.75299999999999
 30
0.0
 11
131.672
 21
236.262
 31
0.0
  0
LINE
  5
17C
  8
_________1
 62
     7
 10
133.511
 20
237.483
 30
0.0
 11
131.672
 21
237.03100000000001
 31
0.0
  0
INSERT
  5
17D
  8
_________1
 62
     7
  2
AIGNBL02010007
 10
0.0
 20
0.0
 30
0.0
  0
TEXT
  5
17E
  8
_________2
 62
     7
 10
20.856200000000001
 20
52.372700000000002
 30
0.0
 40
4.2168199999999993
  1
※浴室設置禁止
 41
0.5
  0
TEXT
  5
17F
  8
_________2
 62
     7
 10
20.856200000000001
 20
45.873100000000001
 30
0.0
 40
4.2168199999999993
  1
※デザイン上、角部がシャープになっていますので、ご使用には十分ご注意ください。
 41
0.5
  0
LINE
  5
180
  8
_________2
 62
     7
 10
205.30099999999999
 20
127.411
 30
0.0
 11
183.55000000000001
 21
127.411
 31
0.0
  0
LINE
  5
181
  8
_________2
 62
     7
 10
100.3
 20
-4.0910799999999998
 30
0.0
 11
100.3
 21
-21.071400000000001
 31
0.0
  0
LINE
  5
182
  8
_________2
 62
     7
 10
100.3
 20
275.93099999999998
 30
0.0
 11
100.3
 21
258.911
 31
0.0
  0
LINE
  5
183
  8
_________2
 62
     7
 10
17.049499999999998
 20
127.411
 30
0.0
 11
-4.70052
 21
127.411
 31
0.0
  0
INSERT
  5
184
  8
_________2
 62
     7
  2
AIGNBL03010002
 10
0.0
 20
0.0
 30
0.0
  0
TEXT
  5
185
  8
_________2
 62
     7
 10
104.605
 20
1.6794899999999999
 30
0.0
 40
3.0923400000000001
  1
図番
 41
0.5
  0
LINE
  5
186
  8
_________2
 62
     7
 10
103.55
 20
5.9087199999999989
 30
0.0
 11
183.55099999999999
 21
5.9087199999999989
 31
0.0
  0
TEXT
  5
187
  8
_________2
 62
     7
 10
104.605
 20
11.6793
 30
0.0
 40
3.0923400000000001
  1
品番
 41
0.5
  0
TEXT
  5
188
  8
_________2
 62
     7
 10
104.605
 20
31.818100000000001
 30
0.0
 40
3.0923400000000001
  1
名称
 41
0.5
  0
TEXT
  5
189
  8
_________2
 62
     7
 10
91.845058333333341
 20
26.821999999999999
 30
0.0
 40
3.6545800000000002
  1
mm
 41
0.5
 72
     1
 11
93.367800000000003
 21
26.821999999999999
 31
0.0
  0
TEXT
  5
18A
  8
_________2
 62
     7
 10
85.643199999999993
 20
31.818100000000001
 30
0.0
 40
3.0923400000000001
  1
単位
 41
0.5
  0
TEXT
  5
18B
  8
_________2
 62
     7
 10
85.643199999999993
 20
19.410799999999998
 30
0.0
 40
3.0923400000000001
  1
尺度
 41
0.5
  0
TEXT
  5
18C
  8
_________2
 62
     7
 10
90.548758666666686
 20
13.2179
 30
0.0
 40
3.6545800000000002
  1
1 ： 3
 41
0.5
 72
     1
 11
93.959699999999998
 21
13.2179
 31
0.0
  0
TEXT
  5
18D
  8
_________2
 62
     7
 10
137.64644999999999
 20
9.1078600000000005
 30
0.0
 40
3.9357000000000002
  1
EC18700
 41
0.5
 72
     1
 11
143.55000000000001
 21
9.1078600000000005
 31
0.0
  0
TEXT
  5
18E
  8
_________2
 62
     7
 10
137.64644999999999
 20
-0.8926299999999999
 30
0.0
 40
3.9357000000000002
  1
EC18700
 41
0.5
 72
     1
 11
143.55000000000001
 21
-0.8926299999999999
 31
0.0
  0
TEXT
  5
18F
  8
_________2
 62
     7
 10
20.856200000000001
 20
39.373600000000003
 30
0.0
 40
4.2168199999999993
  1
※壁取付部には厚さ30mm以上の補強木を入れてください。
 41
0.5
  0
TEXT
  5
190
  8
_________2
 62
     7
 10
109.179
 20
24.2257
 30
0.0
 40
3.9357000000000002
  1
リエゾン　タオルバー
 41
0.5
  0
TEXT
  5
191
  8
_________2
 62
     7
 10
39.364390666666672
 20
13.603
 30
0.0
 40
3.6545800000000002
  1
井伊
 41
0.5
 72
     1
 11
41.313499999999998
 21
13.603
 31
0.0
  0
TEXT
  5
192
  8
_________2
 62
     7
 10
20.790090666666661
 20
13.603
 30
0.0
 40
3.6545800000000002
  1
近藤
 41
0.5
 72
     1
 11
22.7392
 21
13.603
 31
0.0
  0
TEXT
  5
193
  8
_________2
 62
     7
 10
67.785399999999996
 20
13.2179
 30
0.0
 40
3.6545800000000002
  1
20.02.03
 41
0.5
  0
TEXT
  5
194
  8
_________2
 62
     7
 10
66.593100000000007
 20
19.410799999999998
 30
0.0
 40
3.0923400000000001
  1
日付
 41
0.5
  0
TEXT
  5
195
  8
_________2
 62
     7
 10
29.639399999999998
 20
19.410799999999998
 30
0.0
 40
3.0923400000000001
  1
検図
 41
0.5
  0
TEXT
  5
196
  8
_________2
 62
     7
 10
18.021100000000001
 20
5.21143
 30
0.0
 40
3.0923400000000001
  1
備考
 41
0.5
  0
TEXT
  5
197
  8
_________2
 62
     7
 10
18.021100000000001
 20
19.410799999999998
 30
0.0
 40
3.0923400000000001
  1
製図
 41
0.5
  0
TEXT
  5
198
  8
_________2
 62
     7
 10
23.788465333333338
 20
27.936800000000002
 30
0.0
 40
4.4979399999999989
  1
セラトレーディング株式会社
 41
0.5
 72
     1
 11
41.180500000000002
 21
27.936800000000002
 31
0.0
  0
LINE
  5
199
  8
_________2
 62
     7
 10
183.55099999999999
 20
-4.0910799999999998
 30
0.0
 11
17.049499999999998
 21
-4.0910799999999998
 31
0.0
  0
LINE
  5
19A
  8
_________2
 62
     7
 10
17.049499999999998
 20
-4.0910799999999998
 30
0.0
 11
17.049499999999998
 21
258.911
 31
0.0
  0
LINE
  5
19B
  8
_________2
 62
     7
 10
17.049499999999998
 20
258.911
 30
0.0
 11
183.55099999999999
 21
258.911
 31
0.0
  0
LINE
  5
19C
  8
_________2
 62
     7
 10
183.55099999999999
 20
258.911
 30
0.0
 11
183.55099999999999
 21
-4.0910799999999998
 31
0.0
  0
LINE
  5
19D
  8
_________2
 62
     7
 10
65.549599999999998
 20
9.4089600000000004
 30
0.0
 11
65.549599999999998
 21
35.908799999999999
 31
0.0
  0
LINE
  5
19E
  8
_________2
 62
     7
 10
84.549700000000016
 20
9.4089600000000004
 30
0.0
 11
84.549700000000016
 21
35.908799999999999
 31
0.0
  0
LINE
  5
19F
  8
_________2
 62
     7
 10
103.55
 20
-4.0910799999999998
 30
0.0
 11
103.55
 21
35.908799999999999
 31
0.0
  0
LINE
  5
1A0
  8
_________2
 62
     7
 10
28.549299999999999
 20
9.4089600000000004
 30
0.0
 11
28.549299999999999
 21
23.409199999999998
 31
0.0
  0
LINE
  5
1A1
  8
_________2
 62
     7
 10
17.049499999999998
 20
9.4089600000000004
 30
0.0
 11
103.55
 21
9.4089600000000004
 31
0.0
  0
LINE
  5
1A2
  8
_________2
 62
     7
 10
17.049499999999998
 20
23.409199999999998
 30
0.0
 11
103.55
 21
23.409199999999998
 31
0.0
  0
LINE
  5
1A3
  8
_________2
 62
     7
 10
103.55
 20
15.9085
 30
0.0
 11
183.55099999999999
 21
15.9085
 31
0.0
  0
LINE
  5
1A4
  8
_________2
 62
     7
 10
17.049499999999998
 20
35.908799999999999
 30
0.0
 11
183.55099999999999
 21
35.908799999999999
 31
0.0
  0
ENDSEC
  0
EOF
