  0
SECTION
  2
HEADER
  9
$ACADVER
  1
AC1009
  9
$INSBASE
 10
0.0
 20
0.0
 30
0.0
  9
$EXTMIN
 10
-4.70052
 20
-21.071400000000001
 30
0.0
  9
$EXTMAX
 10
205.30099999999999
 20
275.93099999999998
 30
0.0
  9
$LIMMIN
 10
0.0
 20
0.0
  9
$LIMMAX
 10
12.0
 20
9.0
  9
$ORTHOMODE
 70
     0
  9
$REGENMODE
 70
     1
  9
$FILLMODE
 70
     1
  9
$QTEXTMODE
 70
     0
  9
$MIRRTEXT
 70
     1
  9
$DRAGMODE
 70
     2
  9
$LTSCALE
 40
1.0
  9
$OSMODE
 70
    37
  9
$ATTMODE
 70
     1
  9
$TEXTSIZE
 40
0.0
  9
$TRACEWID
 40
0.05
  9
$TEXTSTYLE
  7
STANDARD
  9
$CLAYER
  8
0
  9
$CELTYPE
  6
CONTINUOUS
  9
$CECOLOR
 62
   256
  9
$DIMSCALE
 40
1.0
  9
$DIMASZ
 40
0.18
  9
$DIMEXO
 40
0.0625
  9
$DIMDLI
 40
0.38
  9
$DIMRND
 40
0.0
  9
$DIMDLE
 40
0.0
  9
$DIMEXE
 40
0.18
  9
$DIMTP
 40
0.0
  9
$DIMTM
 40
0.0
  9
$DIMTXT
 40
0.18
  9
$DIMCEN
 40
0.09
  9
$DIMTSZ
 40
0.0
  9
$DIMTOL
 70
     0
  9
$DIMLIM
 70
     0
  9
$DIMTIH
 70
     1
  9
$DIMTOH
 70
     1
  9
$DIMSE1
 70
     0
  9
$DIMSE2
 70
     0
  9
$DIMTAD
 70
     0
  9
$DIMZIN
 70
     0
  9
$DIMBLK
  1

  9
$DIMASO
 70
     1
  9
$DIMSHO
 70
     1
  9
$DIMPOST
  1

  9
$DIMAPOST
  1

  9
$DIMALT
 70
     0
  9
$DIMALTD
 70
     2
  9
$DIMALTF
 40
25.399999999999999
  9
$DIMLFAC
 40
1.0
  9
$DIMTOFL
 70
     0
  9
$DIMTVP
 40
0.0
  9
$DIMTIX
 70
     0
  9
$DIMSOXD
 70
     0
  9
$DIMSAH
 70
     0
  9
$DIMBLK1
  1

  9
$DIMBLK2
  1

  9
$DIMSTYLE
  2
STANDARD
  9
$DIMCLRD
 70
     0
  9
$DIMCLRE
 70
     0
  9
$DIMCLRT
 70
     0
  9
$DIMTFAC
 40
1.0
  9
$DIMGAP
 40
0.09
  9
$LUNITS
 70
     2
  9
$LUPREC
 70
     4
  9
$SKETCHINC
 40
0.1
  9
$FILLETRAD
 40
0.0
  9
$AUNITS
 70
     0
  9
$AUPREC
 70
     0
  9
$MENU
  1
.
  9
$ELEVATION
 40
0.0
  9
$PELEVATION
 40
0.0
  9
$THICKNESS
 40
0.0
  9
$LIMCHECK
 70
     0
  9
$BLIPMODE
 70
     0
  9
$CHAMFERA
 40
0.0
  9
$CHAMFERB
 40
0.0
  9
$SKPOLY
 70
     0
  9
$TDCREATE
 40
2444972.375
  9
$TDUPDATE
 40
2458941.2476836569
  9
$TDINDWG
 40
0.000045463
  9
$TDUSRTIMER
 40
0.000045463
  9
$USRTIMER
 70
     1
  9
$ANGBASE
 50
0.0
  9
$ANGDIR
 70
     0
  9
$PDMODE
 70
     0
  9
$PDSIZE
 40
0.0
  9
$PLINEWID
 40
0.0
  9
$COORDS
 70
     1
  9
$SPLFRAME
 70
     0
  9
$SPLINETYPE
 70
     6
  9
$SPLINESEGS
 70
     8
  9
$ATTDIA
 70
     1
  9
$ATTREQ
 70
     1
  9
$HANDLING
 70
     1
  9
$HANDSEED
  5
1AE
  9
$SURFTAB1
 70
     6
  9
$SURFTAB2
 70
     6
  9
$SURFTYPE
 70
     6
  9
$SURFU
 70
     6
  9
$SURFV
 70
     6
  9
$UCSNAME
  2

  9
$UCSORG
 10
0.0
 20
0.0
 30
0.0
  9
$UCSXDIR
 10
1.0
 20
0.0
 30
0.0
  9
$UCSYDIR
 10
0.0
 20
1.0
 30
0.0
  9
$PUCSNAME
  2

  9
$PUCSORG
 10
0.0
 20
0.0
 30
0.0
  9
$PUCSXDIR
 10
1.0
 20
0.0
 30
0.0
  9
$PUCSYDIR
 10
0.0
 20
1.0
 30
0.0
  9
$USERI1
 70
     0
  9
$USERI2
 70
     0
  9
$USERI3
 70
     0
  9
$USERI4
 70
     0
  9
$USERI5
 70
     0
  9
$USERR1
 40
0.0
  9
$USERR2
 40
0.0
  9
$USERR3
 40
0.0
  9
$USERR4
 40
0.0
  9
$USERR5
 40
0.0
  9
$WORLDVIEW
 70
     1
  9
$SHADEDGE
 70
     3
  9
$SHADEDIF
 70
    70
  9
$TILEMODE
 70
     1
  9
$MAXACTVP
 70
    48
  9
$PLIMCHECK
 70
     0
  9
$PEXTMIN
 10
1.0000000000000000E+020
 20
1.0000000000000000E+020
 30
1.0000000000000000E+020
  9
$PEXTMAX
 10
-1.0000000000000000E+020
 20
-1.0000000000000000E+020
 30
-1.0000000000000000E+020
  9
$PLIMMIN
 10
0.0
 20
0.0
  9
$PLIMMAX
 10
12.0
 20
9.0
  9
$UNITMODE
 70
     0
  9
$VISRETAIN
 70
     1
  9
$PLINEGEN
 70
     0
  9
$PSLTSCALE
 70
     1
  0
ENDSEC
  0
SECTION
  2
TABLES
  0
TABLE
  2
VPORT
 70
     1
  0
VPORT
  2
*ACTIVE
 70
     0
 10
0.0
 20
0.0
 11
1.0
 21
1.0
 12
154.64614572345729
 22
127.4298
 13
0.0
 23
0.0
 14
1.0
 24
1.0
 15
0.0
 25
0.0
 16
0.0
 26
0.0
 36
1.0
 17
0.0
 27
0.0
 37
0.0
 40
204.78382598709459
 41
2.8015873015873001
 42
50.0
 43
0.0
 44
0.0
 50
0.0
 51
0.0
 71
     0
 72
   100
 73
     1
 74
     1
 75
     0
 76
     0
 77
     0
 78
     0
  0
ENDTAB
  0
TABLE
  2
LTYPE
 70
     3
  0
LTYPE
  2
CONTINUOUS
 70
     0
  3
Solid line
 72
    65
 73
     0
 40
0.0
  0
LTYPE
  2
AIGENLINE001
 70
     0
  3
generate AI->DXF Converter
 72
    65
 73
     6
 40
7.4083750000000004
 49
3.5278
 49
-0.776115
 49
0.776115
 49
-0.776115
 49
0.776115
 49
-0.776115
  0
LTYPE
  2
AIGENLINE002
 70
     0
  3
generate AI->DXF Converter
 72
    65
 73
     4
 40
5.8561449999999988
 49
3.5278
 49
-0.776115
 49
0.776115
 49
-0.776115
  0
ENDTAB
  0
TABLE
  2
LAYER
 70
     4
  0
LAYER
  2
0
 70
     0
 62
     7
  6
CONTINUOUS
  0
LAYER
  2
____
 70
     0
 62
     7
  6
CONTINUOUS
  0
LAYER
  2
_________1
 70
     0
 62
     7
  6
CONTINUOUS
  0
LAYER
  2
_________2
 70
     0
 62
     7
  6
CONTINUOUS
  0
ENDTAB
  0
TABLE
  2
STYLE
 70
     1
  0
STYLE
  2
STANDARD
 70
     0
 40
0.0
 41
0.0
 50
0.0
 71
     0
 42
0.0
  3
TXT
  4
EXTFONT.SHX
  0
ENDTAB
  0
TABLE
  2
VIEW
 70
     0
  0
ENDTAB
  0
TABLE
  2
UCS
 70
     0
  0
ENDTAB
  0
TABLE
  2
APPID
 70
     3
  0
APPID
  2
ACAD
 70
     0
  0
APPID
  2
ACAD_NAV_VCDISPLAY
 70
     0
  0
APPID
  2
ACAD_MLEADERVER
 70
     0
  0
ENDTAB
  0
TABLE
  2
DIMSTYLE
 70
     1
  0
DIMSTYLE
  2
STANDARD
 70
     0
  3

  4

  5

  6

  7

 40
1.0
 41
0.18
 42
0.0625
 43
0.38
 44
0.18
 45
0.0
 46
0.0
 47
0.0
 48
0.0
140
0.18
141
0.09
142
0.0
143
25.399999999999999
144
1.0
145
0.0
146
1.0
147
0.09
 71
     0
 72
     0
 73
     1
 74
     1
 75
     0
 76
     0
 77
     0
 78
     0
170
     0
171
     2
172
     0
173
     0
174
     0
175
     0
176
     0
177
     0
178
     0
  0
ENDTAB
  0
ENDSEC
  0
SECTION
  2
BLOCKS
  0
BLOCK
  8
0
  2
$MODEL_SPACE
 70
     0
 10
0.0
 20
0.0
 30
0.0
  3
$MODEL_SPACE
  1

  0
ENDBLK
  5
1A
  8
0
  0
BLOCK
 67
     1
  8
0
  2
$PAPER_SPACE
 70
     0
 10
0.0
 20
0.0
 30
0.0
  3
$PAPER_SPACE
  1

  0
ENDBLK
  5
17
 67
     1
  8
0
  0
BLOCK
  8
____
  2
AIGNBL01010002
 70
     0
 10
0.0
 20
0.0
 30
0.0
  3
AIGNBL01010002
  1

  0
TEXT
  5
27
  8
____
 62
     7
 10
110.42729199999999
 20
163.41499999999999
 30
0.0
 40
3.0923400000000001
  1
壁仕上げ面
 41
0.5
 72
     2
 11
119.292
 21
163.41499999999999
 31
0.0
  0
ENDBLK
  5
28
  8
____
  0
BLOCK
  8
____
  2
AIGNBL01010003
 70
     0
 10
0.0
 20
0.0
 30
0.0
  3
AIGNBL01010003
  1

  0
TEXT
  5
2B
  8
____
 62
     7
 10
135.96052499999999
 20
121.086
 30
0.0
 40
3.0923400000000001
  1
28
 41
0.5
 72
     1
 11
137.249
 21
121.086
 31
0.0
  0
ENDBLK
  5
2C
  8
____
  0
BLOCK
  8
____
  2
AIGNBL01010004
 70
     0
 10
0.0
 20
0.0
 30
0.0
  3
AIGNBL01010004
  1

  0
TEXT
  5
2F
  8
____
 62
     7
 10
99.460525000000004
 20
154.518
 30
0.0
 40
3.0923400000000001
  1
45
 41
0.5
 72
     1
 11
100.749
 21
154.518
 31
0.0
  0
ENDBLK
  5
30
  8
____
  0
BLOCK
  8
____
  2
AIGNBL01010005
 70
     0
 10
0.0
 20
0.0
 30
0.0
  3
AIGNBL01010005
  1

  0
TEXT
  5
33
  8
____
 62
     7
 10
33.48790000000001
 20
134.96322000000001
 30
0.0
 40
3.0923400000000001
  1
16
 50
90.0
 41
0.5
 72
     1
 11
33.48790000000001
 21
135.994
 31
0.0
  0
ENDBLK
  5
34
  8
____
  0
BLOCK
  8
____
  2
AIGNBL01010006
 70
     0
 10
0.0
 20
0.0
 30
0.0
  3
AIGNBL01010006
  1

  0
TEXT
  5
37
  8
____
 62
     7
 10
50.58952
 20
154.518
 30
0.0
 40
3.0923400000000001
  1
16
 41
0.5
 72
     1
 11
51.6203
 21
154.518
 31
0.0
  0
ENDBLK
  5
38
  8
____
  0
BLOCK
  8
____
  2
AIGNBL01010007
 70
     0
 10
0.0
 20
0.0
 30
0.0
  3
AIGNBL01010007
  1

  0
TEXT
  5
3B
  8
____
 62
     7
 10
152.41199599999999
 20
145.75299999999999
 30
0.0
 40
3.0923400000000001
  1
（%%c6\U+00D736 樹脂プラグ付）
 41
0.5
 72
     2
 11
174.88300000000001
 21
145.75299999999999
 31
0.0
  0
ENDBLK
  5
3C
  8
____
  0
BLOCK
  8
____
  2
AIGNBL01010008
 70
     0
 10
0.0
 20
0.0
 30
0.0
  3
AIGNBL01010008
  1

  0
TEXT
  5
3F
  8
____
 62
     7
 10
148.64964900000001
 20
150.40700000000001
 30
0.0
 40
3.0923400000000001
  1
%%c4.5\U+00D740 SUS専用ネジ 1本
 41
0.5
 72
     2
 11
174.88300000000001
 21
150.40700000000001
 31
0.0
  0
ENDBLK
  5
40
  8
____
  0
BLOCK
  8
_________1
  2
AIGNBL02010002
 70
     0
 10
0.0
 20
0.0
 30
0.0
  3
AIGNBL02010002
  1

  0
LINE
  5
43
  8
_________1
 62
     7
 10
80.460400000000007
 20
154.411
 30
0.0
 11
78.248599999999996
 21
153.81800000000001
 31
0.0
  0
LINE
  5
44
  8
_________1
 62
     7
 10
78.248599999999996
 20
153.81800000000001
 30
0.0
 11
80.460400000000007
 21
153.226
 31
0.0
  0
LINE
  5
45
  8
_________1
 62
     7
 10
80.460400000000007
 20
153.226
 30
0.0
 11
80.460400000000007
 21
154.411
 31
0.0
  0
LINE
  5
46
  8
_________1
 62
     7
 10
121.03700000000001
 20
153.226
 30
0.0
 11
123.249
 21
153.81800000000001
 31
0.0
  0
LINE
  5
47
  8
_________1
 62
     7
 10
123.249
 20
153.81800000000001
 30
0.0
 11
121.03700000000001
 21
154.411
 31
0.0
  0
LINE
  5
48
  8
_________1
 62
     7
 10
121.03700000000001
 20
154.411
 30
0.0
 11
121.03700000000001
 21
153.226
 31
0.0
  0
LINE
  5
49
  8
_________1
 62
     7
 10
78.248599999999996
 20
153.81800000000001
 30
0.0
 11
123.249
 21
153.81800000000001
 31
0.0
  0
ENDBLK
  5
4A
  8
_________1
  0
BLOCK
  8
_________1
  2
AIGNBL02010003
 70
     0
 10
0.0
 20
0.0
 30
0.0
  3
AIGNBL02010003
  1

  0
LINE
  5
4D
  8
_________1
 62
     7
 10
34.780500000000004
 20
141.78200000000001
 30
0.0
 11
34.188000000000002
 21
143.994
 31
0.0
  0
LINE
  5
4E
  8
_________1
 62
     7
 10
34.188000000000002
 20
143.994
 30
0.0
 11
33.595399999999998
 21
141.78200000000001
 31
0.0
  0
LINE
  5
4F
  8
_________1
 62
     7
 10
33.595399999999998
 20
141.78200000000001
 30
0.0
 11
34.780500000000004
 21
141.78200000000001
 31
0.0
  0
LINE
  5
50
  8
_________1
 62
     7
 10
33.595399999999998
 20
130.20599999999999
 30
0.0
 11
34.188000000000002
 21
127.994
 31
0.0
  0
LINE
  5
51
  8
_________1
 62
     7
 10
34.188000000000002
 20
127.994
 30
0.0
 11
34.780500000000004
 21
130.20599999999999
 31
0.0
  0
LINE
  5
52
  8
_________1
 62
     7
 10
34.780500000000004
 20
130.20599999999999
 30
0.0
 11
33.595399999999998
 21
130.20599999999999
 31
0.0
  0
LINE
  5
53
  8
_________1
 62
     7
 10
34.188000000000002
 20
143.994
 30
0.0
 11
34.188000000000002
 21
127.994
 31
0.0
  0
ENDBLK
  5
54
  8
_________1
  0
BLOCK
  8
_________1
  2
AIGNBL02010004
 70
     0
 10
0.0
 20
0.0
 30
0.0
  3
AIGNBL02010004
  1

  0
LINE
  5
57
  8
_________1
 62
     7
 10
45.831800000000001
 20
154.411
 30
0.0
 11
43.619999999999997
 21
153.81800000000001
 31
0.0
  0
LINE
  5
58
  8
_________1
 62
     7
 10
43.619999999999997
 20
153.81800000000001
 30
0.0
 11
45.831800000000001
 21
153.226
 31
0.0
  0
LINE
  5
59
  8
_________1
 62
     7
 10
45.831800000000001
 20
153.226
 30
0.0
 11
45.831800000000001
 21
154.411
 31
0.0
  0
LINE
  5
5A
  8
_________1
 62
     7
 10
57.40870000000001
 20
153.226
 30
0.0
 11
59.6205
 21
153.81800000000001
 31
0.0
  0
LINE
  5
5B
  8
_________1
 62
     7
 10
59.6205
 20
153.81800000000001
 30
0.0
 11
57.40870000000001
 21
154.411
 31
0.0
  0
LINE
  5
5C
  8
_________1
 62
     7
 10
57.40870000000001
 20
154.411
 30
0.0
 11
57.40870000000001
 21
153.226
 31
0.0
  0
LINE
  5
5D
  8
_________1
 62
     7
 10
43.619999999999997
 20
153.81800000000001
 30
0.0
 11
59.6205
 21
153.81800000000001
 31
0.0
  0
ENDBLK
  5
5E
  8
_________1
  0
BLOCK
  8
_________1
  2
AIGNBL02010005
 70
     0
 10
0.0
 20
0.0
 30
0.0
  3
AIGNBL02010005
  1

  0
LINE
  5
61
  8
_________1
 62
     7
 10
134.46700000000001
 20
139.95400000000001
 30
0.0
 11
132.94399999999999
 21
138.244
 31
0.0
  0
LINE
  5
62
  8
_________1
 62
     7
 10
132.94399999999999
 20
138.244
 30
0.0
 11
133.40799999999999
 21
140.48599999999999
 31
0.0
  0
LINE
  5
63
  8
_________1
 62
     7
 10
133.40799999999999
 20
140.48599999999999
 30
0.0
 11
134.46700000000001
 21
139.95400000000001
 31
0.0
  0
LINE
  5
64
  8
_________1
 62
     7
 10
132.95099999999999
 20
138.24100000000001
 30
0.0
 11
138.71700000000001
 21
149.70699999999999
 31
0.0
  0
LINE
  5
65
  8
_________1
 62
     7
 10
138.71700000000001
 20
149.70699999999999
 30
0.0
 11
174.88300000000001
 21
149.70699999999999
 31
0.0
  0
ENDBLK
  5
66
  8
_________1
  0
BLOCK
  8
_________2
  2
AIGNBL03010002
 70
     0
 10
0.0
 20
0.0
 30
0.0
  3
AIGNBL03010002
  1

  0
LINE
  5
69
  8
_________2
 62
     7
 10
76.741
 20
29.8047
 30
0.0
 11
74.554699999999997
 21
29.8047
 31
0.0
  0
LINE
  5
6A
  8
_________2
 62
     7
 10
77.233699999999999
 20
29.8047
 30
0.0
 11
76.981499999999997
 21
29.8047
 31
0.0
  0
LINE
  5
6B
  8
_________2
 62
     7
 10
77.726299999999995
 20
29.8047
 30
0.0
 11
80.651200000000003
 21
29.8047
 31
0.0
  0
LINE
  5
6C
  8
_________2
 62
     7
 10
77.233699999999999
 20
29.8047
 30
0.0
 11
77.485500000000002
 21
29.8047
 31
0.0
  0
LINE
  5
6D
  8
_________2
 62
     7
 10
70.837100000000007
 20
29.8047
 30
0.0
 11
68.650499999999994
 21
29.8047
 31
0.0
  0
LINE
  5
6E
  8
_________2
 62
     7
 10
71.329400000000007
 20
29.8047
 30
0.0
 11
71.077600000000004
 21
29.8047
 31
0.0
  0
LINE
  5
6F
  8
_________2
 62
     7
 10
71.329400000000007
 20
30.2974
 30
0.0
 11
71.329400000000007
 21
32.484400000000001
 31
0.0
  0
LINE
  5
70
  8
_________2
 62
     7
 10
71.329400000000007
 20
29.8047
 30
0.0
 11
71.329400000000007
 21
30.056899999999999
 31
0.0
  0
LINE
  5
71
  8
_________2
 62
     7
 10
71.822100000000006
 20
29.8047
 30
0.0
 11
74.009
 21
29.8047
 31
0.0
  0
LINE
  5
72
  8
_________2
 62
     7
 10
71.329400000000007
 20
29.8047
 30
0.0
 11
71.581599999999995
 21
29.8047
 31
0.0
  0
LINE
  5
73
  8
_________2
 62
     7
 10
71.329400000000007
 20
29.312799999999999
 30
0.0
 11
71.329400000000007
 21
27.125800000000002
 31
0.0
  0
LINE
  5
74
  8
_________2
 62
     7
 10
71.329400000000007
 20
29.8047
 30
0.0
 11
71.329400000000007
 21
29.5532
 31
0.0
  0
LINE
  5
75
  8
_________2
 62
     7
 10
75.040499999999994
 20
28.5852
 30
0.0
 11
80.218500000000006
 21
27.720400000000001
 31
0.0
  0
LINE
  5
76
  8
_________2
 62
     7
 10
75.040499999999994
 20
31.0243
 30
0.0
 11
80.218500000000006
 21
31.889700000000001
 31
0.0
  0
LINE
  5
77
  8
_________2
 62
     7
 10
80.218500000000006
 20
27.720400000000001
 30
0.0
 11
80.218500000000006
 21
31.889700000000001
 31
0.0
  0
LINE
  5
78
  8
_________2
 62
     7
 10
75.040499999999994
 20
28.5852
 30
0.0
 11
75.040499999999994
 21
31.0243
 31
0.0
  0
ARC
  5
79
  8
_________2
 62
     7
 10
71.28285600000001
 20
29.757811
 30
0.0
 40
1.2673589999999999
 50
2.122214
 51
87.893958999999995
  0
ARC
  5
7A
  8
_________2
 62
     7
 10
71.375959999999992
 20
29.758213000000001
 30
0.0
 40
1.2669559999999991
 50
92.104701000000006
 51
177.89526900000001
  0
ARC
  5
7B
  8
_________2
 62
     7
 10
71.376357999999996
 20
29.851671
 30
0.0
 40
1.2673680000000001
 50
182.12203600000001
 51
267.877993
  0
ARC
  5
7C
  8
_________2
 62
     7
 10
71.282531999999989
 20
29.851998999999999
 30
0.0
 40
1.267695999999999
 50
272.12015300000002
 51
357.863674
  0
ARC
  5
7D
  8
_________2
 62
     7
 10
71.329430000000002
 20
29.804742999999998
 30
0.0
 40
2.0849849999999992
 50
0.00001
 51
89.999980000000008
  0
ARC
  5
7E
  8
_________2
 62
     7
 10
71.329603000000006
 20
29.804915000000001
 30
0.0
 40
2.084813
 50
90.004733999999999
 51
180.00474399999999
  0
ARC
  5
7F
  8
_________2
 62
     7
 10
71.409106000000008
 20
29.884775999999999
 30
0.0
 40
2.1657950000000001
 50
182.11776599999999
 51
267.89173399999999
  0
ARC
  5
80
  8
_________2
 62
     7
 10
71.249459000000002
 20
29.885429999999999
 30
0.0
 40
2.1664590000000001
 50
272.11546800000002
 51
357.86560400000002
  0
ENDBLK
  5
81
  8
_________2
  0
ENDSEC
  0
SECTION
  2
ENTITIES
  0
INSERT
  5
82
  8
____
 62
     7
  2
AIGNBL01010002
 10
0.0
 20
0.0
 30
0.0
  0
INSERT
  5
83
  8
____
 62
     7
  2
AIGNBL01010003
 10
0.0
 20
0.0
 30
0.0
  0
INSERT
  5
84
  8
____
 62
     7
  2
AIGNBL01010004
 10
0.0
 20
0.0
 30
0.0
  0
INSERT
  5
85
  8
____
 62
     7
  2
AIGNBL01010005
 10
0.0
 20
0.0
 30
0.0
  0
INSERT
  5
86
  8
____
 62
     7
  2
AIGNBL01010006
 10
0.0
 20
0.0
 30
0.0
  0
INSERT
  5
87
  8
____
 62
     7
  2
AIGNBL01010007
 10
0.0
 20
0.0
 30
0.0
  0
INSERT
  5
88
  8
____
 62
     7
  2
AIGNBL01010008
 10
0.0
 20
0.0
 30
0.0
  0
LINE
  5
89
  8
_________1
  6
AIGENLINE001
 62
     7
 10
123.249
 20
111.94499999999999
 30
0.0
 11
123.249
 21
171.27699999999999
 31
0.0
  0
LINE
  5
8A
  8
_________1
 62
     7
 10
120.226
 20
166.43199999999999
 30
0.0
 11
123.249
 21
164.68700000000001
 31
0.0
  0
LINE
  5
8B
  8
_________1
 62
     7
 10
123.249
 20
164.68700000000001
 30
0.0
 11
120.226
 21
162.94200000000001
 31
0.0
  0
LINE
  5
8C
  8
_________1
 62
     7
 10
120.226
 20
162.94200000000001
 30
0.0
 11
120.226
 21
166.43199999999999
 31
0.0
  0
LINE
  5
8D
  8
_________1
 62
     7
 10
125.45999999999999
 20
120.97799999999999
 30
0.0
 11
123.249
 21
120.386
 31
0.0
  0
LINE
  5
8E
  8
_________1
 62
     7
 10
123.249
 20
120.386
 30
0.0
 11
125.45999999999999
 21
119.79300000000001
 31
0.0
  0
LINE
  5
8F
  8
_________1
 62
     7
 10
125.45999999999999
 20
119.79300000000001
 30
0.0
 11
125.45999999999999
 21
120.97799999999999
 31
0.0
  0
LINE
  5
90
  8
_________1
 62
     7
 10
149.03700000000001
 20
119.79300000000001
 30
0.0
 11
151.249
 21
120.386
 31
0.0
  0
LINE
  5
91
  8
_________1
 62
     7
 10
151.249
 20
120.386
 30
0.0
 11
149.03700000000001
 21
120.97799999999999
 31
0.0
  0
LINE
  5
92
  8
_________1
 62
     7
 10
149.03700000000001
 20
120.97799999999999
 30
0.0
 11
149.03700000000001
 21
119.79300000000001
 31
0.0
  0
LINE
  5
93
  8
_________1
 62
     7
 10
123.249
 20
120.386
 30
0.0
 11
151.249
 21
120.386
 31
0.0
  0
LINE
  5
94
  8
_________1
 62
     7
 10
151.249
 20
119.68600000000001
 30
0.0
 11
151.249
 21
134.64500000000001
 31
0.0
  0
INSERT
  5
95
  8
_________1
 62
     7
  2
AIGNBL02010002
 10
0.0
 20
0.0
 30
0.0
  0
LINE
  5
96
  8
_________1
 62
     7
 10
78.248599999999996
 20
144.607
 30
0.0
 11
78.248599999999996
 21
154.518
 31
0.0
  0
INSERT
  5
97
  8
_________1
 62
     7
  2
AIGNBL02010003
 10
0.0
 20
0.0
 30
0.0
  0
LINE
  5
98
  8
_________1
 62
     7
 10
43.007499999999993
 20
143.994
 30
0.0
 11
33.48790000000001
 21
143.994
 31
0.0
  0
LINE
  5
99
  8
_________1
 62
     7
 10
43.007499999999993
 20
127.994
 30
0.0
 11
33.48790000000001
 21
127.994
 31
0.0
  0
INSERT
  5
9A
  8
_________1
 62
     7
  2
AIGNBL02010004
 10
0.0
 20
0.0
 30
0.0
  0
LINE
  5
9B
  8
_________1
 62
     7
 10
59.6205
 20
144.607
 30
0.0
 11
59.6205
 21
154.518
 31
0.0
  0
LINE
  5
9C
  8
_________1
 62
     7
 10
43.619999999999997
 20
144.607
 30
0.0
 11
43.619999999999997
 21
154.518
 31
0.0
  0
ARC
  5
9D
  8
_________1
 62
     7
 10
59.120278999999996
 20
128.49426099999999
 30
0.0
 40
0.5002310000000002
 50
270.00002000000001
 51
359.99999000000003
  0
ARC
  5
9E
  8
_________1
 62
     7
 10
44.120238999999998
 20
143.49395699999999
 30
0.0
 40
0.5002310000000002
 50
90.0
 51
179.99996999999999
  0
ARC
  5
9F
  8
_________1
 62
     7
 10
59.120278999999996
 20
143.49395699999999
 30
0.0
 40
0.5002310000000002
 50
0.00001
 51
89.999980000000008
  0
ARC
  5
A0
  8
_________1
 62
     7
 10
44.120238999999998
 20
128.49426099999999
 30
0.0
 40
0.5002310000000002
 50
179.99996999999999
 51
270.00002000000001
  0
LINE
  5
A1
  8
_________1
 62
     7
 10
59.6205
 20
128.494
 30
0.0
 11
59.6205
 21
143.494
 31
0.0
  0
LINE
  5
A2
  8
_________1
 62
     7
 10
44.120199999999997
 20
143.994
 30
0.0
 11
59.1203
 21
143.994
 31
0.0
  0
LINE
  5
A3
  8
_________1
  6
AIGENLINE002
 62
     7
 10
51.6203
 20
125.601
 30
0.0
 11
51.6203
 21
145.84899999999999
 31
0.0
  0
LINE
  5
A4
  8
_________1
 62
     7
 10
43.619999999999997
 20
128.494
 30
0.0
 11
43.619999999999997
 21
143.494
 31
0.0
  0
LINE
  5
A5
  8
_________1
 62
     7
 10
44.120199999999997
 20
127.994
 30
0.0
 11
59.1203
 21
127.994
 31
0.0
  0
ARC
  5
A6
  8
_________1
 62
     7
 10
78.767775999999998
 20
143.47500299999999
 30
0.0
 40
0.519543
 50
92.127295000000004
 51
177.83317500000001
  0
ARC
  5
A7
  8
_________1
 62
     7
 10
85.729668000000004
 20
143.47533300000001
 30
0.0
 40
0.5192020000000001
 50
2.131810999999999
 51
87.907679999999985
  0
ARC
  5
A8
  8
_________1
 62
     7
 10
98.768045999999984
 20
143.474659
 30
0.0
 40
0.519887
 50
92.124339000000006
 51
177.79665700000001
  0
ARC
  5
A9
  8
_________1
 62
     7
 10
85.729285000000004
 20
128.513587
 30
0.0
 40
0.519573
 50
272.13313399999998
 51
357.90634899999998
  0
ARC
  5
AA
  8
_________1
 62
     7
 10
98.748773999999997
 20
128.494606
 30
0.0
 40
0.5002310000000002
 50
179.99996999999999
 51
270.00002000000001
  0
ARC
  5
AB
  8
_________1
 62
     7
 10
78.768143999999992
 20
128.513901
 30
0.0
 40
0.519898
 50
182.127003
 51
267.83355299999999
  0
LINE
  5
AC
  8
_________1
 62
     7
 10
123.249
 20
143.495
 30
0.0
 11
123.249
 21
128.495
 31
0.0
  0
LINE
  5
AD
  8
_________1
 62
     7
 10
123.249
 20
143.994
 30
0.0
 11
123.249
 21
143.495
 31
0.0
  0
LINE
  5
AE
  8
_________1
 62
     7
 10
98.748800000000003
 20
143.994
 30
0.0
 11
123.249
 21
143.994
 31
0.0
  0
LINE
  5
AF
  8
_________1
 62
     7
 10
78.748500000000007
 20
127.994
 30
0.0
 11
85.748599999999996
 21
127.994
 31
0.0
  0
LINE
  5
B0
  8
_________1
 62
     7
 10
86.248500000000007
 20
139.744
 30
0.0
 11
86.248500000000007
 21
143.495
 31
0.0
  0
LINE
  5
B1
  8
_________1
 62
     7
 10
78.748500000000007
 20
143.994
 30
0.0
 11
85.748599999999996
 21
143.994
 31
0.0
  0
LINE
  5
B2
  8
_________1
 62
     7
 10
98.248500000000007
 20
132.745
 30
0.0
 11
98.248500000000007
 21
132.244
 31
0.0
  0
LINE
  5
B3
  8
_________1
 62
     7
 10
86.248500000000007
 20
132.244
 30
0.0
 11
98.248500000000007
 21
132.244
 31
0.0
  0
LINE
  5
B4
  8
_________1
 62
     7
 10
98.248500000000007
 20
139.744
 30
0.0
 11
98.248500000000007
 21
139.245
 31
0.0
  0
LINE
  5
B5
  8
_________1
 62
     7
 10
98.248500000000007
 20
143.495
 30
0.0
 11
98.248500000000007
 21
139.744
 31
0.0
  0
LINE
  5
B6
  8
_________1
 62
     7
 10
86.248500000000007
 20
139.245
 30
0.0
 11
86.248500000000007
 21
139.744
 31
0.0
  0
LINE
  5
B7
  8
_________1
 62
     7
 10
98.248500000000007
 20
139.744
 30
0.0
 11
86.248500000000007
 21
139.744
 31
0.0
  0
LINE
  5
B8
  8
_________1
 62
     7
 10
86.248500000000007
 20
132.745
 30
0.0
 11
86.248500000000007
 21
139.245
 31
0.0
  0
LINE
  5
B9
  8
_________1
 62
     7
 10
98.248500000000007
 20
139.245
 30
0.0
 11
98.248500000000007
 21
132.745
 31
0.0
  0
LINE
  5
BA
  8
_________1
 62
     7
 10
98.748800000000003
 20
127.994
 30
0.0
 11
123.249
 21
127.994
 31
0.0
  0
LINE
  5
BB
  8
_________1
 62
     7
 10
123.249
 20
128.495
 30
0.0
 11
123.249
 21
127.994
 31
0.0
  0
LINE
  5
BC
  8
_________1
 62
     7
 10
98.248500000000007
 20
132.244
 30
0.0
 11
98.248500000000007
 21
128.495
 31
0.0
  0
LINE
  5
BD
  8
_________1
 62
     7
 10
86.248500000000007
 20
128.495
 30
0.0
 11
86.248500000000007
 21
132.244
 31
0.0
  0
LINE
  5
BE
  8
_________1
 62
     7
 10
86.248500000000007
 20
132.244
 30
0.0
 11
86.248500000000007
 21
132.745
 31
0.0
  0
LINE
  5
BF
  8
_________1
 62
     7
 10
78.248599999999996
 20
143.495
 30
0.0
 11
78.248599999999996
 21
128.495
 31
0.0
  0
LINE
  5
C0
  8
_________1
  6
AIGENLINE002
 62
     7
 10
40.716500000000003
 20
135.995
 30
0.0
 11
62.566800000000001
 21
135.995
 31
0.0
  0
LINE
  5
C1
  8
_________1
 62
     7
 10
147.44
 20
133.744
 30
0.0
 11
151.249
 21
135.995
 31
0.0
  0
LINE
  5
C2
  8
_________1
 62
     7
 10
147.44
 20
138.244
 30
0.0
 11
151.249
 21
135.995
 31
0.0
  0
LINE
  5
C3
  8
_________1
 62
     7
 10
123.249
 20
133.744
 30
0.0
 11
147.44
 21
133.744
 31
0.0
  0
LINE
  5
C4
  8
_________1
 62
     7
 10
123.249
 20
138.244
 30
0.0
 11
147.44
 21
138.244
 31
0.0
  0
LINE
  5
C5
  8
_________1
  6
AIGENLINE002
 62
     7
 10
76.063400000000001
 20
135.995
 30
0.0
 11
164.422
 21
135.995
 31
0.0
  0
LINE
  5
C6
  8
_________1
 62
     7
 10
127.249
 20
138.244
 30
0.0
 11
127.249
 21
133.744
 31
0.0
  0
LINE
  5
C7
  8
_________1
 62
     7
 10
129.303
 20
133.744
 30
0.0
 11
128.09999999999999
 21
138.244
 31
0.0
  0
LINE
  5
C8
  8
_________1
 62
     7
 10
131.18799999999999
 20
133.744
 30
0.0
 11
129.98500000000001
 21
138.244
 31
0.0
  0
LINE
  5
C9
  8
_________1
 62
     7
 10
133.07299999999989
 20
133.744
 30
0.0
 11
131.869
 21
138.244
 31
0.0
  0
LINE
  5
CA
  8
_________1
 62
     7
 10
134.95699999999999
 20
133.744
 30
0.0
 11
133.75399999999999
 21
138.244
 31
0.0
  0
LINE
  5
CB
  8
_________1
 62
     7
 10
136.84200000000001
 20
133.744
 30
0.0
 11
135.637
 21
138.244
 31
0.0
  0
LINE
  5
CC
  8
_________1
 62
     7
 10
138.726
 20
133.744
 30
0.0
 11
137.523
 21
138.244
 31
0.0
  0
LINE
  5
CD
  8
_________1
 62
     7
 10
140.61099999999999
 20
133.744
 30
0.0
 11
139.40600000000001
 21
138.244
 31
0.0
  0
LINE
  5
CE
  8
_________1
 62
     7
 10
142.495
 20
133.744
 30
0.0
 11
141.291
 21
138.244
 31
0.0
  0
LINE
  5
CF
  8
_________1
 62
     7
 10
144.38
 20
133.744
 30
0.0
 11
143.17500000000001
 21
138.244
 31
0.0
  0
LINE
  5
D0
  8
_________1
 62
     7
 10
146.26300000000001
 20
133.744
 30
0.0
 11
145.06
 21
138.244
 31
0.0
  0
LINE
  5
D1
  8
_________1
 62
     7
 10
148.05199999999999
 20
134.10599999999999
 30
0.0
 11
146.94399999999999
 21
138.244
 31
0.0
  0
INSERT
  5
D2
  8
_________1
 62
     7
  2
AIGNBL02010005
 10
0.0
 20
0.0
 30
0.0
  0
TEXT
  5
D3
  8
_________2
 62
     7
 10
20.856200000000001
 20
45.873100000000001
 30
0.0
 40
4.2168199999999993
  1
※浴室設置禁止
 41
0.5
  0
LINE
  5
D4
  8
_________2
 62
     7
 10
205.30099999999999
 20
127.411
 30
0.0
 11
183.55000000000001
 21
127.411
 31
0.0
  0
LINE
  5
D5
  8
_________2
 62
     7
 10
100.3
 20
-4.0910799999999998
 30
0.0
 11
100.3
 21
-21.071400000000001
 31
0.0
  0
LINE
  5
D6
  8
_________2
 62
     7
 10
100.3
 20
275.93099999999998
 30
0.0
 11
100.3
 21
258.911
 31
0.0
  0
LINE
  5
D7
  8
_________2
 62
     7
 10
17.049499999999998
 20
127.411
 30
0.0
 11
-4.70052
 21
127.411
 31
0.0
  0
INSERT
  5
D8
  8
_________2
 62
     7
  2
AIGNBL03010002
 10
0.0
 20
0.0
 30
0.0
  0
TEXT
  5
D9
  8
_________2
 62
     7
 10
104.605
 20
1.6794899999999999
 30
0.0
 40
3.0923400000000001
  1
図番
 41
0.5
  0
LINE
  5
DA
  8
_________2
 62
     7
 10
103.55
 20
5.9087199999999989
 30
0.0
 11
183.55099999999999
 21
5.9087199999999989
 31
0.0
  0
TEXT
  5
DB
  8
_________2
 62
     7
 10
104.605
 20
11.6793
 30
0.0
 40
3.0923400000000001
  1
品番
 41
0.5
  0
TEXT
  5
DC
  8
_________2
 62
     7
 10
104.605
 20
31.818100000000001
 30
0.0
 40
3.0923400000000001
  1
名称
 41
0.5
  0
TEXT
  5
DD
  8
_________2
 62
     7
 10
91.845058333333341
 20
26.821999999999999
 30
0.0
 40
3.6545800000000002
  1
mm
 41
0.5
 72
     1
 11
93.367800000000003
 21
26.821999999999999
 31
0.0
  0
TEXT
  5
DE
  8
_________2
 62
     7
 10
85.643199999999993
 20
31.818100000000001
 30
0.0
 40
3.0923400000000001
  1
単位
 41
0.5
  0
TEXT
  5
DF
  8
_________2
 62
     7
 10
85.643199999999993
 20
19.410799999999998
 30
0.0
 40
3.0923400000000001
  1
尺度
 41
0.5
  0
TEXT
  5
E0
  8
_________2
 62
     7
 10
90.853307000000001
 20
13.2179
 30
0.0
 40
3.6545800000000002
  1
1 ： 1
 41
0.5
 72
     1
 11
93.959699999999998
 21
13.2179
 31
0.0
  0
TEXT
  5
E1
  8
_________2
 62
     7
 10
137.4824625
 20
9.1078600000000005
 30
0.0
 40
3.9357000000000002
  1
EC18750
 41
0.5
 72
     1
 11
143.55000000000001
 21
9.1078600000000005
 31
0.0
  0
TEXT
  5
E2
  8
_________2
 62
     7
 10
137.4824625
 20
-0.8926299999999999
 30
0.0
 40
3.9357000000000002
  1
EC18750
 41
0.5
 72
     1
 11
143.55000000000001
 21
-0.8926299999999999
 31
0.0
  0
TEXT
  5
E3
  8
_________2
 62
     7
 10
20.856200000000001
 20
39.373600000000003
 30
0.0
 40
4.2168199999999993
  1
※壁取付部には厚さ30mm以上の補強木を入れてください。
 41
0.5
  0
TEXT
  5
E4
  8
_________2
 62
     7
 10
109.179
 20
24.2257
 30
0.0
 40
3.9357000000000002
  1
リエゾン　フック
 41
0.5
  0
TEXT
  5
E5
  8
_________2
 62
     7
 10
39.364390666666672
 20
13.603
 30
0.0
 40
3.6545800000000002
  1
井伊
 41
0.5
 72
     1
 11
41.313499999999998
 21
13.603
 31
0.0
  0
TEXT
  5
E6
  8
_________2
 62
     7
 10
20.790090666666661
 20
13.603
 30
0.0
 40
3.6545800000000002
  1
近藤
 41
0.5
 72
     1
 11
22.7392
 21
13.603
 31
0.0
  0
TEXT
  5
E7
  8
_________2
 62
     7
 10
67.785399999999996
 20
13.2179
 30
0.0
 40
3.6545800000000002
  1
20.02.03
 41
0.5
  0
TEXT
  5
E8
  8
_________2
 62
     7
 10
66.593100000000007
 20
19.410799999999998
 30
0.0
 40
3.0923400000000001
  1
日付
 41
0.5
  0
TEXT
  5
E9
  8
_________2
 62
     7
 10
29.639399999999998
 20
19.410799999999998
 30
0.0
 40
3.0923400000000001
  1
検図
 41
0.5
  0
TEXT
  5
EA
  8
_________2
 62
     7
 10
18.021100000000001
 20
5.21143
 30
0.0
 40
3.0923400000000001
  1
備考
 41
0.5
  0
TEXT
  5
EB
  8
_________2
 62
     7
 10
18.021100000000001
 20
19.410799999999998
 30
0.0
 40
3.0923400000000001
  1
製図
 41
0.5
  0
TEXT
  5
EC
  8
_________2
 62
     7
 10
23.788465333333338
 20
27.936800000000002
 30
0.0
 40
4.4979399999999989
  1
セラトレーディング株式会社
 41
0.5
 72
     1
 11
41.180500000000002
 21
27.936800000000002
 31
0.0
  0
LINE
  5
ED
  8
_________2
 62
     7
 10
183.55099999999999
 20
-4.0910799999999998
 30
0.0
 11
17.049499999999998
 21
-4.0910799999999998
 31
0.0
  0
LINE
  5
EE
  8
_________2
 62
     7
 10
17.049499999999998
 20
-4.0910799999999998
 30
0.0
 11
17.049499999999998
 21
258.911
 31
0.0
  0
LINE
  5
EF
  8
_________2
 62
     7
 10
17.049499999999998
 20
258.911
 30
0.0
 11
183.55099999999999
 21
258.911
 31
0.0
  0
LINE
  5
F0
  8
_________2
 62
     7
 10
183.55099999999999
 20
258.911
 30
0.0
 11
183.55099999999999
 21
-4.0910799999999998
 31
0.0
  0
LINE
  5
F1
  8
_________2
 62
     7
 10
65.549599999999998
 20
9.4089600000000004
 30
0.0
 11
65.549599999999998
 21
35.908799999999999
 31
0.0
  0
LINE
  5
F2
  8
_________2
 62
     7
 10
84.549700000000016
 20
9.4089600000000004
 30
0.0
 11
84.549700000000016
 21
35.908799999999999
 31
0.0
  0
LINE
  5
F3
  8
_________2
 62
     7
 10
103.55
 20
-4.0910799999999998
 30
0.0
 11
103.55
 21
35.908799999999999
 31
0.0
  0
LINE
  5
F4
  8
_________2
 62
     7
 10
28.549299999999999
 20
9.4089600000000004
 30
0.0
 11
28.549299999999999
 21
23.409199999999998
 31
0.0
  0
LINE
  5
F5
  8
_________2
 62
     7
 10
17.049499999999998
 20
9.4089600000000004
 30
0.0
 11
103.55
 21
9.4089600000000004
 31
0.0
  0
LINE
  5
F6
  8
_________2
 62
     7
 10
17.049499999999998
 20
23.409199999999998
 30
0.0
 11
103.55
 21
23.409199999999998
 31
0.0
  0
LINE
  5
F7
  8
_________2
 62
     7
 10
103.55
 20
15.9085
 30
0.0
 11
183.55099999999999
 21
15.9085
 31
0.0
  0
LINE
  5
F8
  8
_________2
 62
     7
 10
17.049499999999998
 20
35.908799999999999
 30
0.0
 11
183.55099999999999
 21
35.908799999999999
 31
0.0
  0
ENDSEC
  0
EOF
