  0
SECTION
  2
HEADER
  9
$ACADVER
  1
AC1009
  9
$INSBASE
 10
0.0
 20
0.0
 30
0.0
  9
$EXTMIN
 10
-4.70052
 20
-21.071400000000001
 30
0.0
  9
$EXTMAX
 10
205.30099999999999
 20
275.93099999999993
 30
0.0
  9
$LIMMIN
 10
0.0
 20
0.0
  9
$LIMMAX
 10
12.0
 20
9.0
  9
$ORTHOMODE
 70
     0
  9
$REGENMODE
 70
     1
  9
$FILLMODE
 70
     1
  9
$QTEXTMODE
 70
     0
  9
$MIRRTEXT
 70
     1
  9
$DRAGMODE
 70
     2
  9
$LTSCALE
 40
1.0
  9
$OSMODE
 70
    37
  9
$ATTMODE
 70
     1
  9
$TEXTSIZE
 40
0.0
  9
$TRACEWID
 40
0.05
  9
$TEXTSTYLE
  7
STANDARD
  9
$CLAYER
  8
0
  9
$CELTYPE
  6
CONTINUOUS
  9
$CECOLOR
 62
   256
  9
$DIMSCALE
 40
1.0
  9
$DIMASZ
 40
0.18
  9
$DIMEXO
 40
0.0625
  9
$DIMDLI
 40
0.38
  9
$DIMRND
 40
0.0
  9
$DIMDLE
 40
0.0
  9
$DIMEXE
 40
0.18
  9
$DIMTP
 40
0.0
  9
$DIMTM
 40
0.0
  9
$DIMTXT
 40
0.18
  9
$DIMCEN
 40
0.09
  9
$DIMTSZ
 40
0.0
  9
$DIMTOL
 70
     0
  9
$DIMLIM
 70
     0
  9
$DIMTIH
 70
     1
  9
$DIMTOH
 70
     1
  9
$DIMSE1
 70
     0
  9
$DIMSE2
 70
     0
  9
$DIMTAD
 70
     0
  9
$DIMZIN
 70
     0
  9
$DIMBLK
  1

  9
$DIMASO
 70
     1
  9
$DIMSHO
 70
     1
  9
$DIMPOST
  1

  9
$DIMAPOST
  1

  9
$DIMALT
 70
     0
  9
$DIMALTD
 70
     2
  9
$DIMALTF
 40
25.399999999999999
  9
$DIMLFAC
 40
1.0
  9
$DIMTOFL
 70
     0
  9
$DIMTVP
 40
0.0
  9
$DIMTIX
 70
     0
  9
$DIMSOXD
 70
     0
  9
$DIMSAH
 70
     0
  9
$DIMBLK1
  1

  9
$DIMBLK2
  1

  9
$DIMSTYLE
  2
STANDARD
  9
$DIMCLRD
 70
     0
  9
$DIMCLRE
 70
     0
  9
$DIMCLRT
 70
     0
  9
$DIMTFAC
 40
1.0
  9
$DIMGAP
 40
0.09
  9
$LUNITS
 70
     2
  9
$LUPREC
 70
     4
  9
$SKETCHINC
 40
0.1
  9
$FILLETRAD
 40
0.0
  9
$AUNITS
 70
     0
  9
$AUPREC
 70
     0
  9
$MENU
  1
.
  9
$ELEVATION
 40
0.0
  9
$PELEVATION
 40
0.0
  9
$THICKNESS
 40
0.0
  9
$LIMCHECK
 70
     0
  9
$BLIPMODE
 70
     0
  9
$CHAMFERA
 40
0.0
  9
$CHAMFERB
 40
0.0
  9
$SKPOLY
 70
     0
  9
$TDCREATE
 40
2444972.375
  9
$TDUPDATE
 40
2456822.2541077998
  9
$TDINDWG
 40
0.0000050579
  9
$TDUSRTIMER
 40
0.0000050579
  9
$USRTIMER
 70
     1
  9
$ANGBASE
 50
0.0
  9
$ANGDIR
 70
     0
  9
$PDMODE
 70
     0
  9
$PDSIZE
 40
0.0
  9
$PLINEWID
 40
0.0
  9
$COORDS
 70
     1
  9
$SPLFRAME
 70
     0
  9
$SPLINETYPE
 70
     6
  9
$SPLINESEGS
 70
     8
  9
$ATTDIA
 70
     0
  9
$ATTREQ
 70
     1
  9
$HANDLING
 70
     1
  9
$HANDSEED
  5
143
  9
$SURFTAB1
 70
     6
  9
$SURFTAB2
 70
     6
  9
$SURFTYPE
 70
     6
  9
$SURFU
 70
     6
  9
$SURFV
 70
     6
  9
$UCSNAME
  2

  9
$UCSORG
 10
0.0
 20
0.0
 30
0.0
  9
$UCSXDIR
 10
1.0
 20
0.0
 30
0.0
  9
$UCSYDIR
 10
0.0
 20
1.0
 30
0.0
  9
$PUCSNAME
  2

  9
$PUCSORG
 10
0.0
 20
0.0
 30
0.0
  9
$PUCSXDIR
 10
1.0
 20
0.0
 30
0.0
  9
$PUCSYDIR
 10
0.0
 20
1.0
 30
0.0
  9
$USERI1
 70
     0
  9
$USERI2
 70
     0
  9
$USERI3
 70
     0
  9
$USERI4
 70
     0
  9
$USERI5
 70
     0
  9
$USERR1
 40
0.0
  9
$USERR2
 40
0.0
  9
$USERR3
 40
0.0
  9
$USERR4
 40
0.0
  9
$USERR5
 40
0.0
  9
$WORLDVIEW
 70
     1
  9
$SHADEDGE
 70
     3
  9
$SHADEDIF
 70
    70
  9
$TILEMODE
 70
     1
  9
$MAXACTVP
 70
    48
  9
$PLIMCHECK
 70
     0
  9
$PEXTMIN
 10
1.0000000000000000E+020
 20
1.0000000000000000E+020
 30
1.0000000000000000E+020
  9
$PEXTMAX
 10
-1.0000000000000000E+020
 20
-1.0000000000000000E+020
 30
-1.0000000000000000E+020
  9
$PLIMMIN
 10
0.0
 20
0.0
  9
$PLIMMAX
 10
12.0
 20
9.0
  9
$UNITMODE
 70
     0
  9
$VISRETAIN
 70
     1
  9
$PLINEGEN
 70
     0
  9
$PSLTSCALE
 70
     1
  0
ENDSEC
  0
SECTION
  2
TABLES
  0
TABLE
  2
VPORT
 70
     2
  0
VPORT
  2
*ACTIVE
 70
     0
 10
0.0
 20
0.0
 11
1.0
 21
1.0
 12
202.00678374696719
 22
127.4298
 13
0.0
 23
0.0
 14
1.0
 24
1.0
 15
0.0
 25
0.0
 16
0.0
 26
0.0
 36
1.0
 17
0.0
 27
0.0
 37
0.0
 40
299.45358899587342
 41
2.2894736842105261
 42
50.0
 43
0.0
 44
0.0
 50
0.0
 51
0.0
 71
     0
 72
   100
 73
     1
 74
     1
 75
     0
 76
     0
 77
     0
 78
     0
  0
ENDTAB
  0
TABLE
  2
LTYPE
 70
     3
  0
LTYPE
  2
CONTINUOUS
 70
     0
  3
Solid line
 72
    65
 73
     0
 40
0.0
  0
LTYPE
  2
AIGENLINE001
 70
     0
  3
generate AI->DXF Converter
 72
    65
 73
     2
 40
1.5522299999999991
 49
0.776115
 49
-0.776115
  0
LTYPE
  2
AIGENLINE002
 70
     0
  3
generate AI->DXF Converter
 72
    65
 73
     4
 40
5.8561449999999988
 49
3.5278
 49
-0.776115
 49
0.776115
 49
-0.776115
  0
ENDTAB
  0
TABLE
  2
LAYER
 70
     2
  0
LAYER
  2
0
 70
     0
 62
     7
  6
CONTINUOUS
  0
LAYER
  2
_________2
 70
     0
 62
     7
  6
CONTINUOUS
  0
ENDTAB
  0
TABLE
  2
STYLE
 70
     1
  0
STYLE
  2
STANDARD
 70
     0
 40
0.0
 41
0.0
 50
0.0
 71
     0
 42
0.0
  3
TXT
  4
EXTFONT.SHX
  0
ENDTAB
  0
TABLE
  2
VIEW
 70
     0
  0
ENDTAB
  0
TABLE
  2
UCS
 70
     0
  0
ENDTAB
  0
TABLE
  2
APPID
 70
     1
  0
APPID
  2
ACAD
 70
     0
  0
ENDTAB
  0
TABLE
  2
DIMSTYLE
 70
     1
  0
DIMSTYLE
  2
STANDARD
 70
     0
  3

  4

  5

  6

  7

 40
1.0
 41
0.18
 42
0.0625
 43
0.38
 44
0.18
 45
0.0
 46
0.0
 47
0.0
 48
0.0
140
0.18
141
0.09
142
0.0
143
25.399999999999999
144
1.0
145
0.0
146
1.0
147
0.09
 71
     0
 72
     0
 73
     1
 74
     1
 75
     0
 76
     0
 77
     0
 78
     0
170
     0
171
     2
172
     0
173
     0
174
     0
175
     0
176
     0
177
     0
178
     0
  0
ENDTAB
  0
ENDSEC
  0
SECTION
  2
BLOCKS
  0
BLOCK
  8
0
  2
$MODEL_SPACE
 70
     0
 10
0.0
 20
0.0
 30
0.0
  3
$MODEL_SPACE
  1

  0
ENDBLK
  5
1A
  8
0
  0
BLOCK
 67
     1
  8
0
  2
$PAPER_SPACE
 70
     0
 10
0.0
 20
0.0
 30
0.0
  3
$PAPER_SPACE
  1

  0
ENDBLK
  5
17
 67
     1
  8
0
  0
ENDSEC
  0
SECTION
  2
ENTITIES
  0
TEXT
  5
23
  8
0
 62
     7
 10
55.010881666666677
 20
170.12
 30
0.0
 40
3.660169999999999
  1
（%%c6x35 樹脂プラグ付）
 41
0.5
 72
     2
 11
81.242099999999994
 21
170.12
 31
0.0
  0
TEXT
  5
24
  8
0
 62
     7
 10
45.206243333333333
 20
175.19200000000001
 30
0.0
 40
3.660169999999999
  1
%%c4.0x50 SUS 十字穴付丸頭木ネジ
 41
0.5
 72
     2
 11
83.027999999999992
 21
175.19200000000001
 31
0.0
  0
TEXT
  5
25
  8
0
 62
     7
 10
37.092429166666669
 20
178.10299999999989
 30
0.0
 40
3.660169999999999
  1
24
 41
0.5
 72
     1
 11
38.6175
 21
178.10299999999989
 31
0.0
  0
TEXT
  5
26
  8
0
 62
     7
 10
115.3899999999999
 20
162.16277333333329
 30
0.0
 40
3.660169999999999
  1
%%c22
 50
90.0
 41
0.5
 72
     2
 11
115.3899999999999
 21
167.04300000000001
 31
0.0
  0
TEXT
  5
27
  8
0
 62
     7
 10
149.53399999999991
 20
159.10192916666659
 30
0.0
 40
3.660169999999999
  1
64
 50
90.0
 41
0.5
 72
     1
 11
149.53399999999991
 21
160.62700000000001
 31
0.0
  0
TEXT
  5
28
  8
0
 62
     7
 10
86.272193750000014
 20
139.30099999999999
 30
0.0
 40
3.660169999999999
  1
850
 41
0.5
 72
     1
 11
88.559799999999996
 21
139.30099999999999
 31
0.0
  0
TEXT
  5
29
  8
0
 62
     7
 10
86.424700833333347
 20
147.2179999999999
 30
0.0
 40
3.660169999999999
  1
800
 41
0.5
 72
     1
 11
88.559799999999996
 21
147.2179999999999
 31
0.0
  0
ARC
  5
2A
  8
0
  6
AIGENLINE001
 62
     7
 10
137.0505399999999
 20
112.63090200000001
 30
0.0
 40
0.259612
 50
272.056578
 51
357.8644569999999
  0
ARC
  5
2B
  8
0
  6
AIGENLINE001
 62
     7
 10
137.06950599999999
 20
112.630878
 30
0.0
 40
0.2596
 50
182.13028499999999
 51
267.86974500000002
  0
ARC
  5
2C
  8
0
  6
AIGENLINE001
 62
     7
 10
137.06950599999999
 20
112.61157799999999
 30
0.0
 40
0.2596
 50
92.130254999999977
 51
177.8697149999999
  0
ARC
  5
2D
  8
0
  6
AIGENLINE001
 62
     7
 10
137.05022600000001
 20
112.6112389999999
 30
0.0
 40
0.259938
 50
2.2022330000000001
 51
87.876731999999976
  0
LINE
  5
2E
  8
0
  6
AIGENLINE002
 62
     7
 10
136.072
 20
112.621
 30
0.0
 11
138.155
 21
112.621
 31
0.0
  0
LINE
  5
2F
  8
0
  6
AIGENLINE002
 62
     7
 10
137.06
 20
111.67100000000001
 30
0.0
 11
137.06
 21
113.437
 31
0.0
  0
ARC
  5
30
  8
0
  6
AIGENLINE001
 62
     7
 10
140.05054799999991
 20
112.63090200000001
 30
0.0
 40
0.259612
 50
272.056578
 51
357.8644569999999
  0
ARC
  5
31
  8
0
  6
AIGENLINE001
 62
     7
 10
140.069514
 20
112.630878
 30
0.0
 40
0.2596
 50
182.13028499999999
 51
267.86974500000002
  0
ARC
  5
32
  8
0
  6
AIGENLINE001
 62
     7
 10
140.069514
 20
112.61157799999999
 30
0.0
 40
0.2596
 50
92.130254999999977
 51
177.8697149999999
  0
ARC
  5
33
  8
0
  6
AIGENLINE001
 62
     7
 10
140.05023399999999
 20
112.6112389999999
 30
0.0
 40
0.259938
 50
2.2022330000000001
 51
87.876731999999976
  0
LINE
  5
34
  8
0
  6
AIGENLINE002
 62
     7
 10
139.07199999999989
 20
112.621
 30
0.0
 11
141.155
 21
112.621
 31
0.0
  0
LINE
  5
35
  8
0
  6
AIGENLINE002
 62
     7
 10
140.06
 20
111.67100000000001
 30
0.0
 11
140.06
 21
113.437
 31
0.0
  0
ARC
  5
36
  8
0
  6
AIGENLINE001
 62
     7
 10
37.050671000000001
 20
112.63090200000001
 30
0.0
 40
0.259612
 50
272.056578
 51
357.8644569999999
  0
ARC
  5
37
  8
0
  6
AIGENLINE001
 62
     7
 10
37.069633000000003
 20
112.631052
 30
0.0
 40
0.259774
 50
182.16737199999989
 51
267.87215900000001
  0
ARC
  5
38
  8
0
  6
AIGENLINE001
 62
     7
 10
37.069471
 20
112.6115659999999
 30
0.0
 40
0.259606
 50
92.093393000000006
 51
177.86707699999991
  0
ARC
  5
39
  8
0
  6
AIGENLINE001
 62
     7
 10
37.050351999999997
 20
112.611234
 30
0.0
 40
0.259943
 50
2.2033230000000001
 51
87.875641000000002
  0
LINE
  5
3A
  8
0
  6
AIGENLINE002
 62
     7
 10
36.072400000000002
 20
112.621
 30
0.0
 11
38.1554
 21
112.621
 31
0.0
  0
LINE
  5
3B
  8
0
  6
AIGENLINE002
 62
     7
 10
37.060000000000002
 20
111.67100000000001
 30
0.0
 11
37.060000000000002
 21
113.437
 31
0.0
  0
ARC
  5
3C
  8
0
  6
AIGENLINE001
 62
     7
 10
40.050678999999988
 20
112.63090200000001
 30
0.0
 40
0.259612
 50
272.056578
 51
357.8644569999999
  0
ARC
  5
3D
  8
0
  6
AIGENLINE001
 62
     7
 10
40.069640999999997
 20
112.631052
 30
0.0
 40
0.259774
 50
182.16737199999989
 51
267.87215900000001
  0
ARC
  5
3E
  8
0
  6
AIGENLINE001
 62
     7
 10
40.069479000000001
 20
112.6115659999999
 30
0.0
 40
0.259606
 50
92.093393000000006
 51
177.86707699999991
  0
ARC
  5
3F
  8
0
  6
AIGENLINE001
 62
     7
 10
40.050359999999991
 20
112.611234
 30
0.0
 40
0.259943
 50
2.2033230000000001
 51
87.875641000000002
  0
LINE
  5
40
  8
0
 62
     7
 10
46.815899999999992
 20
174.011
 30
0.0
 11
83.027999999999992
 21
174.011
 31
0.0
  0
LINE
  5
41
  8
0
 62
     7
 10
41.454900000000002
 20
169.489
 30
0.0
 11
40.310099999999998
 21
167.50499999999991
 31
0.0
  0
LINE
  5
42
  8
0
 62
     7
 10
40.310099999999998
 20
167.50499999999991
 30
0.0
 11
42.293100000000003
 21
168.6509999999999
 31
0.0
  0
LINE
  5
43
  8
0
 62
     7
 10
42.293100000000003
 20
168.6509999999999
 30
0.0
 11
41.454900000000002
 21
169.489
 31
0.0
  0
LINE
  5
44
  8
0
 62
     7
 10
40.310099999999998
 20
167.50499999999991
 30
0.0
 11
46.815899999999992
 21
174.011
 31
0.0
  0
LINE
  5
45
  8
0
 62
     7
 10
37.060000000000002
 20
176.90700000000001
 30
0.0
 11
32.921199999999999
 21
176.90700000000001
 31
0.0
  0
LINE
  5
46
  8
0
 62
     7
 10
44.054400000000001
 20
176.90700000000001
 30
0.0
 11
40.060000000000002
 21
176.90700000000001
 31
0.0
  0
LINE
  5
47
  8
0
 62
     7
 10
42.271799999999992
 20
177.5
 30
0.0
 11
40.060000000000002
 21
176.90700000000001
 31
0.0
  0
LINE
  5
48
  8
0
 62
     7
 10
40.060000000000002
 20
176.90700000000001
 30
0.0
 11
42.271799999999992
 21
176.31499999999991
 31
0.0
  0
LINE
  5
49
  8
0
 62
     7
 10
42.271799999999992
 20
176.31499999999991
 30
0.0
 11
42.271799999999992
 21
177.5
 31
0.0
  0
LINE
  5
4A
  8
0
 62
     7
 10
34.848199999999999
 20
176.31499999999991
 30
0.0
 11
37.060000000000002
 21
176.90700000000001
 31
0.0
  0
LINE
  5
4B
  8
0
 62
     7
 10
37.060000000000002
 20
176.90700000000001
 30
0.0
 11
34.848199999999999
 21
177.5
 31
0.0
  0
LINE
  5
4C
  8
0
 62
     7
 10
34.848199999999999
 20
177.5
 30
0.0
 11
34.848199999999999
 21
176.31499999999991
 31
0.0
  0
LINE
  5
4D
  8
0
 62
     7
 10
37.060000000000002
 20
176.90700000000001
 30
0.0
 11
40.060000000000002
 21
176.90700000000001
 31
0.0
  0
LINE
  5
4E
  8
0
 62
     7
 10
115.9769999999999
 20
161.58799999999991
 30
0.0
 11
116.56999999999989
 21
159.37700000000001
 31
0.0
  0
LINE
  5
4F
  8
0
 62
     7
 10
116.56999999999989
 20
159.37700000000001
 30
0.0
 11
117.1629999999999
 21
161.58799999999991
 31
0.0
  0
LINE
  5
50
  8
0
 62
     7
 10
117.1629999999999
 20
161.58799999999991
 30
0.0
 11
115.9769999999999
 21
161.58799999999991
 31
0.0
  0
LINE
  5
51
  8
0
 62
     7
 10
117.17700000000001
 20
154.41499999999991
 30
0.0
 11
116.5839999999999
 21
156.62700000000001
 31
0.0
  0
LINE
  5
52
  8
0
 62
     7
 10
116.5839999999999
 20
156.62700000000001
 30
0.0
 11
115.992
 21
154.41499999999991
 31
0.0
  0
LINE
  5
53
  8
0
 62
     7
 10
115.992
 20
154.41499999999991
 30
0.0
 11
117.17700000000001
 21
154.41499999999991
 31
0.0
  0
LINE
  5
54
  8
0
 62
     7
 10
116.56999999999989
 20
156.62700000000001
 30
0.0
 11
116.56999999999989
 21
159.37700000000001
 31
0.0
  0
LINE
  5
55
  8
0
 62
     7
 10
116.5839999999999
 20
156.62700000000001
 30
0.0
 11
116.5839999999999
 21
152.36299999999989
 31
0.0
  0
LINE
  5
56
  8
0
 62
     7
 10
116.56999999999989
 20
167.04300000000001
 30
0.0
 11
116.56999999999989
 21
159.37700000000001
 31
0.0
  0
LINE
  5
57
  8
0
  6
AIGENLINE002
 62
     7
 10
39.072499999999991
 20
112.621
 30
0.0
 11
41.1554
 21
112.621
 31
0.0
  0
LINE
  5
58
  8
0
  6
AIGENLINE002
 62
     7
 10
159.72499999999999
 20
112.621
 30
0.0
 11
166.97499999999999
 21
112.621
 31
0.0
  0
LINE
  5
59
  8
0
 62
     7
 10
165.49700000000001
 20
113.0439999999999
 30
0.0
 11
165.64799999999991
 21
112.199
 31
0.0
  0
LINE
  5
5A
  8
0
 62
     7
 10
165.1209999999999
 20
113.0439999999999
 30
0.0
 11
165.273
 21
112.199
 31
0.0
  0
LINE
  5
5B
  8
0
 62
     7
 10
164.74700000000001
 20
113.0439999999999
 30
0.0
 11
164.89799999999991
 21
112.199
 31
0.0
  0
LINE
  5
5C
  8
0
 62
     7
 10
164.3709999999999
 20
113.0439999999999
 30
0.0
 11
164.52299999999991
 21
112.199
 31
0.0
  0
LINE
  5
5D
  8
0
 62
     7
 10
163.99700000000001
 20
113.0439999999999
 30
0.0
 11
164.148
 21
112.199
 31
0.0
  0
LINE
  5
5E
  8
0
 62
     7
 10
163.62100000000001
 20
113.0439999999999
 30
0.0
 11
163.77299999999991
 21
112.199
 31
0.0
  0
LINE
  5
5F
  8
0
 62
     7
 10
163.24700000000001
 20
113.0439999999999
 30
0.0
 11
163.398
 21
112.199
 31
0.0
  0
LINE
  5
60
  8
0
 62
     7
 10
162.87100000000001
 20
113.0439999999999
 30
0.0
 11
163.023
 21
112.199
 31
0.0
  0
LINE
  5
61
  8
0
 62
     7
 10
162.49700000000001
 20
113.0439999999999
 30
0.0
 11
162.64799999999991
 21
112.199
 31
0.0
  0
LINE
  5
62
  8
0
 62
     7
 10
162.12100000000001
 20
113.0439999999999
 30
0.0
 11
162.27299999999991
 21
112.199
 31
0.0
  0
LINE
  5
63
  8
0
 62
     7
 10
166.22499999999999
 20
112.621
 30
0.0
 11
165.59999999999991
 21
112.871
 31
0.0
  0
LINE
  5
64
  8
0
 62
     7
 10
166.22499999999999
 20
112.621
 30
0.0
 11
165.59999999999991
 21
112.371
 31
0.0
  0
LINE
  5
65
  8
0
 62
     7
 10
161.97499999999991
 20
112.371
 30
0.0
 11
165.59999999999991
 21
112.371
 31
0.0
  0
LINE
  5
66
  8
0
 62
     7
 10
161.97499999999991
 20
112.871
 30
0.0
 11
165.59999999999991
 21
112.871
 31
0.0
  0
LINE
  5
67
  8
0
 62
     7
 10
160.47499999999991
 20
112.871
 30
0.0
 11
160.47499999999991
 21
112.371
 31
0.0
  0
LINE
  5
68
  8
0
 62
     7
 10
160.47499999999991
 20
112.371
 30
0.0
 11
161.97499999999991
 21
112.371
 31
0.0
  0
LINE
  5
69
  8
0
 62
     7
 10
161.97499999999991
 20
112.371
 30
0.0
 11
161.97499999999991
 21
112.871
 31
0.0
  0
LINE
  5
6A
  8
0
 62
     7
 10
161.97499999999991
 20
112.871
 30
0.0
 11
160.47499999999991
 21
112.871
 31
0.0
  0
LINE
  5
6B
  8
0
 62
     7
 10
136.3479999999999
 20
146.03999999999991
 30
0.0
 11
138.55999999999989
 21
146.6329999999999
 31
0.0
  0
LINE
  5
6C
  8
0
 62
     7
 10
138.55999999999989
 20
146.6329999999999
 30
0.0
 11
136.3479999999999
 21
147.226
 31
0.0
  0
LINE
  5
6D
  8
0
 62
     7
 10
136.3479999999999
 20
147.226
 30
0.0
 11
136.3479999999999
 21
146.03999999999991
 31
0.0
  0
LINE
  5
6E
  8
0
 62
     7
 10
40.771599999999999
 20
147.21100000000001
 30
0.0
 11
38.560000000000002
 21
146.619
 31
0.0
  0
LINE
  5
6F
  8
0
 62
     7
 10
38.560000000000002
 20
146.619
 30
0.0
 11
40.771599999999999
 21
146.02600000000001
 31
0.0
  0
LINE
  5
70
  8
0
 62
     7
 10
40.771599999999999
 20
146.02600000000001
 30
0.0
 11
40.771599999999999
 21
147.21100000000001
 31
0.0
  0
LINE
  5
71
  8
0
 62
     7
 10
138.55999999999989
 20
146.619
 30
0.0
 11
38.560000000000002
 21
146.619
 31
0.0
  0
LINE
  5
72
  8
0
 62
     7
 10
138.55999999999989
 20
145.619
 30
0.0
 11
138.55999999999989
 21
154.30000000000001
 31
0.0
  0
LINE
  5
73
  8
0
  6
AIGENLINE002
 62
     7
 10
138.55999999999989
 20
154.80000000000001
 30
0.0
 11
138.55999999999989
 21
165.59899999999999
 31
0.0
  0
LINE
  5
74
  8
0
 62
     7
 10
38.560000000000002
 20
145.619
 30
0.0
 11
38.560000000000002
 21
154.30000000000001
 31
0.0
  0
LINE
  5
75
  8
0
  6
AIGENLINE002
 62
     7
 10
38.560000000000002
 20
154.80000000000001
 30
0.0
 11
38.560000000000002
 21
165.59899999999999
 31
0.0
  0
LINE
  5
76
  8
0
 62
     7
 10
35.434899999999999
 20
113.997
 30
0.0
 11
35.434899999999999
 21
111.247
 31
0.0
  0
LINE
  5
77
  8
0
 62
     7
 10
35.434899999999999
 20
111.247
 30
0.0
 11
141.68499999999989
 21
111.247
 31
0.0
  0
LINE
  5
78
  8
0
 62
     7
 10
141.68499999999989
 20
111.247
 30
0.0
 11
141.68499999999989
 21
113.997
 31
0.0
  0
LINE
  5
79
  8
0
 62
     7
 10
141.68499999999989
 20
113.997
 30
0.0
 11
35.434899999999999
 21
113.997
 31
0.0
  0
LINE
  5
7A
  8
0
  6
AIGENLINE002
 62
     7
 10
137.06
 20
163.87700000000001
 30
0.0
 11
137.06
 21
171.12700000000001
 31
0.0
  0
LINE
  5
7B
  8
0
  6
AIGENLINE002
 62
     7
 10
140.06
 20
163.87700000000001
 30
0.0
 11
140.06
 21
171.12700000000001
 31
0.0
  0
LINE
  5
7C
  8
0
 62
     7
 10
136.637
 20
169.648
 30
0.0
 11
137.48299999999989
 21
169.80000000000001
 31
0.0
  0
LINE
  5
7D
  8
0
 62
     7
 10
136.637
 20
169.273
 30
0.0
 11
137.48299999999989
 21
169.42500000000001
 31
0.0
  0
LINE
  5
7E
  8
0
 62
     7
 10
136.637
 20
168.89799999999991
 30
0.0
 11
137.48299999999989
 21
169.05000000000001
 31
0.0
  0
LINE
  5
7F
  8
0
 62
     7
 10
136.637
 20
168.52299999999991
 30
0.0
 11
137.48299999999989
 21
168.67500000000001
 31
0.0
  0
LINE
  5
80
  8
0
 62
     7
 10
136.637
 20
168.148
 30
0.0
 11
137.48299999999989
 21
168.30000000000001
 31
0.0
  0
LINE
  5
81
  8
0
 62
     7
 10
136.637
 20
167.77299999999991
 30
0.0
 11
137.48299999999989
 21
167.92500000000001
 31
0.0
  0
LINE
  5
82
  8
0
 62
     7
 10
136.637
 20
167.398
 30
0.0
 11
137.48299999999989
 21
167.55000000000001
 31
0.0
  0
LINE
  5
83
  8
0
 62
     7
 10
136.637
 20
167.023
 30
0.0
 11
137.48299999999989
 21
167.17500000000001
 31
0.0
  0
LINE
  5
84
  8
0
 62
     7
 10
136.637
 20
166.64799999999991
 30
0.0
 11
137.48299999999989
 21
166.80000000000001
 31
0.0
  0
LINE
  5
85
  8
0
 62
     7
 10
136.637
 20
166.27299999999991
 30
0.0
 11
137.48299999999989
 21
166.42500000000001
 31
0.0
  0
LINE
  5
86
  8
0
 62
     7
 10
137.06
 20
170.37700000000001
 30
0.0
 11
136.81
 21
169.75200000000001
 31
0.0
  0
LINE
  5
87
  8
0
 62
     7
 10
137.06
 20
170.37700000000001
 30
0.0
 11
137.30999999999989
 21
169.75200000000001
 31
0.0
  0
LINE
  5
88
  8
0
 62
     7
 10
137.30999999999989
 20
166.12700000000001
 30
0.0
 11
137.30999999999989
 21
169.75200000000001
 31
0.0
  0
LINE
  5
89
  8
0
 62
     7
 10
136.81
 20
166.12700000000001
 30
0.0
 11
136.81
 21
169.75200000000001
 31
0.0
  0
LINE
  5
8A
  8
0
 62
     7
 10
136.81
 20
164.62700000000001
 30
0.0
 11
137.30999999999989
 21
164.62700000000001
 31
0.0
  0
LINE
  5
8B
  8
0
 62
     7
 10
137.30999999999989
 20
164.62700000000001
 30
0.0
 11
137.30999999999989
 21
166.12700000000001
 31
0.0
  0
LINE
  5
8C
  8
0
 62
     7
 10
137.30999999999989
 20
166.12700000000001
 30
0.0
 11
136.81
 21
166.12700000000001
 31
0.0
  0
LINE
  5
8D
  8
0
 62
     7
 10
136.81
 20
166.12700000000001
 30
0.0
 11
136.81
 21
164.62700000000001
 31
0.0
  0
LINE
  5
8E
  8
0
 62
     7
 10
139.637
 20
169.648
 30
0.0
 11
140.483
 21
169.80000000000001
 31
0.0
  0
LINE
  5
8F
  8
0
 62
     7
 10
139.637
 20
169.273
 30
0.0
 11
140.483
 21
169.42500000000001
 31
0.0
  0
LINE
  5
90
  8
0
 62
     7
 10
139.637
 20
168.89799999999991
 30
0.0
 11
140.483
 21
169.05000000000001
 31
0.0
  0
LINE
  5
91
  8
0
 62
     7
 10
139.637
 20
168.52299999999991
 30
0.0
 11
140.483
 21
168.67500000000001
 31
0.0
  0
LINE
  5
92
  8
0
 62
     7
 10
139.637
 20
168.148
 30
0.0
 11
140.483
 21
168.30000000000001
 31
0.0
  0
LINE
  5
93
  8
0
 62
     7
 10
139.637
 20
167.77299999999991
 30
0.0
 11
140.483
 21
167.92500000000001
 31
0.0
  0
LINE
  5
94
  8
0
 62
     7
 10
139.637
 20
167.398
 30
0.0
 11
140.483
 21
167.55000000000001
 31
0.0
  0
LINE
  5
95
  8
0
 62
     7
 10
139.637
 20
167.023
 30
0.0
 11
140.483
 21
167.17500000000001
 31
0.0
  0
LINE
  5
96
  8
0
 62
     7
 10
139.637
 20
166.64799999999991
 30
0.0
 11
140.483
 21
166.80000000000001
 31
0.0
  0
LINE
  5
97
  8
0
 62
     7
 10
139.637
 20
166.27299999999991
 30
0.0
 11
140.483
 21
166.42500000000001
 31
0.0
  0
LINE
  5
98
  8
0
 62
     7
 10
140.06
 20
170.37700000000001
 30
0.0
 11
139.81
 21
169.75200000000001
 31
0.0
  0
LINE
  5
99
  8
0
 62
     7
 10
140.06
 20
170.37700000000001
 30
0.0
 11
140.31
 21
169.75200000000001
 31
0.0
  0
LINE
  5
9A
  8
0
 62
     7
 10
140.31
 20
166.12700000000001
 30
0.0
 11
140.31
 21
169.75200000000001
 31
0.0
  0
LINE
  5
9B
  8
0
 62
     7
 10
139.81
 20
166.12700000000001
 30
0.0
 11
139.81
 21
169.75200000000001
 31
0.0
  0
LINE
  5
9C
  8
0
 62
     7
 10
139.81
 20
164.62700000000001
 30
0.0
 11
140.31
 21
164.62700000000001
 31
0.0
  0
LINE
  5
9D
  8
0
 62
     7
 10
140.31
 20
164.62700000000001
 30
0.0
 11
140.31
 21
166.12700000000001
 31
0.0
  0
LINE
  5
9E
  8
0
 62
     7
 10
140.31
 20
166.12700000000001
 30
0.0
 11
139.81
 21
166.12700000000001
 31
0.0
  0
LINE
  5
9F
  8
0
 62
     7
 10
139.81
 20
166.12700000000001
 30
0.0
 11
139.81
 21
164.62700000000001
 31
0.0
  0
LINE
  5
A0
  8
0
 62
     7
 10
141.185
 20
159.37700000000001
 30
0.0
 11
141.185
 21
164.62700000000001
 31
0.0
  0
LINE
  5
A1
  8
0
 62
     7
 10
135.935
 20
158.75200000000001
 30
0.0
 11
135.935
 21
164.62700000000001
 31
0.0
  0
LINE
  5
A2
  8
0
 62
     7
 10
141.185
 20
158.75200000000001
 30
0.0
 11
135.935
 21
158.75200000000001
 31
0.0
  0
LINE
  5
A3
  8
0
 62
     7
 10
141.185
 20
164.62700000000001
 30
0.0
 11
135.935
 21
164.62700000000001
 31
0.0
  0
LINE
  5
A4
  8
0
 62
     7
 10
149.946
 20
158.83799999999991
 30
0.0
 11
150.5379999999999
 21
156.62700000000001
 31
0.0
  0
LINE
  5
A5
  8
0
 62
     7
 10
150.5379999999999
 20
156.62700000000001
 30
0.0
 11
151.13099999999989
 21
158.83799999999991
 31
0.0
  0
LINE
  5
A6
  8
0
 62
     7
 10
151.13099999999989
 20
158.83799999999991
 30
0.0
 11
149.946
 21
158.83799999999991
 31
0.0
  0
LINE
  5
A7
  8
0
 62
     7
 10
151.11600000000001
 20
162.41499999999999
 30
0.0
 11
150.524
 21
164.62700000000001
 31
0.0
  0
LINE
  5
A8
  8
0
 62
     7
 10
150.524
 20
164.62700000000001
 30
0.0
 11
149.93100000000001
 21
162.41499999999999
 31
0.0
  0
LINE
  5
A9
  8
0
 62
     7
 10
149.93100000000001
 20
162.41499999999999
 30
0.0
 11
151.11600000000001
 21
162.41499999999999
 31
0.0
  0
LINE
  5
AA
  8
0
 62
     7
 10
150.524
 20
156.62700000000001
 30
0.0
 11
150.524
 21
164.62700000000001
 31
0.0
  0
LINE
  5
AB
  8
0
 62
     7
 10
142.68499999999989
 20
156.62700000000001
 30
0.0
 11
151.524
 21
156.62700000000001
 31
0.0
  0
LINE
  5
AC
  8
0
 62
     7
 10
142.185
 20
164.62700000000001
 30
0.0
 11
151.524
 21
164.62700000000001
 31
0.0
  0
LINE
  5
AD
  8
0
 62
     7
 10
35.434899999999999
 20
137.70199999999991
 30
0.0
 11
35.434899999999999
 21
155.62700000000001
 31
0.0
  0
LINE
  5
AE
  8
0
 62
     7
 10
141.68499999999989
 20
137.70199999999991
 30
0.0
 11
141.68499999999989
 21
155.62700000000001
 31
0.0
  0
LINE
  5
AF
  8
0
 62
     7
 10
37.646500000000003
 20
139.2939999999999
 30
0.0
 11
35.434899999999999
 21
138.70199999999991
 31
0.0
  0
LINE
  5
B0
  8
0
 62
     7
 10
35.434899999999999
 20
138.70199999999991
 30
0.0
 11
37.646500000000003
 21
138.10900000000001
 31
0.0
  0
LINE
  5
B1
  8
0
 62
     7
 10
37.646500000000003
 20
138.10900000000001
 30
0.0
 11
37.646500000000003
 21
139.2939999999999
 31
0.0
  0
LINE
  5
B2
  8
0
 62
     7
 10
139.4729999999999
 20
138.124
 30
0.0
 11
141.68499999999989
 21
138.71600000000001
 31
0.0
  0
LINE
  5
B3
  8
0
 62
     7
 10
141.68499999999989
 20
138.71600000000001
 30
0.0
 11
139.4729999999999
 21
139.30899999999991
 31
0.0
  0
LINE
  5
B4
  8
0
 62
     7
 10
139.4729999999999
 20
139.30899999999991
 30
0.0
 11
139.4729999999999
 21
138.124
 31
0.0
  0
LINE
  5
B5
  8
0
 62
     7
 10
35.434899999999999
 20
138.70199999999991
 30
0.0
 11
141.68499999999989
 21
138.70199999999991
 31
0.0
  0
LINE
  5
B6
  8
0
 62
     7
 10
37.060000000000002
 20
171.82699999999991
 30
0.0
 11
37.060000000000002
 21
177.60699999999991
 31
0.0
  0
LINE
  5
B7
  8
0
 62
     7
 10
40.060000000000002
 20
171.82699999999991
 30
0.0
 11
40.060000000000002
 21
177.60699999999991
 31
0.0
  0
LINE
  5
B8
  8
0
  6
AIGENLINE002
 62
     7
 10
40.060000000000002
 20
111.67100000000001
 30
0.0
 11
40.060000000000002
 21
113.437
 31
0.0
  0
LINE
  5
B9
  8
0
  6
AIGENLINE002
 62
     7
 10
37.060000000000002
 20
163.87700000000001
 30
0.0
 11
37.060000000000002
 21
171.12700000000001
 31
0.0
  0
LINE
  5
BA
  8
0
  6
AIGENLINE002
 62
     7
 10
40.060000000000002
 20
163.87700000000001
 30
0.0
 11
40.060000000000002
 21
171.12700000000001
 31
0.0
  0
LINE
  5
BB
  8
0
 62
     7
 10
36.637099999999997
 20
169.648
 30
0.0
 11
37.482999999999997
 21
169.80000000000001
 31
0.0
  0
LINE
  5
BC
  8
0
 62
     7
 10
36.637099999999997
 20
169.273
 30
0.0
 11
37.482999999999997
 21
169.42500000000001
 31
0.0
  0
LINE
  5
BD
  8
0
 62
     7
 10
36.637099999999997
 20
168.89799999999991
 30
0.0
 11
37.482999999999997
 21
169.05000000000001
 31
0.0
  0
LINE
  5
BE
  8
0
 62
     7
 10
36.637099999999997
 20
168.52299999999991
 30
0.0
 11
37.482999999999997
 21
168.67500000000001
 31
0.0
  0
LINE
  5
BF
  8
0
 62
     7
 10
36.637099999999997
 20
168.148
 30
0.0
 11
37.482999999999997
 21
168.30000000000001
 31
0.0
  0
LINE
  5
C0
  8
0
 62
     7
 10
36.637099999999997
 20
167.77299999999991
 30
0.0
 11
37.482999999999997
 21
167.92500000000001
 31
0.0
  0
LINE
  5
C1
  8
0
 62
     7
 10
36.637099999999997
 20
167.398
 30
0.0
 11
37.482999999999997
 21
167.55000000000001
 31
0.0
  0
LINE
  5
C2
  8
0
 62
     7
 10
36.637099999999997
 20
167.023
 30
0.0
 11
37.482999999999997
 21
167.17500000000001
 31
0.0
  0
LINE
  5
C3
  8
0
 62
     7
 10
36.637099999999997
 20
166.64799999999991
 30
0.0
 11
37.482999999999997
 21
166.80000000000001
 31
0.0
  0
LINE
  5
C4
  8
0
 62
     7
 10
36.637099999999997
 20
166.27299999999991
 30
0.0
 11
37.482999999999997
 21
166.42500000000001
 31
0.0
  0
LINE
  5
C5
  8
0
 62
     7
 10
37.060000000000002
 20
170.37700000000001
 30
0.0
 11
36.810000000000002
 21
169.75200000000001
 31
0.0
  0
LINE
  5
C6
  8
0
 62
     7
 10
37.060000000000002
 20
170.37700000000001
 30
0.0
 11
37.310099999999991
 21
169.75200000000001
 31
0.0
  0
LINE
  5
C7
  8
0
 62
     7
 10
37.310099999999991
 20
166.12700000000001
 30
0.0
 11
37.310099999999991
 21
169.75200000000001
 31
0.0
  0
LINE
  5
C8
  8
0
 62
     7
 10
36.810000000000002
 20
166.12700000000001
 30
0.0
 11
36.810000000000002
 21
169.75200000000001
 31
0.0
  0
LINE
  5
C9
  8
0
 62
     7
 10
36.810000000000002
 20
164.62700000000001
 30
0.0
 11
37.310099999999991
 21
164.62700000000001
 31
0.0
  0
LINE
  5
CA
  8
0
 62
     7
 10
37.310099999999991
 20
164.62700000000001
 30
0.0
 11
37.310099999999991
 21
166.12700000000001
 31
0.0
  0
LINE
  5
CB
  8
0
 62
     7
 10
37.310099999999991
 20
166.12700000000001
 30
0.0
 11
36.810000000000002
 21
166.12700000000001
 31
0.0
  0
LINE
  5
CC
  8
0
 62
     7
 10
36.810000000000002
 20
166.12700000000001
 30
0.0
 11
36.810000000000002
 21
164.62700000000001
 31
0.0
  0
LINE
  5
CD
  8
0
 62
     7
 10
39.63709999999999
 20
169.648
 30
0.0
 11
40.483099999999993
 21
169.80000000000001
 31
0.0
  0
LINE
  5
CE
  8
0
 62
     7
 10
39.63709999999999
 20
169.273
 30
0.0
 11
40.483099999999993
 21
169.42500000000001
 31
0.0
  0
LINE
  5
CF
  8
0
 62
     7
 10
39.63709999999999
 20
168.89799999999991
 30
0.0
 11
40.483099999999993
 21
169.05000000000001
 31
0.0
  0
LINE
  5
D0
  8
0
 62
     7
 10
39.63709999999999
 20
168.52299999999991
 30
0.0
 11
40.483099999999993
 21
168.67500000000001
 31
0.0
  0
LINE
  5
D1
  8
0
 62
     7
 10
39.63709999999999
 20
168.148
 30
0.0
 11
40.483099999999993
 21
168.30000000000001
 31
0.0
  0
LINE
  5
D2
  8
0
 62
     7
 10
39.63709999999999
 20
167.77299999999991
 30
0.0
 11
40.483099999999993
 21
167.92500000000001
 31
0.0
  0
LINE
  5
D3
  8
0
 62
     7
 10
39.63709999999999
 20
167.398
 30
0.0
 11
40.483099999999993
 21
167.55000000000001
 31
0.0
  0
LINE
  5
D4
  8
0
 62
     7
 10
39.63709999999999
 20
167.023
 30
0.0
 11
40.483099999999993
 21
167.17500000000001
 31
0.0
  0
LINE
  5
D5
  8
0
 62
     7
 10
39.63709999999999
 20
166.64799999999991
 30
0.0
 11
40.483099999999993
 21
166.80000000000001
 31
0.0
  0
LINE
  5
D6
  8
0
 62
     7
 10
39.63709999999999
 20
166.27299999999991
 30
0.0
 11
40.483099999999993
 21
166.42500000000001
 31
0.0
  0
LINE
  5
D7
  8
0
 62
     7
 10
40.060000000000002
 20
170.37700000000001
 30
0.0
 11
39.810099999999991
 21
169.75200000000001
 31
0.0
  0
LINE
  5
D8
  8
0
 62
     7
 10
40.060000000000002
 20
170.37700000000001
 30
0.0
 11
40.310099999999998
 21
169.75200000000001
 31
0.0
  0
LINE
  5
D9
  8
0
 62
     7
 10
40.310099999999998
 20
166.12700000000001
 30
0.0
 11
40.310099999999998
 21
169.75200000000001
 31
0.0
  0
LINE
  5
DA
  8
0
 62
     7
 10
39.810099999999991
 20
166.12700000000001
 30
0.0
 11
39.810099999999991
 21
169.75200000000001
 31
0.0
  0
LINE
  5
DB
  8
0
 62
     7
 10
39.810099999999991
 20
164.62700000000001
 30
0.0
 11
40.310099999999998
 21
164.62700000000001
 31
0.0
  0
LINE
  5
DC
  8
0
 62
     7
 10
40.310099999999998
 20
164.62700000000001
 30
0.0
 11
40.310099999999998
 21
166.12700000000001
 31
0.0
  0
LINE
  5
DD
  8
0
 62
     7
 10
40.310099999999998
 20
166.12700000000001
 30
0.0
 11
39.810099999999991
 21
166.12700000000001
 31
0.0
  0
LINE
  5
DE
  8
0
 62
     7
 10
39.810099999999991
 20
166.12700000000001
 30
0.0
 11
39.810099999999991
 21
164.62700000000001
 31
0.0
  0
LINE
  5
DF
  8
0
 62
     7
 10
154.25999999999999
 20
111.3089999999999
 30
0.0
 11
160.47499999999991
 21
111.3089999999999
 31
0.0
  0
LINE
  5
E0
  8
0
 62
     7
 10
154.25999999999999
 20
113.934
 30
0.0
 11
160.47499999999991
 21
113.934
 31
0.0
  0
LINE
  5
E1
  8
0
 62
     7
 10
160.47499999999991
 20
111.3089999999999
 30
0.0
 11
160.47499999999991
 21
113.934
 31
0.0
  0
ARC
  5
E2
  8
0
 62
     7
 10
153.8494629999999
 20
112.62139999999999
 30
0.0
 40
1.3751189999999991
 50
359.99283300000002
 51
89.992802999999995
  0
ARC
  5
E3
  8
0
 62
     7
 10
153.849808
 20
112.62139999999999
 30
0.0
 40
1.3751189999999991
 50
90.007176999999999
 51
180.00718699999999
  0
ARC
  5
E4
  8
0
 62
     7
 10
153.90162000000001
 20
112.67357
 30
0.0
 40
1.427889999999999
 50
182.100774
 51
267.913614
  0
ARC
  5
E5
  8
0
 62
     7
 10
153.797326
 20
112.6738939999999
 30
0.0
 40
1.4282269999999999
 50
272.09894199999991
 51
357.88670999999999
  0
LINE
  5
E6
  8
0
 62
     7
 10
135.93399999999991
 20
159.37700000000001
 30
0.0
 11
41.185000000000002
 21
159.37700000000001
 31
0.0
  0
LINE
  5
E7
  8
0
 62
     7
 10
141.68499999999989
 20
159.37700000000001
 30
0.0
 11
141.185
 21
159.37700000000001
 31
0.0
  0
LINE
  5
E8
  8
0
 62
     7
 10
141.68499999999989
 20
156.62700000000001
 30
0.0
 11
141.68499999999989
 21
159.37700000000001
 31
0.0
  0
LINE
  5
E9
  8
0
 62
     7
 10
35.434899999999999
 20
156.62700000000001
 30
0.0
 11
141.68499999999989
 21
156.62700000000001
 31
0.0
  0
LINE
  5
EA
  8
0
 62
     7
 10
35.434899999999999
 20
159.37700000000001
 30
0.0
 11
35.434899999999999
 21
156.62700000000001
 31
0.0
  0
LINE
  5
EB
  8
0
 62
     7
 10
35.935000000000002
 20
159.37700000000001
 30
0.0
 11
35.935000000000002
 21
164.62700000000001
 31
0.0
  0
LINE
  5
EC
  8
0
 62
     7
 10
41.185000000000002
 20
158.75200000000001
 30
0.0
 11
41.185000000000002
 21
164.62700000000001
 31
0.0
  0
LINE
  5
ED
  8
0
 62
     7
 10
41.185000000000002
 20
158.75200000000001
 30
0.0
 11
35.935000000000002
 21
158.75200000000001
 31
0.0
  0
LINE
  5
EE
  8
0
 62
     7
 10
41.185000000000002
 20
164.62700000000001
 30
0.0
 11
35.935000000000002
 21
164.62700000000001
 31
0.0
  0
LINE
  5
EF
  8
0
 62
     7
 10
141.185
 20
156.62700000000001
 30
0.0
 11
141.185
 21
159.37700000000001
 31
0.0
  0
LINE
  5
F0
  8
0
 62
     7
 10
35.935000000000002
 20
156.62700000000001
 30
0.0
 11
35.935000000000002
 21
159.37700000000001
 31
0.0
  0
LINE
  5
F1
  8
0
 62
     7
 10
35.935000000000002
 20
159.37700000000001
 30
0.0
 11
35.434899999999999
 21
159.37700000000001
 31
0.0
  0
LINE
  5
F2
  8
0
 62
     7
 10
141.185
 20
111.247
 30
0.0
 11
141.185
 21
113.997
 31
0.0
  0
LINE
  5
F3
  8
0
 62
     7
 10
35.935000000000002
 20
111.247
 30
0.0
 11
35.935000000000002
 21
113.997
 31
0.0
  0
LINE
  5
F4
  8
_________2
 62
     7
 10
205.30099999999999
 20
127.411
 30
0.0
 11
183.55000000000001
 21
127.411
 31
0.0
  0
LINE
  5
F5
  8
_________2
 62
     7
 10
100.2999999999999
 20
-4.0910799999999998
 30
0.0
 11
100.2999999999999
 21
-21.071400000000001
 31
0.0
  0
LINE
  5
F6
  8
_________2
 62
     7
 10
100.2999999999999
 20
275.93099999999993
 30
0.0
 11
100.2999999999999
 21
258.911
 31
0.0
  0
LINE
  5
F7
  8
_________2
 62
     7
 10
17.049499999999998
 20
127.411
 30
0.0
 11
-4.70052
 21
127.411
 31
0.0
  0
LINE
  5
F8
  8
_________2
 62
     7
 10
76.741
 20
29.8047
 30
0.0
 11
74.554699999999997
 21
29.8047
 31
0.0
  0
LINE
  5
F9
  8
_________2
 62
     7
 10
77.233699999999999
 20
29.8047
 30
0.0
 11
76.981499999999997
 21
29.8047
 31
0.0
  0
LINE
  5
FA
  8
_________2
 62
     7
 10
77.726299999999995
 20
29.8047
 30
0.0
 11
80.651200000000003
 21
29.8047
 31
0.0
  0
LINE
  5
FB
  8
_________2
 62
     7
 10
77.233699999999999
 20
29.8047
 30
0.0
 11
77.485500000000002
 21
29.8047
 31
0.0
  0
LINE
  5
FC
  8
_________2
 62
     7
 10
70.837100000000007
 20
29.8047
 30
0.0
 11
68.650499999999994
 21
29.8047
 31
0.0
  0
LINE
  5
FD
  8
_________2
 62
     7
 10
71.329400000000007
 20
29.8047
 30
0.0
 11
71.077600000000004
 21
29.8047
 31
0.0
  0
LINE
  5
FE
  8
_________2
 62
     7
 10
71.329400000000007
 20
30.2974
 30
0.0
 11
71.329400000000007
 21
32.484400000000001
 31
0.0
  0
LINE
  5
FF
  8
_________2
 62
     7
 10
71.329400000000007
 20
29.8047
 30
0.0
 11
71.329400000000007
 21
30.056899999999992
 31
0.0
  0
LINE
  5
100
  8
_________2
 62
     7
 10
71.822100000000006
 20
29.8047
 30
0.0
 11
74.009
 21
29.8047
 31
0.0
  0
LINE
  5
101
  8
_________2
 62
     7
 10
71.329400000000007
 20
29.8047
 30
0.0
 11
71.581599999999995
 21
29.8047
 31
0.0
  0
LINE
  5
102
  8
_________2
 62
     7
 10
71.329400000000007
 20
29.312799999999999
 30
0.0
 11
71.329400000000007
 21
27.125800000000002
 31
0.0
  0
LINE
  5
103
  8
_________2
 62
     7
 10
71.329400000000007
 20
29.8047
 30
0.0
 11
71.329400000000007
 21
29.5532
 31
0.0
  0
LINE
  5
104
  8
_________2
 62
     7
 10
75.040499999999994
 20
28.5852
 30
0.0
 11
80.218500000000006
 21
27.720400000000001
 31
0.0
  0
LINE
  5
105
  8
_________2
 62
     7
 10
75.040499999999994
 20
31.0243
 30
0.0
 11
80.218500000000006
 21
31.889700000000001
 31
0.0
  0
LINE
  5
106
  8
_________2
 62
     7
 10
80.218500000000006
 20
27.720400000000001
 30
0.0
 11
80.218500000000006
 21
31.889700000000001
 31
0.0
  0
LINE
  5
107
  8
_________2
 62
     7
 10
75.040499999999994
 20
28.5852
 30
0.0
 11
75.040499999999994
 21
31.0243
 31
0.0
  0
ARC
  5
108
  8
_________2
 62
     7
 10
71.28285600000001
 20
29.757811
 30
0.0
 40
1.2673589999999999
 50
2.122214
 51
87.893958999999995
  0
ARC
  5
109
  8
_________2
 62
     7
 10
71.375959999999992
 20
29.758213000000001
 30
0.0
 40
1.2669559999999991
 50
92.104701000000006
 51
177.8952689999999
  0
ARC
  5
10A
  8
_________2
 62
     7
 10
71.376357999999996
 20
29.851671
 30
0.0
 40
1.2673680000000001
 50
182.12203600000001
 51
267.877993
  0
ARC
  5
10B
  8
_________2
 62
     7
 10
71.282531999999989
 20
29.851998999999989
 30
0.0
 40
1.267695999999999
 50
272.12015300000002
 51
357.863674
  0
ARC
  5
10C
  8
_________2
 62
     7
 10
71.329430000000002
 20
29.804742999999998
 30
0.0
 40
2.0849849999999992
 50
0.00001
 51
89.999980000000008
  0
ARC
  5
10D
  8
_________2
 62
     7
 10
71.329603000000006
 20
29.804915000000001
 30
0.0
 40
2.084813
 50
90.004733999999999
 51
180.00474399999999
  0
ARC
  5
10E
  8
_________2
 62
     7
 10
71.409106000000008
 20
29.884775999999999
 30
0.0
 40
2.1657950000000001
 50
182.11776599999999
 51
267.89173399999999
  0
ARC
  5
10F
  8
_________2
 62
     7
 10
71.249459000000002
 20
29.885429999999989
 30
0.0
 40
2.1664590000000001
 50
272.11546800000002
 51
357.86560400000002
  0
TEXT
  5
110
  8
_________2
 62
     7
 10
104.605
 20
1.6794899999999999
 30
0.0
 40
3.660169999999999
  1
図番
 41
0.5
  0
LINE
  5
111
  8
_________2
 62
     7
 10
103.55
 20
5.9087199999999989
 30
0.0
 11
183.55099999999999
 21
5.9087199999999989
 31
0.0
  0
TEXT
  5
112
  8
_________2
 62
     7
 10
104.605
 20
11.679299999999991
 30
0.0
 40
3.660169999999999
  1
品番
 41
0.5
  0
TEXT
  5
113
  8
_________2
 62
     7
 10
104.605
 20
31.818100000000001
 30
0.0
 40
3.660169999999999
  1
名称
 41
0.5
  0
TEXT
  5
114
  8
_________2
 62
     7
 10
91.565445833333328
 20
26.821999999999989
 30
0.0
 40
4.3256500000000004
  1
mm
 41
0.5
 72
     1
 11
93.367800000000003
 21
26.821999999999989
 31
0.0
  0
TEXT
  5
115
  8
_________2
 62
     7
 10
85.643199999999993
 20
31.818100000000001
 30
0.0
 40
3.660169999999999
  1
単位
 41
0.5
  0
TEXT
  5
116
  8
_________2
 62
     7
 10
85.643199999999993
 20
19.410799999999991
 30
0.0
 40
3.660169999999999
  1
尺度
 41
0.5
  0
TEXT
  5
117
  8
_________2
 62
     7
 10
89.922426666666667
 20
13.2179
 30
0.0
 40
4.3256500000000004
  1
1 ： 8
 41
0.5
 72
     1
 11
93.959699999999998
 21
13.2179
 31
0.0
  0
TEXT
  5
118
  8
_________2
 62
     7
 10
133.84502083333331
 20
9.1078600000000005
 30
0.0
 40
4.6583899999999989
  1
EC356080R
 41
0.5
 72
     1
 11
143.55000000000001
 21
9.1078600000000005
 31
0.0
  0
TEXT
  5
119
  8
_________2
 62
     7
 10
133.84502083333331
 20
-0.8926299999999999
 30
0.0
 40
4.6583899999999989
  1
EC356080R
 41
0.5
 72
     1
 11
143.55000000000001
 21
-0.8926299999999999
 31
0.0
  0
TEXT
  5
11A
  8
_________2
 62
     7
 10
109.179
 20
24.2257
 30
0.0
 40
4.6583899999999989
  1
タオルバー（800サイズ）
 41
0.5
  0
TEXT
  5
11B
  8
_________2
 62
     7
 10
39.078580833333334
 20
13.603
 30
0.0
 40
4.3256500000000004
  1
早川
 41
0.5
 72
     1
 11
41.313499999999998
 21
13.603
 31
0.0
  0
TEXT
  5
11C
  8
_________2
 62
     7
 10
20.432186666666659
 20
13.603
 30
0.0
 40
4.3256500000000004
  1
石原
 41
0.5
 72
     1
 11
22.73919999999999
 21
13.603
 31
0.0
  0
TEXT
  5
11D
  8
_________2
 62
     7
 10
67.785399999999996
 20
13.2179
 30
0.0
 40
4.3256500000000004
  1
14.06.11
 41
0.5
  0
TEXT
  5
11E
  8
_________2
 62
     7
 10
66.593100000000007
 20
19.410799999999991
 30
0.0
 40
3.660169999999999
  1
日付
 41
0.5
  0
TEXT
  5
11F
  8
_________2
 62
     7
 10
29.639399999999998
 20
19.410799999999991
 30
0.0
 40
3.660169999999999
  1
検図
 41
0.5
  0
TEXT
  5
120
  8
_________2
 62
     7
 10
18.021100000000001
 20
5.21143
 30
0.0
 40
3.660169999999999
  1
備考
 41
0.5
  0
TEXT
  5
121
  8
_________2
 62
     7
 10
18.021100000000001
 20
19.410799999999991
 30
0.0
 40
3.660169999999999
  1
製図
 41
0.5
  0
TEXT
  5
122
  8
_________2
 62
     7
 10
20.594830666666681
 20
27.936800000000002
 30
0.0
 40
5.3238799999999991
  1
セラトレーディング株式会社
 41
0.5
 72
     1
 11
41.180500000000002
 21
27.936800000000002
 31
0.0
  0
LINE
  5
123
  8
_________2
 62
     7
 10
183.55099999999999
 20
-4.0910799999999998
 30
0.0
 11
17.049499999999998
 21
-4.0910799999999998
 31
0.0
  0
LINE
  5
124
  8
_________2
 62
     7
 10
17.049499999999998
 20
-4.0910799999999998
 30
0.0
 11
17.049499999999998
 21
258.911
 31
0.0
  0
LINE
  5
125
  8
_________2
 62
     7
 10
17.049499999999998
 20
258.911
 30
0.0
 11
183.55099999999999
 21
258.911
 31
0.0
  0
LINE
  5
126
  8
_________2
 62
     7
 10
183.55099999999999
 20
258.911
 30
0.0
 11
183.55099999999999
 21
-4.0910799999999998
 31
0.0
  0
LINE
  5
127
  8
_________2
 62
     7
 10
65.549599999999998
 20
9.4089600000000004
 30
0.0
 11
65.549599999999998
 21
35.908799999999999
 31
0.0
  0
LINE
  5
128
  8
_________2
 62
     7
 10
84.549700000000016
 20
9.4089600000000004
 30
0.0
 11
84.549700000000016
 21
35.908799999999999
 31
0.0
  0
LINE
  5
129
  8
_________2
 62
     7
 10
103.55
 20
-4.0910799999999998
 30
0.0
 11
103.55
 21
35.908799999999999
 31
0.0
  0
LINE
  5
12A
  8
_________2
 62
     7
 10
28.549299999999992
 20
9.4089600000000004
 30
0.0
 11
28.549299999999992
 21
23.409199999999998
 31
0.0
  0
LINE
  5
12B
  8
_________2
 62
     7
 10
17.049499999999998
 20
9.4089600000000004
 30
0.0
 11
103.55
 21
9.4089600000000004
 31
0.0
  0
LINE
  5
12C
  8
_________2
 62
     7
 10
17.049499999999998
 20
23.409199999999998
 30
0.0
 11
103.55
 21
23.409199999999998
 31
0.0
  0
LINE
  5
12D
  8
_________2
 62
     7
 10
103.55
 20
15.9085
 30
0.0
 11
183.55099999999999
 21
15.9085
 31
0.0
  0
LINE
  5
12E
  8
_________2
 62
     7
 10
17.049499999999998
 20
35.908799999999999
 30
0.0
 11
183.55099999999999
 21
35.908799999999999
 31
0.0
  0
ENDSEC
  0
EOF
