  0
SECTION
  2
HEADER
  9
$ACADVER
  1
AC1009
  9
$INSBASE
 10
0.0
 20
0.0
 30
0.0
  9
$EXTMIN
 10
-4.70052
 20
-21.071400000000001
 30
0.0
  9
$EXTMAX
 10
205.30099999999999
 20
275.93099999999993
 30
0.0
  9
$LIMMIN
 10
0.0
 20
0.0
  9
$LIMMAX
 10
12.0
 20
9.0
  9
$ORTHOMODE
 70
     0
  9
$REGENMODE
 70
     1
  9
$FILLMODE
 70
     1
  9
$QTEXTMODE
 70
     0
  9
$MIRRTEXT
 70
     1
  9
$DRAGMODE
 70
     2
  9
$LTSCALE
 40
1.0
  9
$OSMODE
 70
    37
  9
$ATTMODE
 70
     1
  9
$TEXTSIZE
 40
0.0
  9
$TRACEWID
 40
0.05
  9
$TEXTSTYLE
  7
STANDARD
  9
$CLAYER
  8
0
  9
$CELTYPE
  6
CONTINUOUS
  9
$CECOLOR
 62
   256
  9
$DIMSCALE
 40
1.0
  9
$DIMASZ
 40
0.18
  9
$DIMEXO
 40
0.0625
  9
$DIMDLI
 40
0.38
  9
$DIMRND
 40
0.0
  9
$DIMDLE
 40
0.0
  9
$DIMEXE
 40
0.18
  9
$DIMTP
 40
0.0
  9
$DIMTM
 40
0.0
  9
$DIMTXT
 40
0.18
  9
$DIMCEN
 40
0.09
  9
$DIMTSZ
 40
0.0
  9
$DIMTOL
 70
     0
  9
$DIMLIM
 70
     0
  9
$DIMTIH
 70
     1
  9
$DIMTOH
 70
     1
  9
$DIMSE1
 70
     0
  9
$DIMSE2
 70
     0
  9
$DIMTAD
 70
     0
  9
$DIMZIN
 70
     0
  9
$DIMBLK
  1

  9
$DIMASO
 70
     1
  9
$DIMSHO
 70
     1
  9
$DIMPOST
  1

  9
$DIMAPOST
  1

  9
$DIMALT
 70
     0
  9
$DIMALTD
 70
     2
  9
$DIMALTF
 40
25.399999999999999
  9
$DIMLFAC
 40
1.0
  9
$DIMTOFL
 70
     0
  9
$DIMTVP
 40
0.0
  9
$DIMTIX
 70
     0
  9
$DIMSOXD
 70
     0
  9
$DIMSAH
 70
     0
  9
$DIMBLK1
  1

  9
$DIMBLK2
  1

  9
$DIMSTYLE
  2
STANDARD
  9
$DIMCLRD
 70
     0
  9
$DIMCLRE
 70
     0
  9
$DIMCLRT
 70
     0
  9
$DIMTFAC
 40
1.0
  9
$DIMGAP
 40
0.09
  9
$LUNITS
 70
     2
  9
$LUPREC
 70
     4
  9
$SKETCHINC
 40
0.1
  9
$FILLETRAD
 40
0.0
  9
$AUNITS
 70
     0
  9
$AUPREC
 70
     0
  9
$MENU
  1
.
  9
$ELEVATION
 40
0.0
  9
$PELEVATION
 40
0.0
  9
$THICKNESS
 40
0.0
  9
$LIMCHECK
 70
     0
  9
$BLIPMODE
 70
     0
  9
$CHAMFERA
 40
0.0
  9
$CHAMFERB
 40
0.0
  9
$SKPOLY
 70
     0
  9
$TDCREATE
 40
2444972.375
  9
$TDUPDATE
 40
2456822.254323923
  9
$TDINDWG
 40
0.0000052315
  9
$TDUSRTIMER
 40
0.0000052315
  9
$USRTIMER
 70
     1
  9
$ANGBASE
 50
0.0
  9
$ANGDIR
 70
     0
  9
$PDMODE
 70
     0
  9
$PDSIZE
 40
0.0
  9
$PLINEWID
 40
0.0
  9
$COORDS
 70
     1
  9
$SPLFRAME
 70
     0
  9
$SPLINETYPE
 70
     6
  9
$SPLINESEGS
 70
     8
  9
$ATTDIA
 70
     0
  9
$ATTREQ
 70
     1
  9
$HANDLING
 70
     1
  9
$HANDSEED
  5
171
  9
$SURFTAB1
 70
     6
  9
$SURFTAB2
 70
     6
  9
$SURFTYPE
 70
     6
  9
$SURFU
 70
     6
  9
$SURFV
 70
     6
  9
$UCSNAME
  2

  9
$UCSORG
 10
0.0
 20
0.0
 30
0.0
  9
$UCSXDIR
 10
1.0
 20
0.0
 30
0.0
  9
$UCSYDIR
 10
0.0
 20
1.0
 30
0.0
  9
$PUCSNAME
  2

  9
$PUCSORG
 10
0.0
 20
0.0
 30
0.0
  9
$PUCSXDIR
 10
1.0
 20
0.0
 30
0.0
  9
$PUCSYDIR
 10
0.0
 20
1.0
 30
0.0
  9
$USERI1
 70
     0
  9
$USERI2
 70
     0
  9
$USERI3
 70
     0
  9
$USERI4
 70
     0
  9
$USERI5
 70
     0
  9
$USERR1
 40
0.0
  9
$USERR2
 40
0.0
  9
$USERR3
 40
0.0
  9
$USERR4
 40
0.0
  9
$USERR5
 40
0.0
  9
$WORLDVIEW
 70
     1
  9
$SHADEDGE
 70
     3
  9
$SHADEDIF
 70
    70
  9
$TILEMODE
 70
     1
  9
$MAXACTVP
 70
    48
  9
$PLIMCHECK
 70
     0
  9
$PEXTMIN
 10
1.0000000000000000E+020
 20
1.0000000000000000E+020
 30
1.0000000000000000E+020
  9
$PEXTMAX
 10
-1.0000000000000000E+020
 20
-1.0000000000000000E+020
 30
-1.0000000000000000E+020
  9
$PLIMMIN
 10
0.0
 20
0.0
  9
$PLIMMAX
 10
12.0
 20
9.0
  9
$UNITMODE
 70
     0
  9
$VISRETAIN
 70
     1
  9
$PLINEGEN
 70
     0
  9
$PSLTSCALE
 70
     1
  0
ENDSEC
  0
SECTION
  2
TABLES
  0
TABLE
  2
VPORT
 70
     2
  0
VPORT
  2
*ACTIVE
 70
     0
 10
0.0
 20
0.0
 11
1.0
 21
1.0
 12
202.00678374696719
 22
127.4298
 13
0.0
 23
0.0
 14
1.0
 24
1.0
 15
0.0
 25
0.0
 16
0.0
 26
0.0
 36
1.0
 17
0.0
 27
0.0
 37
0.0
 40
299.45358899587342
 41
2.2894736842105261
 42
50.0
 43
0.0
 44
0.0
 50
0.0
 51
0.0
 71
     0
 72
   100
 73
     1
 74
     1
 75
     0
 76
     0
 77
     0
 78
     0
  0
ENDTAB
  0
TABLE
  2
LTYPE
 70
     3
  0
LTYPE
  2
CONTINUOUS
 70
     0
  3
Solid line
 72
    65
 73
     0
 40
0.0
  0
LTYPE
  2
AIGENLINE001
 70
     0
  3
generate AI->DXF Converter
 72
    65
 73
     2
 40
1.5522299999999991
 49
0.776115
 49
-0.776115
  0
LTYPE
  2
AIGENLINE002
 70
     0
  3
generate AI->DXF Converter
 72
    65
 73
     4
 40
5.8561449999999988
 49
3.5278
 49
-0.776115
 49
0.776115
 49
-0.776115
  0
ENDTAB
  0
TABLE
  2
LAYER
 70
     2
  0
LAYER
  2
0
 70
     0
 62
     7
  6
CONTINUOUS
  0
LAYER
  2
_________2
 70
     0
 62
     7
  6
CONTINUOUS
  0
ENDTAB
  0
TABLE
  2
STYLE
 70
     1
  0
STYLE
  2
STANDARD
 70
     0
 40
0.0
 41
0.0
 50
0.0
 71
     0
 42
0.0
  3
TXT
  4
EXTFONT.SHX
  0
ENDTAB
  0
TABLE
  2
VIEW
 70
     0
  0
ENDTAB
  0
TABLE
  2
UCS
 70
     0
  0
ENDTAB
  0
TABLE
  2
APPID
 70
     1
  0
APPID
  2
ACAD
 70
     0
  0
ENDTAB
  0
TABLE
  2
DIMSTYLE
 70
     1
  0
DIMSTYLE
  2
STANDARD
 70
     0
  3

  4

  5

  6

  7

 40
1.0
 41
0.18
 42
0.0625
 43
0.38
 44
0.18
 45
0.0
 46
0.0
 47
0.0
 48
0.0
140
0.18
141
0.09
142
0.0
143
25.399999999999999
144
1.0
145
0.0
146
1.0
147
0.09
 71
     0
 72
     0
 73
     1
 74
     1
 75
     0
 76
     0
 77
     0
 78
     0
170
     0
171
     2
172
     0
173
     0
174
     0
175
     0
176
     0
177
     0
178
     0
  0
ENDTAB
  0
ENDSEC
  0
SECTION
  2
BLOCKS
  0
BLOCK
  8
0
  2
$MODEL_SPACE
 70
     0
 10
0.0
 20
0.0
 30
0.0
  3
$MODEL_SPACE
  1

  0
ENDBLK
  5
1A
  8
0
  0
BLOCK
 67
     1
  8
0
  2
$PAPER_SPACE
 70
     0
 10
0.0
 20
0.0
 30
0.0
  3
$PAPER_SPACE
  1

  0
ENDBLK
  5
17
 67
     1
  8
0
  0
ENDSEC
  0
SECTION
  2
ENTITIES
  0
TEXT
  5
23
  8
0
 62
     7
 10
130.87978166666659
 20
183.23699999999999
 30
0.0
 40
3.660169999999999
  1
（%%c6x35 樹脂プラグ付）
 41
0.5
 72
     2
 11
157.11099999999999
 21
183.23699999999999
 31
0.0
  0
TEXT
  5
24
  8
0
 62
     7
 10
118.8862433333333
 20
188.309
 30
0.0
 40
3.660169999999999
  1
%%c4.0x50 SUS 十字穴付丸頭木ネジ
 41
0.5
 72
     2
 11
156.70799999999991
 21
188.309
 31
0.0
  0
TEXT
  5
25
  8
0
 62
     7
 10
137.11999999999989
 20
119.8878724999999
 30
0.0
 40
3.660169999999999
  1
20
 50
90.0
 41
0.5
 72
     2
 11
137.11999999999989
 21
122.6329999999999
 31
0.0
  0
TEXT
  5
26
  8
0
 62
     7
 10
168.542
 20
110.28243625
 30
0.0
 40
3.660169999999999
  1
40
 50
90.0
 41
0.5
 72
     1
 11
168.542
 21
111.6549999999999
 31
0.0
  0
TEXT
  5
27
  8
0
 62
     7
 10
175.143
 20
108.633915
 30
0.0
 40
3.660169999999999
  1
100
 50
90.0
 41
0.5
 72
     1
 11
175.143
 21
110.464
 31
0.0
  0
TEXT
  5
28
  8
0
 62
     7
 10
26.940000000000001
 20
108.3414079166666
 30
0.0
 40
3.660169999999999
  1
102
 50
90.0
 41
0.5
 72
     1
 11
26.940000000000001
 21
110.3239999999999
 31
0.0
  0
TEXT
  5
29
  8
0
 62
     7
 10
26.859300000000001
 20
161.47588666666661
 30
0.0
 40
3.660169999999999
  1
232
 50
90.0
 41
0.5
 72
     1
 11
26.859300000000001
 21
163.91599999999991
 31
0.0
  0
TEXT
  5
2A
  8
0
 62
     7
 10
118.107
 20
120.6879999999999
 30
0.0
 40
3.660169999999999
  1
%%c22
 41
0.5
  0
TEXT
  5
2B
  8
0
 62
     7
 10
73.583193750000007
 20
141.00099999999989
 30
0.0
 40
3.660169999999999
  1
650
 41
0.5
 72
     1
 11
75.870800000000003
 21
141.00099999999989
 31
0.0
  0
TEXT
  5
2C
  8
0
 62
     7
 10
73.735700833333325
 20
193.5509999999999
 30
0.0
 40
3.660169999999999
  1
600
 41
0.5
 72
     1
 11
75.870800000000003
 21
193.5509999999999
 31
0.0
  0
ARC
  5
2D
  8
0
  6
AIGENLINE001
 62
     7
 10
38.360855999999998
 20
114.2238909999999
 30
0.0
 40
0.259949
 50
272.20442500000001
 51
357.87455899999998
  0
ARC
  5
2E
  8
0
  6
AIGENLINE001
 62
     7
 10
38.370854999999999
 20
114.21425000000001
 30
0.0
 40
0.250115
 50
179.99996999999991
 51
270.00002000000001
  0
ARC
  5
2F
  8
0
  6
AIGENLINE001
 62
     7
 10
38.370854999999999
 20
114.21425000000001
 30
0.0
 40
0.250116
 50
90.0
 51
179.99996999999991
  0
ARC
  5
30
  8
0
  6
AIGENLINE001
 62
     7
 10
38.361185999999989
 20
114.2049389999999
 30
0.0
 40
0.259607
 50
2.0554759999999992
 51
87.865539999999996
  0
LINE
  5
31
  8
0
  6
AIGENLINE002
 62
     7
 10
37.137799999999991
 20
114.2139999999999
 30
0.0
 11
39.68099999999999
 21
114.2139999999999
 31
0.0
  0
ARC
  5
32
  8
0
  6
AIGENLINE001
 62
     7
 10
38.360855999999998
 20
109.2236479999999
 30
0.0
 40
0.259949
 50
272.20442500000001
 51
357.87455899999998
  0
ARC
  5
33
  8
0
  6
AIGENLINE001
 62
     7
 10
38.370854999999999
 20
109.214007
 30
0.0
 40
0.250115
 50
179.99996999999991
 51
270.00002000000001
  0
ARC
  5
34
  8
0
  6
AIGENLINE001
 62
     7
 10
38.370854999999999
 20
109.214007
 30
0.0
 40
0.250116
 50
90.0
 51
179.99996999999991
  0
ARC
  5
35
  8
0
  6
AIGENLINE001
 62
     7
 10
38.361185999999989
 20
109.204696
 30
0.0
 40
0.259607
 50
2.0554759999999992
 51
87.865539999999996
  0
LINE
  5
36
  8
0
  6
AIGENLINE002
 62
     7
 10
37.137799999999991
 20
109.214
 30
0.0
 11
39.68099999999999
 21
109.214
 31
0.0
  0
LINE
  5
37
  8
0
  6
AIGENLINE002
 62
     7
 10
38.370499999999993
 20
112.9429999999999
 30
0.0
 11
38.370499999999993
 21
115.215
 31
0.0
  0
LINE
  5
38
  8
0
  6
AIGENLINE002
 62
     7
 10
38.370499999999993
 20
108.0179999999999
 30
0.0
 11
38.370499999999993
 21
110.291
 31
0.0
  0
ARC
  5
39
  8
0
  6
AIGENLINE001
 62
     7
 10
113.360542
 20
114.2238909999999
 30
0.0
 40
0.259949
 50
272.20442500000001
 51
357.87455899999998
  0
ARC
  5
3A
  8
0
  6
AIGENLINE001
 62
     7
 10
113.3705409999999
 20
114.21425000000001
 30
0.0
 40
0.250115
 50
179.99996999999991
 51
270.00002000000001
  0
ARC
  5
3B
  8
0
  6
AIGENLINE001
 62
     7
 10
113.3705409999999
 20
114.21425000000001
 30
0.0
 40
0.250116
 50
90.0
 51
179.99996999999991
  0
ARC
  5
3C
  8
0
  6
AIGENLINE001
 62
     7
 10
113.360867
 20
114.20493399999999
 30
0.0
 40
0.259612
 50
2.0565679999999991
 51
87.864447999999996
  0
LINE
  5
3D
  8
0
  6
AIGENLINE002
 62
     7
 10
112.13800000000001
 20
114.2139999999999
 30
0.0
 11
114.681
 21
114.2139999999999
 31
0.0
  0
ARC
  5
3E
  8
0
  6
AIGENLINE001
 62
     7
 10
113.360542
 20
109.2236479999999
 30
0.0
 40
0.259949
 50
272.20442500000001
 51
357.87455899999998
  0
ARC
  5
3F
  8
0
  6
AIGENLINE001
 62
     7
 10
113.3705409999999
 20
109.214007
 30
0.0
 40
0.250115
 50
179.99996999999991
 51
270.00002000000001
  0
ARC
  5
40
  8
0
  6
AIGENLINE001
 62
     7
 10
113.3705409999999
 20
109.214007
 30
0.0
 40
0.250116
 50
90.0
 51
179.99996999999991
  0
ARC
  5
41
  8
0
  6
AIGENLINE001
 62
     7
 10
113.360867
 20
109.2046899999999
 30
0.0
 40
0.259612
 50
2.0565679999999991
 51
87.864447999999996
  0
LINE
  5
42
  8
0
 62
     7
 10
120.12599999999991
 20
187.1279999999999
 30
0.0
 11
157.11099999999999
 21
187.1279999999999
 31
0.0
  0
LINE
  5
43
  8
0
 62
     7
 10
114.765
 20
182.60599999999999
 30
0.0
 11
113.62
 21
180.62200000000001
 31
0.0
  0
LINE
  5
44
  8
0
 62
     7
 10
113.62
 20
180.62200000000001
 30
0.0
 11
115.60299999999989
 21
181.76699999999991
 31
0.0
  0
LINE
  5
45
  8
0
 62
     7
 10
115.60299999999989
 20
181.76699999999991
 30
0.0
 11
114.765
 21
182.60599999999999
 31
0.0
  0
LINE
  5
46
  8
0
 62
     7
 10
113.62
 20
180.62200000000001
 30
0.0
 11
120.12599999999991
 21
187.1279999999999
 31
0.0
  0
LINE
  5
47
  8
0
  6
AIGENLINE002
 62
     7
 10
112.13800000000001
 20
109.214
 30
0.0
 11
114.681
 21
109.214
 31
0.0
  0
LINE
  5
48
  8
0
  6
AIGENLINE002
 62
     7
 10
155.00499999999991
 20
114.2139999999999
 30
0.0
 11
162.256
 21
114.2139999999999
 31
0.0
  0
LINE
  5
49
  8
0
  6
AIGENLINE002
 62
     7
 10
155.00499999999991
 20
109.214
 30
0.0
 11
162.256
 21
109.214
 31
0.0
  0
LINE
  5
4A
  8
0
 62
     7
 10
160.77699999999999
 20
114.637
 30
0.0
 11
160.929
 21
113.7909999999999
 31
0.0
  0
LINE
  5
4B
  8
0
 62
     7
 10
160.40199999999999
 20
114.637
 30
0.0
 11
160.55299999999991
 21
113.7909999999999
 31
0.0
  0
LINE
  5
4C
  8
0
 62
     7
 10
160.02699999999999
 20
114.637
 30
0.0
 11
160.179
 21
113.7909999999999
 31
0.0
  0
LINE
  5
4D
  8
0
 62
     7
 10
159.65199999999999
 20
114.637
 30
0.0
 11
159.803
 21
113.7909999999999
 31
0.0
  0
LINE
  5
4E
  8
0
 62
     7
 10
159.27699999999999
 20
114.637
 30
0.0
 11
159.42899999999989
 21
113.7909999999999
 31
0.0
  0
LINE
  5
4F
  8
0
 62
     7
 10
158.90199999999999
 20
114.637
 30
0.0
 11
159.053
 21
113.7909999999999
 31
0.0
  0
LINE
  5
50
  8
0
 62
     7
 10
158.52699999999999
 20
114.637
 30
0.0
 11
158.679
 21
113.7909999999999
 31
0.0
  0
LINE
  5
51
  8
0
 62
     7
 10
158.15199999999999
 20
114.637
 30
0.0
 11
158.30299999999991
 21
113.7909999999999
 31
0.0
  0
LINE
  5
52
  8
0
 62
     7
 10
157.77699999999999
 20
114.637
 30
0.0
 11
157.929
 21
113.7909999999999
 31
0.0
  0
LINE
  5
53
  8
0
 62
     7
 10
157.40199999999999
 20
114.637
 30
0.0
 11
157.553
 21
113.7909999999999
 31
0.0
  0
LINE
  5
54
  8
0
 62
     7
 10
161.505
 20
114.2139999999999
 30
0.0
 11
160.88
 21
114.464
 31
0.0
  0
LINE
  5
55
  8
0
 62
     7
 10
161.505
 20
114.2139999999999
 30
0.0
 11
160.88
 21
113.9639999999999
 31
0.0
  0
LINE
  5
56
  8
0
 62
     7
 10
157.25499999999991
 20
113.9639999999999
 30
0.0
 11
160.88
 21
113.9639999999999
 31
0.0
  0
LINE
  5
57
  8
0
 62
     7
 10
157.25499999999991
 20
114.464
 30
0.0
 11
160.88
 21
114.464
 31
0.0
  0
LINE
  5
58
  8
0
 62
     7
 10
155.75499999999991
 20
114.464
 30
0.0
 11
155.75499999999991
 21
113.9639999999999
 31
0.0
  0
LINE
  5
59
  8
0
 62
     7
 10
155.75499999999991
 20
113.9639999999999
 30
0.0
 11
157.25499999999991
 21
113.9639999999999
 31
0.0
  0
LINE
  5
5A
  8
0
 62
     7
 10
157.25499999999991
 20
113.9639999999999
 30
0.0
 11
157.25499999999991
 21
114.464
 31
0.0
  0
LINE
  5
5B
  8
0
 62
     7
 10
157.25499999999991
 20
114.464
 30
0.0
 11
155.75499999999991
 21
114.464
 31
0.0
  0
LINE
  5
5C
  8
0
 62
     7
 10
160.77699999999999
 20
109.637
 30
0.0
 11
160.929
 21
108.7909999999999
 31
0.0
  0
LINE
  5
5D
  8
0
 62
     7
 10
160.40199999999999
 20
109.637
 30
0.0
 11
160.55299999999991
 21
108.7909999999999
 31
0.0
  0
LINE
  5
5E
  8
0
 62
     7
 10
160.02699999999999
 20
109.637
 30
0.0
 11
160.179
 21
108.7909999999999
 31
0.0
  0
LINE
  5
5F
  8
0
 62
     7
 10
159.65199999999999
 20
109.637
 30
0.0
 11
159.803
 21
108.7909999999999
 31
0.0
  0
LINE
  5
60
  8
0
 62
     7
 10
159.27699999999999
 20
109.637
 30
0.0
 11
159.42899999999989
 21
108.7909999999999
 31
0.0
  0
LINE
  5
61
  8
0
 62
     7
 10
158.90199999999999
 20
109.637
 30
0.0
 11
159.053
 21
108.7909999999999
 31
0.0
  0
LINE
  5
62
  8
0
 62
     7
 10
158.52699999999999
 20
109.637
 30
0.0
 11
158.679
 21
108.7909999999999
 31
0.0
  0
LINE
  5
63
  8
0
 62
     7
 10
158.15199999999999
 20
109.637
 30
0.0
 11
158.30299999999991
 21
108.7909999999999
 31
0.0
  0
LINE
  5
64
  8
0
 62
     7
 10
157.77699999999999
 20
109.637
 30
0.0
 11
157.929
 21
108.7909999999999
 31
0.0
  0
LINE
  5
65
  8
0
 62
     7
 10
157.40199999999999
 20
109.637
 30
0.0
 11
157.553
 21
108.7909999999999
 31
0.0
  0
LINE
  5
66
  8
0
 62
     7
 10
161.505
 20
109.214
 30
0.0
 11
160.88
 21
109.464
 31
0.0
  0
LINE
  5
67
  8
0
 62
     7
 10
161.505
 20
109.214
 30
0.0
 11
160.88
 21
108.9639999999999
 31
0.0
  0
LINE
  5
68
  8
0
 62
     7
 10
157.25499999999991
 20
108.9639999999999
 30
0.0
 11
160.88
 21
108.9639999999999
 31
0.0
  0
LINE
  5
69
  8
0
 62
     7
 10
157.25499999999991
 20
109.464
 30
0.0
 11
160.88
 21
109.464
 31
0.0
  0
LINE
  5
6A
  8
0
 62
     7
 10
155.75499999999991
 20
109.464
 30
0.0
 11
155.75499999999991
 21
108.9639999999999
 31
0.0
  0
LINE
  5
6B
  8
0
 62
     7
 10
155.75499999999991
 20
108.9639999999999
 30
0.0
 11
157.25499999999991
 21
108.9639999999999
 31
0.0
  0
LINE
  5
6C
  8
0
 62
     7
 10
157.25499999999991
 20
108.9639999999999
 30
0.0
 11
157.25499999999991
 21
109.464
 31
0.0
  0
LINE
  5
6D
  8
0
 62
     7
 10
157.25499999999991
 20
109.464
 30
0.0
 11
155.75499999999991
 21
109.464
 31
0.0
  0
LINE
  5
6E
  8
0
 62
     7
 10
138.01900000000001
 20
122.6329999999999
 30
0.0
 11
138.01900000000001
 21
116.714
 31
0.0
  0
LINE
  5
6F
  8
0
 62
     7
 10
137.42699999999999
 20
118.9249999999999
 30
0.0
 11
138.01900000000001
 21
116.714
 31
0.0
  0
LINE
  5
70
  8
0
 62
     7
 10
138.01900000000001
 20
116.714
 30
0.0
 11
138.61199999999999
 21
118.9249999999999
 31
0.0
  0
LINE
  5
71
  8
0
 62
     7
 10
138.61199999999999
 20
118.9249999999999
 30
0.0
 11
137.42699999999999
 21
118.9249999999999
 31
0.0
  0
LINE
  5
72
  8
0
 62
     7
 10
138.61199999999999
 20
112.0029999999999
 30
0.0
 11
138.01900000000001
 21
114.2139999999999
 31
0.0
  0
LINE
  5
73
  8
0
 62
     7
 10
138.01900000000001
 20
114.2139999999999
 30
0.0
 11
137.42699999999999
 21
112.0029999999999
 31
0.0
  0
LINE
  5
74
  8
0
 62
     7
 10
137.42699999999999
 20
112.0029999999999
 30
0.0
 11
138.61199999999999
 21
112.0029999999999
 31
0.0
  0
LINE
  5
75
  8
0
 62
     7
 10
138.01900000000001
 20
114.2139999999999
 30
0.0
 11
138.01900000000001
 21
116.714
 31
0.0
  0
LINE
  5
76
  8
0
 62
     7
 10
138.01900000000001
 20
114.2139999999999
 30
0.0
 11
138.01900000000001
 21
109.95099999999999
 31
0.0
  0
LINE
  5
77
  8
0
 62
     7
 10
176.54099999999991
 20
114.5029999999999
 30
0.0
 11
175.94799999999989
 21
116.714
 31
0.0
  0
LINE
  5
78
  8
0
 62
     7
 10
175.94799999999989
 20
116.714
 30
0.0
 11
175.35599999999999
 21
114.5029999999999
 31
0.0
  0
LINE
  5
79
  8
0
 62
     7
 10
175.35599999999999
 20
114.5029999999999
 30
0.0
 11
176.54099999999991
 21
114.5029999999999
 31
0.0
  0
LINE
  5
7A
  8
0
 62
     7
 10
175.37
 20
106.4259999999999
 30
0.0
 11
175.96299999999999
 21
104.214
 31
0.0
  0
LINE
  5
7B
  8
0
 62
     7
 10
175.96299999999999
 20
104.214
 30
0.0
 11
176.55500000000001
 21
106.4259999999999
 31
0.0
  0
LINE
  5
7C
  8
0
 62
     7
 10
176.55500000000001
 20
106.4259999999999
 30
0.0
 11
175.37
 21
106.4259999999999
 31
0.0
  0
LINE
  5
7D
  8
0
 62
     7
 10
175.94799999999989
 20
116.714
 30
0.0
 11
175.94799999999989
 21
104.214
 31
0.0
  0
LINE
  5
7E
  8
0
 62
     7
 10
169.24199999999999
 20
109.214
 30
0.0
 11
169.24199999999999
 21
104.95
 31
0.0
  0
LINE
  5
7F
  8
0
 62
     7
 10
169.24199999999999
 20
118.562
 30
0.0
 11
169.24199999999999
 21
114.2139999999999
 31
0.0
  0
LINE
  5
80
  8
0
 62
     7
 10
156.756
 20
104.214
 30
0.0
 11
176.94799999999989
 21
104.214
 31
0.0
  0
LINE
  5
81
  8
0
 62
     7
 10
156.756
 20
116.714
 30
0.0
 11
176.94799999999989
 21
116.714
 31
0.0
  0
LINE
  5
82
  8
0
 62
     7
 10
126.01299999999991
 20
118.419
 30
0.0
 11
127.1579999999999
 21
116.43600000000001
 31
0.0
  0
LINE
  5
83
  8
0
 62
     7
 10
127.1579999999999
 20
116.43600000000001
 30
0.0
 11
125.1749999999999
 21
117.581
 31
0.0
  0
LINE
  5
84
  8
0
 62
     7
 10
125.1749999999999
 20
117.581
 30
0.0
 11
126.01299999999991
 21
118.419
 31
0.0
  0
LINE
  5
85
  8
0
 62
     7
 10
130.24700000000001
 20
112.5089999999999
 30
0.0
 11
129.102
 21
114.492
 31
0.0
  0
LINE
  5
86
  8
0
 62
     7
 10
129.102
 20
114.492
 30
0.0
 11
131.08500000000001
 21
113.34699999999999
 31
0.0
  0
LINE
  5
87
  8
0
 62
     7
 10
131.08500000000001
 20
113.34699999999999
 30
0.0
 11
130.24700000000001
 21
112.5089999999999
 31
0.0
  0
LINE
  5
88
  8
0
 62
     7
 10
131.99899999999991
 20
111.5949999999999
 30
0.0
 11
129.102
 21
114.492
 31
0.0
  0
LINE
  5
89
  8
0
 62
     7
 10
129.102
 20
114.492
 30
0.0
 11
127.1579999999999
 21
116.43600000000001
 31
0.0
  0
LINE
  5
8A
  8
0
 62
     7
 10
169.83399999999989
 20
116.426
 30
0.0
 11
169.24199999999999
 21
114.2139999999999
 31
0.0
  0
LINE
  5
8B
  8
0
 62
     7
 10
169.24199999999999
 20
114.2139999999999
 30
0.0
 11
168.649
 21
116.426
 31
0.0
  0
LINE
  5
8C
  8
0
 62
     7
 10
168.649
 20
116.426
 30
0.0
 11
169.83399999999989
 21
116.426
 31
0.0
  0
LINE
  5
8D
  8
0
 62
     7
 10
168.649
 20
107.0029999999999
 30
0.0
 11
169.24199999999999
 21
109.214
 31
0.0
  0
LINE
  5
8E
  8
0
 62
     7
 10
169.24199999999999
 20
109.214
 30
0.0
 11
169.83399999999989
 21
107.0029999999999
 31
0.0
  0
LINE
  5
8F
  8
0
 62
     7
 10
169.83399999999989
 20
107.0029999999999
 30
0.0
 11
168.649
 21
107.0029999999999
 31
0.0
  0
LINE
  5
90
  8
0
 62
     7
 10
169.24199999999999
 20
109.214
 30
0.0
 11
169.24199999999999
 21
114.2139999999999
 31
0.0
  0
LINE
  5
91
  8
0
 62
     7
 10
163.25599999999989
 20
109.214
 30
0.0
 11
170.24199999999999
 21
109.214
 31
0.0
  0
LINE
  5
92
  8
0
 62
     7
 10
163.25599999999989
 20
114.2139999999999
 30
0.0
 11
170.24199999999999
 21
114.2139999999999
 31
0.0
  0
LINE
  5
93
  8
0
 62
     7
 10
147.07799999999989
 20
104.214
 30
0.0
 11
155.75499999999991
 21
104.214
 31
0.0
  0
LINE
  5
94
  8
0
 62
     7
 10
153.255
 20
106.7139999999999
 30
0.0
 11
147.07799999999989
 21
106.7139999999999
 31
0.0
  0
LINE
  5
95
  8
0
 62
     7
 10
153.255
 20
106.7139999999999
 30
0.0
 11
153.255
 21
114.2139999999999
 31
0.0
  0
LINE
  5
96
  8
0
 62
     7
 10
153.255
 20
114.2139999999999
 30
0.0
 11
128.703
 21
114.2139999999999
 31
0.0
  0
LINE
  5
97
  8
0
 62
     7
 10
128.702
 20
116.714
 30
0.0
 11
155.75499999999991
 21
116.714
 31
0.0
  0
LINE
  5
98
  8
0
 62
     7
 10
155.75499999999991
 20
104.214
 30
0.0
 11
155.75499999999991
 21
116.714
 31
0.0
  0
ARC
  5
99
  8
0
 62
     7
 10
128.13011299999991
 20
115.46413799999991
 30
0.0
 40
1.374946999999999
 50
90.0
 51
179.99996999999991
  0
ARC
  5
9A
  8
0
 62
     7
 10
128.130112
 20
115.46413799999991
 30
0.0
 40
1.374946999999999
 50
0.00001
 51
89.999980000000008
  0
ARC
  5
9B
  8
0
 62
     7
 10
128.130112
 20
115.4641389999999
 30
0.0
 40
1.374946999999999
 50
270.00002000000001
 51
359.99998999999991
  0
ARC
  5
9C
  8
0
 62
     7
 10
128.130112
 20
115.46413799999991
 30
0.0
 40
1.374946
 50
179.99996999999991
 51
270.00002000000001
  0
ARC
  5
9D
  8
0
 62
     7
 10
146.50550699999999
 20
105.4641689999999
 30
0.0
 40
1.3751189999999991
 50
90.007176999999999
 51
180.00718699999999
  0
ARC
  5
9E
  8
0
 62
     7
 10
146.50516200000001
 20
105.4641689999999
 30
0.0
 40
1.3751189999999991
 50
359.99283300000002
 51
89.992802999999995
  0
ARC
  5
9F
  8
0
 62
     7
 10
146.505334
 20
105.46399699999991
 30
0.0
 40
1.374946999999999
 50
270.00002000000001
 51
359.99998999999991
  0
ARC
  5
A0
  8
0
 62
     7
 10
146.505334
 20
105.46399699999991
 30
0.0
 40
1.374946
 50
179.99996999999991
 51
270.00002000000001
  0
LINE
  5
A1
  8
0
 62
     7
 10
118.107
 20
119.988
 30
0.0
 11
123.607
 21
119.988
 31
0.0
  0
LINE
  5
A2
  8
0
 62
     7
 10
123.607
 20
119.988
 30
0.0
 11
127.1579999999999
 21
116.43600000000001
 31
0.0
  0
LINE
  5
A3
  8
0
 62
     7
 10
169.24199999999999
 20
112.7199999999999
 30
0.0
 11
169.24199999999999
 21
105.357
 31
0.0
  0
LINE
  5
A4
  8
0
 62
     7
 10
37.457000000000001
 20
140.99399999999989
 30
0.0
 11
35.245399999999997
 21
140.40100000000001
 31
0.0
  0
LINE
  5
A5
  8
0
 62
     7
 10
35.245399999999997
 20
140.40100000000001
 30
0.0
 11
37.457000000000001
 21
139.809
 31
0.0
  0
LINE
  5
A6
  8
0
 62
     7
 10
37.457000000000001
 20
139.809
 30
0.0
 11
37.457000000000001
 21
140.99399999999989
 31
0.0
  0
LINE
  5
A7
  8
0
 62
     7
 10
114.2829999999999
 20
139.82299999999989
 30
0.0
 11
116.495
 21
140.416
 31
0.0
  0
LINE
  5
A8
  8
0
 62
     7
 10
116.495
 20
140.416
 30
0.0
 11
114.2829999999999
 21
141.0079999999999
 31
0.0
  0
LINE
  5
A9
  8
0
 62
     7
 10
114.2829999999999
 20
141.0079999999999
 30
0.0
 11
114.2829999999999
 21
139.82299999999989
 31
0.0
  0
LINE
  5
AA
  8
0
 62
     7
 10
35.245399999999997
 20
140.40100000000001
 30
0.0
 11
116.495
 21
140.40100000000001
 31
0.0
  0
LINE
  5
AB
  8
0
 62
     7
 10
116.495
 20
139.40100000000001
 30
0.0
 11
116.495
 21
148.45099999999999
 31
0.0
  0
LINE
  5
AC
  8
0
 62
     7
 10
35.245399999999997
 20
139.40100000000001
 30
0.0
 11
35.245399999999997
 21
148.45099999999999
 31
0.0
  0
LINE
  5
AD
  8
0
 62
     7
 10
27.167300000000001
 20
151.6629999999999
 30
0.0
 11
27.759899999999998
 21
149.45099999999999
 31
0.0
  0
LINE
  5
AE
  8
0
 62
     7
 10
27.759899999999998
 20
149.45099999999999
 30
0.0
 11
28.352499999999999
 21
151.6629999999999
 31
0.0
  0
LINE
  5
AF
  8
0
 62
     7
 10
28.352499999999999
 20
151.6629999999999
 30
0.0
 11
27.167300000000001
 21
151.6629999999999
 31
0.0
  0
LINE
  5
B0
  8
0
 62
     7
 10
28.338000000000001
 20
176.24000000000001
 30
0.0
 11
27.7454
 21
178.452
 31
0.0
  0
LINE
  5
B1
  8
0
 62
     7
 10
27.7454
 20
178.452
 30
0.0
 11
27.152899999999988
 21
176.24000000000001
 31
0.0
  0
LINE
  5
B2
  8
0
 62
     7
 10
27.152899999999988
 20
176.24000000000001
 30
0.0
 11
28.338000000000001
 21
176.24000000000001
 31
0.0
  0
LINE
  5
B3
  8
0
 62
     7
 10
27.7454
 20
149.45099999999999
 30
0.0
 11
27.7454
 21
178.452
 31
0.0
  0
LINE
  5
B4
  8
0
 62
     7
 10
34.245499999999993
 20
149.45099999999999
 30
0.0
 11
26.745499999999989
 21
149.45099999999999
 31
0.0
  0
LINE
  5
B5
  8
0
 62
     7
 10
34.745399999999989
 20
178.452
 30
0.0
 11
26.745499999999989
 21
178.452
 31
0.0
  0
LINE
  5
B6
  8
0
 62
     7
 10
27.167300000000001
 20
106.2999999999999
 30
0.0
 11
27.759899999999998
 21
104.089
 31
0.0
  0
LINE
  5
B7
  8
0
 62
     7
 10
27.759899999999998
 20
104.089
 30
0.0
 11
28.352499999999999
 21
106.2999999999999
 31
0.0
  0
LINE
  5
B8
  8
0
 62
     7
 10
28.352499999999999
 20
106.2999999999999
 30
0.0
 11
27.167300000000001
 21
106.2999999999999
 31
0.0
  0
LINE
  5
B9
  8
0
 62
     7
 10
28.338000000000001
 20
114.6279999999999
 30
0.0
 11
27.7454
 21
116.839
 31
0.0
  0
LINE
  5
BA
  8
0
 62
     7
 10
27.7454
 20
116.839
 30
0.0
 11
27.152899999999988
 21
114.6279999999999
 31
0.0
  0
LINE
  5
BB
  8
0
 62
     7
 10
27.152899999999988
 20
114.6279999999999
 30
0.0
 11
28.338000000000001
 21
114.6279999999999
 31
0.0
  0
LINE
  5
BC
  8
0
 62
     7
 10
27.7454
 20
104.089
 30
0.0
 11
27.7454
 21
116.839
 31
0.0
  0
LINE
  5
BD
  8
0
 62
     7
 10
34.245499999999993
 20
104.089
 30
0.0
 11
26.745499999999989
 21
104.089
 31
0.0
  0
LINE
  5
BE
  8
0
 62
     7
 10
34.245499999999993
 20
116.839
 30
0.0
 11
26.745499999999989
 21
116.839
 31
0.0
  0
LINE
  5
BF
  8
0
 62
     7
 10
40.58209999999999
 20
193.54400000000001
 30
0.0
 11
38.370499999999993
 21
192.952
 31
0.0
  0
LINE
  5
C0
  8
0
 62
     7
 10
38.370499999999993
 20
192.952
 30
0.0
 11
40.58209999999999
 21
192.35900000000001
 31
0.0
  0
LINE
  5
C1
  8
0
 62
     7
 10
40.58209999999999
 20
192.35900000000001
 30
0.0
 11
40.58209999999999
 21
193.54400000000001
 31
0.0
  0
LINE
  5
C2
  8
0
 62
     7
 10
111.15899999999991
 20
192.374
 30
0.0
 11
113.37
 21
192.96599999999989
 31
0.0
  0
LINE
  5
C3
  8
0
 62
     7
 10
113.37
 20
192.96599999999989
 30
0.0
 11
111.15899999999991
 21
193.559
 31
0.0
  0
LINE
  5
C4
  8
0
 62
     7
 10
111.15899999999991
 20
193.559
 30
0.0
 11
111.15899999999991
 21
192.374
 31
0.0
  0
LINE
  5
C5
  8
0
 62
     7
 10
38.370499999999993
 20
192.952
 30
0.0
 11
113.37
 21
192.952
 31
0.0
  0
LINE
  5
C6
  8
0
 62
     7
 10
38.370499999999993
 20
185.95099999999999
 30
0.0
 11
38.370499999999993
 21
193.952
 31
0.0
  0
LINE
  5
C7
  8
0
  6
AIGENLINE002
 62
     7
 10
38.370499999999993
 20
177.702
 30
0.0
 11
38.370499999999993
 21
184.95099999999999
 31
0.0
  0
LINE
  5
C8
  8
0
 62
     7
 10
37.947400000000002
 20
183.47300000000001
 30
0.0
 11
38.793199999999992
 21
183.624
 31
0.0
  0
LINE
  5
C9
  8
0
 62
     7
 10
37.947400000000002
 20
183.0979999999999
 30
0.0
 11
38.793199999999992
 21
183.24999999999989
 31
0.0
  0
LINE
  5
CA
  8
0
 62
     7
 10
37.947400000000002
 20
182.7229999999999
 30
0.0
 11
38.793199999999992
 21
182.874
 31
0.0
  0
LINE
  5
CB
  8
0
 62
     7
 10
37.947400000000002
 20
182.3479999999999
 30
0.0
 11
38.793199999999992
 21
182.5
 31
0.0
  0
LINE
  5
CC
  8
0
 62
     7
 10
37.947400000000002
 20
181.9729999999999
 30
0.0
 11
38.793199999999992
 21
182.124
 31
0.0
  0
LINE
  5
CD
  8
0
 62
     7
 10
37.947400000000002
 20
181.5979999999999
 30
0.0
 11
38.793199999999992
 21
181.75
 31
0.0
  0
LINE
  5
CE
  8
0
 62
     7
 10
37.947400000000002
 20
181.2229999999999
 30
0.0
 11
38.793199999999992
 21
181.374
 31
0.0
  0
LINE
  5
CF
  8
0
 62
     7
 10
37.947400000000002
 20
180.8479999999999
 30
0.0
 11
38.793199999999992
 21
181.0
 31
0.0
  0
LINE
  5
D0
  8
0
 62
     7
 10
37.947400000000002
 20
180.4729999999999
 30
0.0
 11
38.793199999999992
 21
180.624
 31
0.0
  0
LINE
  5
D1
  8
0
 62
     7
 10
37.947400000000002
 20
180.0979999999999
 30
0.0
 11
38.793199999999992
 21
180.25
 31
0.0
  0
LINE
  5
D2
  8
0
 62
     7
 10
38.370499999999993
 20
184.20099999999991
 30
0.0
 11
38.120399999999989
 21
183.577
 31
0.0
  0
LINE
  5
D3
  8
0
 62
     7
 10
38.370499999999993
 20
184.20099999999991
 30
0.0
 11
38.6203
 21
183.577
 31
0.0
  0
LINE
  5
D4
  8
0
 62
     7
 10
38.6203
 20
179.952
 30
0.0
 11
38.6203
 21
183.577
 31
0.0
  0
LINE
  5
D5
  8
0
 62
     7
 10
38.120399999999989
 20
179.952
 30
0.0
 11
38.120399999999989
 21
183.577
 31
0.0
  0
LINE
  5
D6
  8
0
 62
     7
 10
38.120399999999989
 20
178.452
 30
0.0
 11
38.6203
 21
178.452
 31
0.0
  0
LINE
  5
D7
  8
0
 62
     7
 10
38.6203
 20
178.452
 30
0.0
 11
38.6203
 21
179.952
 31
0.0
  0
LINE
  5
D8
  8
0
 62
     7
 10
38.6203
 20
179.952
 30
0.0
 11
38.120399999999989
 21
179.952
 31
0.0
  0
LINE
  5
D9
  8
0
 62
     7
 10
38.120399999999989
 20
179.952
 30
0.0
 11
38.120399999999989
 21
178.452
 31
0.0
  0
LINE
  5
DA
  8
0
 62
     7
 10
40.9953
 20
157.57599999999999
 30
0.0
 11
110.745
 21
157.57599999999999
 31
0.0
  0
LINE
  5
DB
  8
0
 62
     7
 10
40.9953
 20
159.07599999999991
 30
0.0
 11
110.745
 21
159.07599999999991
 31
0.0
  0
LINE
  5
DC
  8
0
 62
     7
 10
40.9953
 20
164.57599999999991
 30
0.0
 11
110.745
 21
164.57599999999991
 31
0.0
  0
LINE
  5
DD
  8
0
 62
     7
 10
40.9953
 20
166.07599999999991
 30
0.0
 11
110.745
 21
166.07599999999991
 31
0.0
  0
LINE
  5
DE
  8
0
 62
     7
 10
40.9953
 20
171.57599999999991
 30
0.0
 11
110.745
 21
171.57599999999991
 31
0.0
  0
LINE
  5
DF
  8
0
 62
     7
 10
40.9953
 20
173.07599999999999
 30
0.0
 11
110.745
 21
173.07599999999999
 31
0.0
  0
LINE
  5
E0
  8
0
 62
     7
 10
115.995
 20
170.57599999999991
 30
0.0
 11
116.495
 21
170.57599999999991
 31
0.0
  0
LINE
  5
E1
  8
0
 62
     7
 10
35.7453
 20
167.82599999999991
 30
0.0
 11
35.245399999999997
 21
167.82599999999991
 31
0.0
  0
LINE
  5
E2
  8
0
 62
     7
 10
115.995
 20
152.20099999999991
 30
0.0
 11
116.495
 21
152.20099999999991
 31
0.0
  0
LINE
  5
E3
  8
0
 62
     7
 10
35.744999999999997
 20
152.20099999999991
 30
0.0
 11
35.245399999999997
 21
152.20099999999991
 31
0.0
  0
LINE
  5
E4
  8
0
 62
     7
 10
110.745
 20
152.20099999999991
 30
0.0
 11
40.9953
 21
152.20099999999991
 31
0.0
  0
LINE
  5
E5
  8
0
 62
     7
 10
116.495
 20
149.45099999999999
 30
0.0
 11
116.495
 21
152.20099999999991
 31
0.0
  0
LINE
  5
E6
  8
0
 62
     7
 10
35.245399999999997
 20
149.45099999999999
 30
0.0
 11
116.495
 21
149.45099999999999
 31
0.0
  0
LINE
  5
E7
  8
0
 62
     7
 10
35.245399999999997
 20
152.20099999999991
 30
0.0
 11
35.245399999999997
 21
149.45099999999999
 31
0.0
  0
LINE
  5
E8
  8
0
 62
     7
 10
35.744999999999997
 20
170.57599999999991
 30
0.0
 11
35.245100000000001
 21
170.57599999999991
 31
0.0
  0
LINE
  5
E9
  8
0
 62
     7
 10
110.745
 20
170.57599999999991
 30
0.0
 11
40.9953
 21
170.57599999999991
 31
0.0
  0
LINE
  5
EA
  8
0
 62
     7
 10
116.495
 20
167.82599999999991
 30
0.0
 11
116.495
 21
170.57599999999991
 31
0.0
  0
LINE
  5
EB
  8
0
 62
     7
 10
115.995
 20
167.82599999999991
 30
0.0
 11
116.495
 21
167.82599999999991
 31
0.0
  0
LINE
  5
EC
  8
0
 62
     7
 10
40.9953
 20
167.82599999999991
 30
0.0
 11
110.745
 21
167.82599999999991
 31
0.0
  0
LINE
  5
ED
  8
0
 62
     7
 10
35.245399999999997
 20
170.57599999999991
 30
0.0
 11
35.245399999999997
 21
167.82599999999991
 31
0.0
  0
LINE
  5
EE
  8
0
 62
     7
 10
40.9953
 20
175.95099999999991
 30
0.0
 11
35.7453
 21
175.95099999999991
 31
0.0
  0
LINE
  5
EF
  8
0
 62
     7
 10
115.995
 20
175.95099999999991
 30
0.0
 11
110.745
 21
175.95099999999991
 31
0.0
  0
LINE
  5
F0
  8
0
 62
     7
 10
40.9953
 20
151.398
 30
0.0
 11
35.7453
 21
151.398
 31
0.0
  0
LINE
  5
F1
  8
0
 62
     7
 10
40.9953
 20
178.452
 30
0.0
 11
35.7453
 21
178.452
 31
0.0
  0
LINE
  5
F2
  8
0
 62
     7
 10
35.7453
 20
178.452
 30
0.0
 11
35.7453
 21
151.398
 31
0.0
  0
LINE
  5
F3
  8
0
 62
     7
 10
40.9953
 20
178.452
 30
0.0
 11
40.9953
 21
151.398
 31
0.0
  0
LINE
  5
F4
  8
0
 62
     7
 10
115.995
 20
151.398
 30
0.0
 11
110.745
 21
151.398
 31
0.0
  0
LINE
  5
F5
  8
0
 62
     7
 10
113.37
 20
185.95099999999999
 30
0.0
 11
113.37
 21
193.952
 31
0.0
  0
LINE
  5
F6
  8
0
  6
AIGENLINE002
 62
     7
 10
113.37
 20
112.9429999999999
 30
0.0
 11
113.37
 21
115.215
 31
0.0
  0
LINE
  5
F7
  8
0
  6
AIGENLINE002
 62
     7
 10
113.37
 20
108.0179999999999
 30
0.0
 11
113.37
 21
110.291
 31
0.0
  0
LINE
  5
F8
  8
0
  6
AIGENLINE002
 62
     7
 10
113.37
 20
177.702
 30
0.0
 11
113.37
 21
184.95099999999999
 31
0.0
  0
LINE
  5
F9
  8
0
 62
     7
 10
112.9469999999999
 20
183.47300000000001
 30
0.0
 11
113.79299999999991
 21
183.624
 31
0.0
  0
LINE
  5
FA
  8
0
 62
     7
 10
112.9469999999999
 20
183.0979999999999
 30
0.0
 11
113.79299999999991
 21
183.24999999999989
 31
0.0
  0
LINE
  5
FB
  8
0
 62
     7
 10
112.9469999999999
 20
182.7229999999999
 30
0.0
 11
113.79299999999991
 21
182.874
 31
0.0
  0
LINE
  5
FC
  8
0
 62
     7
 10
112.9469999999999
 20
182.3479999999999
 30
0.0
 11
113.79299999999991
 21
182.5
 31
0.0
  0
LINE
  5
FD
  8
0
 62
     7
 10
112.9469999999999
 20
181.9729999999999
 30
0.0
 11
113.79299999999991
 21
182.124
 31
0.0
  0
LINE
  5
FE
  8
0
 62
     7
 10
112.9469999999999
 20
181.5979999999999
 30
0.0
 11
113.79299999999991
 21
181.75
 31
0.0
  0
LINE
  5
FF
  8
0
 62
     7
 10
112.9469999999999
 20
181.2229999999999
 30
0.0
 11
113.79299999999991
 21
181.374
 31
0.0
  0
LINE
  5
100
  8
0
 62
     7
 10
112.9469999999999
 20
180.8479999999999
 30
0.0
 11
113.79299999999991
 21
181.0
 31
0.0
  0
LINE
  5
101
  8
0
 62
     7
 10
112.9469999999999
 20
180.4729999999999
 30
0.0
 11
113.79299999999991
 21
180.624
 31
0.0
  0
LINE
  5
102
  8
0
 62
     7
 10
112.9469999999999
 20
180.0979999999999
 30
0.0
 11
113.79299999999991
 21
180.25
 31
0.0
  0
LINE
  5
103
  8
0
 62
     7
 10
113.37
 20
184.20099999999991
 30
0.0
 11
113.11999999999991
 21
183.577
 31
0.0
  0
LINE
  5
104
  8
0
 62
     7
 10
113.37
 20
184.20099999999991
 30
0.0
 11
113.62
 21
183.577
 31
0.0
  0
LINE
  5
105
  8
0
 62
     7
 10
113.62
 20
179.952
 30
0.0
 11
113.62
 21
183.577
 31
0.0
  0
LINE
  5
106
  8
0
 62
     7
 10
113.11999999999991
 20
179.952
 30
0.0
 11
113.11999999999991
 21
183.577
 31
0.0
  0
LINE
  5
107
  8
0
 62
     7
 10
113.11999999999991
 20
178.452
 30
0.0
 11
113.62
 21
178.452
 31
0.0
  0
LINE
  5
108
  8
0
 62
     7
 10
113.62
 20
178.452
 30
0.0
 11
113.62
 21
179.952
 31
0.0
  0
LINE
  5
109
  8
0
 62
     7
 10
113.62
 20
179.952
 30
0.0
 11
113.11999999999991
 21
179.952
 31
0.0
  0
LINE
  5
10A
  8
0
 62
     7
 10
113.11999999999991
 20
179.952
 30
0.0
 11
113.11999999999991
 21
178.452
 31
0.0
  0
LINE
  5
10B
  8
0
 62
     7
 10
115.995
 20
178.452
 30
0.0
 11
110.745
 21
178.452
 31
0.0
  0
LINE
  5
10C
  8
0
 62
     7
 10
110.745
 20
178.452
 30
0.0
 11
110.745
 21
151.398
 31
0.0
  0
LINE
  5
10D
  8
0
 62
     7
 10
115.995
 20
178.452
 30
0.0
 11
115.995
 21
151.398
 31
0.0
  0
LINE
  5
10E
  8
0
 62
     7
 10
35.7453
 20
152.20099999999991
 30
0.0
 11
35.7453
 21
149.45099999999999
 31
0.0
  0
LINE
  5
10F
  8
0
 62
     7
 10
35.7453
 20
170.57599999999991
 30
0.0
 11
35.7453
 21
167.82599999999991
 31
0.0
  0
LINE
  5
110
  8
0
 62
     7
 10
115.995
 20
152.20099999999991
 30
0.0
 11
115.995
 21
149.45099999999999
 31
0.0
  0
LINE
  5
111
  8
0
 62
     7
 10
115.995
 20
170.57599999999991
 30
0.0
 11
115.995
 21
167.82599999999991
 31
0.0
  0
LINE
  5
112
  8
0
 62
     7
 10
110.745
 20
114.0889999999999
 30
0.0
 11
110.745
 21
106.8389999999999
 31
0.0
  0
LINE
  5
113
  8
0
 62
     7
 10
115.995
 20
114.0889999999999
 30
0.0
 11
115.995
 21
106.8389999999999
 31
0.0
  0
LINE
  5
114
  8
0
 62
     7
 10
35.7453
 20
114.0889999999999
 30
0.0
 11
35.7453
 21
106.8389999999999
 31
0.0
  0
LINE
  5
115
  8
0
 62
     7
 10
40.9953
 20
114.0889999999999
 30
0.0
 11
40.9953
 21
106.8389999999999
 31
0.0
  0
LINE
  5
116
  8
0
 62
     7
 10
35.7453
 20
106.8389999999999
 30
0.0
 11
35.7453
 21
104.089
 31
0.0
  0
LINE
  5
117
  8
0
 62
     7
 10
35.7453
 20
116.839
 30
0.0
 11
35.7453
 21
114.0889999999999
 31
0.0
  0
LINE
  5
118
  8
0
 62
     7
 10
115.995
 20
106.8389999999999
 30
0.0
 11
115.995
 21
104.089
 31
0.0
  0
LINE
  5
119
  8
0
 62
     7
 10
115.995
 20
116.839
 30
0.0
 11
115.995
 21
114.0889999999999
 31
0.0
  0
LINE
  5
11A
  8
0
 62
     7
 10
35.245399999999997
 20
106.8389999999999
 30
0.0
 11
35.245399999999997
 21
104.089
 31
0.0
  0
LINE
  5
11B
  8
0
 62
     7
 10
35.245399999999997
 20
104.089
 30
0.0
 11
116.495
 21
104.089
 31
0.0
  0
LINE
  5
11C
  8
0
 62
     7
 10
116.495
 20
104.089
 30
0.0
 11
116.495
 21
106.8389999999999
 31
0.0
  0
LINE
  5
11D
  8
0
 62
     7
 10
116.495
 20
106.8389999999999
 30
0.0
 11
35.245399999999997
 21
106.8389999999999
 31
0.0
  0
LINE
  5
11E
  8
0
 62
     7
 10
35.245399999999997
 20
116.839
 30
0.0
 11
35.245399999999997
 21
114.0889999999999
 31
0.0
  0
LINE
  5
11F
  8
0
 62
     7
 10
35.245399999999997
 20
114.0889999999999
 30
0.0
 11
116.495
 21
114.0889999999999
 31
0.0
  0
LINE
  5
120
  8
0
 62
     7
 10
116.495
 20
114.0889999999999
 30
0.0
 11
116.495
 21
116.839
 31
0.0
  0
LINE
  5
121
  8
0
 62
     7
 10
116.495
 20
116.839
 30
0.0
 11
35.245399999999997
 21
116.839
 31
0.0
  0
LINE
  5
122
  8
_________2
 62
     7
 10
205.30099999999999
 20
127.411
 30
0.0
 11
183.55000000000001
 21
127.411
 31
0.0
  0
LINE
  5
123
  8
_________2
 62
     7
 10
100.2999999999999
 20
-4.0910799999999998
 30
0.0
 11
100.2999999999999
 21
-21.071400000000001
 31
0.0
  0
LINE
  5
124
  8
_________2
 62
     7
 10
100.2999999999999
 20
275.93099999999993
 30
0.0
 11
100.2999999999999
 21
258.911
 31
0.0
  0
LINE
  5
125
  8
_________2
 62
     7
 10
17.049499999999998
 20
127.411
 30
0.0
 11
-4.70052
 21
127.411
 31
0.0
  0
LINE
  5
126
  8
_________2
 62
     7
 10
76.741
 20
29.8047
 30
0.0
 11
74.554699999999997
 21
29.8047
 31
0.0
  0
LINE
  5
127
  8
_________2
 62
     7
 10
77.233699999999999
 20
29.8047
 30
0.0
 11
76.981499999999997
 21
29.8047
 31
0.0
  0
LINE
  5
128
  8
_________2
 62
     7
 10
77.726299999999995
 20
29.8047
 30
0.0
 11
80.651200000000003
 21
29.8047
 31
0.0
  0
LINE
  5
129
  8
_________2
 62
     7
 10
77.233699999999999
 20
29.8047
 30
0.0
 11
77.485500000000002
 21
29.8047
 31
0.0
  0
LINE
  5
12A
  8
_________2
 62
     7
 10
70.837100000000007
 20
29.8047
 30
0.0
 11
68.650499999999994
 21
29.8047
 31
0.0
  0
LINE
  5
12B
  8
_________2
 62
     7
 10
71.329400000000007
 20
29.8047
 30
0.0
 11
71.077600000000004
 21
29.8047
 31
0.0
  0
LINE
  5
12C
  8
_________2
 62
     7
 10
71.329400000000007
 20
30.2974
 30
0.0
 11
71.329400000000007
 21
32.484400000000001
 31
0.0
  0
LINE
  5
12D
  8
_________2
 62
     7
 10
71.329400000000007
 20
29.8047
 30
0.0
 11
71.329400000000007
 21
30.056899999999992
 31
0.0
  0
LINE
  5
12E
  8
_________2
 62
     7
 10
71.822100000000006
 20
29.8047
 30
0.0
 11
74.009
 21
29.8047
 31
0.0
  0
LINE
  5
12F
  8
_________2
 62
     7
 10
71.329400000000007
 20
29.8047
 30
0.0
 11
71.581599999999995
 21
29.8047
 31
0.0
  0
LINE
  5
130
  8
_________2
 62
     7
 10
71.329400000000007
 20
29.312799999999999
 30
0.0
 11
71.329400000000007
 21
27.125800000000002
 31
0.0
  0
LINE
  5
131
  8
_________2
 62
     7
 10
71.329400000000007
 20
29.8047
 30
0.0
 11
71.329400000000007
 21
29.5532
 31
0.0
  0
LINE
  5
132
  8
_________2
 62
     7
 10
75.040499999999994
 20
28.5852
 30
0.0
 11
80.218500000000006
 21
27.720400000000001
 31
0.0
  0
LINE
  5
133
  8
_________2
 62
     7
 10
75.040499999999994
 20
31.0243
 30
0.0
 11
80.218500000000006
 21
31.889700000000001
 31
0.0
  0
LINE
  5
134
  8
_________2
 62
     7
 10
80.218500000000006
 20
27.720400000000001
 30
0.0
 11
80.218500000000006
 21
31.889700000000001
 31
0.0
  0
LINE
  5
135
  8
_________2
 62
     7
 10
75.040499999999994
 20
28.5852
 30
0.0
 11
75.040499999999994
 21
31.0243
 31
0.0
  0
ARC
  5
136
  8
_________2
 62
     7
 10
71.28285600000001
 20
29.757811
 30
0.0
 40
1.2673589999999999
 50
2.122214
 51
87.893958999999995
  0
ARC
  5
137
  8
_________2
 62
     7
 10
71.375959999999992
 20
29.758213000000001
 30
0.0
 40
1.2669559999999991
 50
92.104701000000006
 51
177.8952689999999
  0
ARC
  5
138
  8
_________2
 62
     7
 10
71.376357999999996
 20
29.851671
 30
0.0
 40
1.2673680000000001
 50
182.12203600000001
 51
267.877993
  0
ARC
  5
139
  8
_________2
 62
     7
 10
71.282531999999989
 20
29.851998999999989
 30
0.0
 40
1.267695999999999
 50
272.12015300000002
 51
357.863674
  0
ARC
  5
13A
  8
_________2
 62
     7
 10
71.329430000000002
 20
29.804742999999998
 30
0.0
 40
2.0849849999999992
 50
0.00001
 51
89.999980000000008
  0
ARC
  5
13B
  8
_________2
 62
     7
 10
71.329603000000006
 20
29.804915000000001
 30
0.0
 40
2.084813
 50
90.004733999999999
 51
180.00474399999999
  0
ARC
  5
13C
  8
_________2
 62
     7
 10
71.409106000000008
 20
29.884775999999999
 30
0.0
 40
2.1657950000000001
 50
182.11776599999999
 51
267.89173399999999
  0
ARC
  5
13D
  8
_________2
 62
     7
 10
71.249459000000002
 20
29.885429999999989
 30
0.0
 40
2.1664590000000001
 50
272.11546800000002
 51
357.86560400000002
  0
TEXT
  5
13E
  8
_________2
 62
     7
 10
104.605
 20
1.6794899999999999
 30
0.0
 40
3.660169999999999
  1
図番
 41
0.5
  0
LINE
  5
13F
  8
_________2
 62
     7
 10
103.55
 20
5.9087199999999989
 30
0.0
 11
183.55099999999999
 21
5.9087199999999989
 31
0.0
  0
TEXT
  5
140
  8
_________2
 62
     7
 10
104.605
 20
11.679299999999991
 30
0.0
 40
3.660169999999999
  1
品番
 41
0.5
  0
TEXT
  5
141
  8
_________2
 62
     7
 10
104.605
 20
31.818100000000001
 30
0.0
 40
3.660169999999999
  1
名称
 41
0.5
  0
TEXT
  5
142
  8
_________2
 62
     7
 10
91.565445833333328
 20
26.821999999999989
 30
0.0
 40
4.3256500000000004
  1
mm
 41
0.5
 72
     1
 11
93.367800000000003
 21
26.821999999999989
 31
0.0
  0
TEXT
  5
143
  8
_________2
 62
     7
 10
85.643199999999993
 20
31.818100000000001
 30
0.0
 40
3.660169999999999
  1
単位
 41
0.5
  0
TEXT
  5
144
  8
_________2
 62
     7
 10
85.643199999999993
 20
19.410799999999991
 30
0.0
 40
3.660169999999999
  1
尺度
 41
0.5
  0
TEXT
  5
145
  8
_________2
 62
     7
 10
89.922426666666667
 20
13.2179
 30
0.0
 40
4.3256500000000004
  1
1 ： 8
 41
0.5
 72
     1
 11
93.959699999999998
 21
13.2179
 31
0.0
  0
TEXT
  5
146
  8
_________2
 62
     7
 10
135.7860166666666
 20
9.1078600000000005
 30
0.0
 40
4.6583899999999989
  1
EC3568R
 41
0.5
 72
     1
 11
143.55000000000001
 21
9.1078600000000005
 31
0.0
  0
TEXT
  5
147
  8
_________2
 62
     7
 10
135.7860166666666
 20
-0.8926299999999999
 30
0.0
 40
4.6583899999999989
  1
EC3568R
 41
0.5
 72
     1
 11
143.55000000000001
 21
-0.8926299999999999
 31
0.0
  0
TEXT
  5
148
  8
_________2
 62
     7
 10
109.179
 20
24.2257
 30
0.0
 40
4.6583899999999989
  1
タオルラック（600サイズ）
 41
0.5
  0
TEXT
  5
149
  8
_________2
 62
     7
 10
39.078580833333334
 20
13.603
 30
0.0
 40
4.3256500000000004
  1
早川
 41
0.5
 72
     1
 11
41.313499999999998
 21
13.603
 31
0.0
  0
TEXT
  5
14A
  8
_________2
 62
     7
 10
20.432186666666659
 20
13.603
 30
0.0
 40
4.3256500000000004
  1
石原
 41
0.5
 72
     1
 11
22.73919999999999
 21
13.603
 31
0.0
  0
TEXT
  5
14B
  8
_________2
 62
     7
 10
67.785399999999996
 20
13.2179
 30
0.0
 40
4.3256500000000004
  1
14.06.11
 41
0.5
  0
TEXT
  5
14C
  8
_________2
 62
     7
 10
66.593100000000007
 20
19.410799999999991
 30
0.0
 40
3.660169999999999
  1
日付
 41
0.5
  0
TEXT
  5
14D
  8
_________2
 62
     7
 10
29.639399999999998
 20
19.410799999999991
 30
0.0
 40
3.660169999999999
  1
検図
 41
0.5
  0
TEXT
  5
14E
  8
_________2
 62
     7
 10
18.021100000000001
 20
5.21143
 30
0.0
 40
3.660169999999999
  1
備考
 41
0.5
  0
TEXT
  5
14F
  8
_________2
 62
     7
 10
18.021100000000001
 20
19.410799999999991
 30
0.0
 40
3.660169999999999
  1
製図
 41
0.5
  0
TEXT
  5
150
  8
_________2
 62
     7
 10
20.594830666666681
 20
27.936800000000002
 30
0.0
 40
5.3238799999999991
  1
セラトレーディング株式会社
 41
0.5
 72
     1
 11
41.180500000000002
 21
27.936800000000002
 31
0.0
  0
LINE
  5
151
  8
_________2
 62
     7
 10
183.55099999999999
 20
-4.0910799999999998
 30
0.0
 11
17.049499999999998
 21
-4.0910799999999998
 31
0.0
  0
LINE
  5
152
  8
_________2
 62
     7
 10
17.049499999999998
 20
-4.0910799999999998
 30
0.0
 11
17.049499999999998
 21
258.911
 31
0.0
  0
LINE
  5
153
  8
_________2
 62
     7
 10
17.049499999999998
 20
258.911
 30
0.0
 11
183.55099999999999
 21
258.911
 31
0.0
  0
LINE
  5
154
  8
_________2
 62
     7
 10
183.55099999999999
 20
258.911
 30
0.0
 11
183.55099999999999
 21
-4.0910799999999998
 31
0.0
  0
LINE
  5
155
  8
_________2
 62
     7
 10
65.549599999999998
 20
9.4089600000000004
 30
0.0
 11
65.549599999999998
 21
35.908799999999999
 31
0.0
  0
LINE
  5
156
  8
_________2
 62
     7
 10
84.549700000000016
 20
9.4089600000000004
 30
0.0
 11
84.549700000000016
 21
35.908799999999999
 31
0.0
  0
LINE
  5
157
  8
_________2
 62
     7
 10
103.55
 20
-4.0910799999999998
 30
0.0
 11
103.55
 21
35.908799999999999
 31
0.0
  0
LINE
  5
158
  8
_________2
 62
     7
 10
28.549299999999992
 20
9.4089600000000004
 30
0.0
 11
28.549299999999992
 21
23.409199999999998
 31
0.0
  0
LINE
  5
159
  8
_________2
 62
     7
 10
17.049499999999998
 20
9.4089600000000004
 30
0.0
 11
103.55
 21
9.4089600000000004
 31
0.0
  0
LINE
  5
15A
  8
_________2
 62
     7
 10
17.049499999999998
 20
23.409199999999998
 30
0.0
 11
103.55
 21
23.409199999999998
 31
0.0
  0
LINE
  5
15B
  8
_________2
 62
     7
 10
103.55
 20
15.9085
 30
0.0
 11
183.55099999999999
 21
15.9085
 31
0.0
  0
LINE
  5
15C
  8
_________2
 62
     7
 10
17.049499999999998
 20
35.908799999999999
 30
0.0
 11
183.55099999999999
 21
35.908799999999999
 31
0.0
  0
ENDSEC
  0
EOF
