  0
SECTION
  2
HEADER
  9
$ACADVER
  1
AC1015
  9
$ACADMAINTVER
 70
     6
  9
$DWGCODEPAGE
  3
ANSI_932
  9
$INSBASE
 10
0.0
 20
0.0
 30
0.0
  9
$EXTMIN
 10
-4.70103
 20
-21.07099999999999
 30
0.0
  9
$EXTMAX
 10
205.301
 20
275.9309999999999
 30
0.0
  9
$LIMMIN
 10
0.0
 20
0.0
  9
$LIMMAX
 10
12.0
 20
9.0
  9
$ORTHOMODE
 70
     0
  9
$REGENMODE
 70
     1
  9
$FILLMODE
 70
     1
  9
$QTEXTMODE
 70
     0
  9
$MIRRTEXT
 70
     1
  9
$LTSCALE
 40
1.0
  9
$ATTMODE
 70
     1
  9
$TEXTSIZE
 40
0.0
  9
$TRACEWID
 40
0.05
  9
$TEXTSTYLE
  7
STANDARD
  9
$CLAYER
  8
0
  9
$CELTYPE
  6
CONTINUOUS
  9
$CECOLOR
 62
   256
  9
$CELTSCALE
 40
1.0
  9
$DISPSILH
 70
     0
  9
$DIMSCALE
 40
1.0
  9
$DIMASZ
 40
0.18
  9
$DIMEXO
 40
0.0625
  9
$DIMDLI
 40
0.38
  9
$DIMRND
 40
0.0
  9
$DIMDLE
 40
0.0
  9
$DIMEXE
 40
0.18
  9
$DIMTP
 40
0.0
  9
$DIMTM
 40
0.0
  9
$DIMTXT
 40
0.18
  9
$DIMCEN
 40
0.09
  9
$DIMTSZ
 40
0.0
  9
$DIMTOL
 70
     0
  9
$DIMLIM
 70
     0
  9
$DIMTIH
 70
     1
  9
$DIMTOH
 70
     1
  9
$DIMSE1
 70
     0
  9
$DIMSE2
 70
     0
  9
$DIMTAD
 70
     0
  9
$DIMZIN
 70
     0
  9
$DIMBLK
  1

  9
$DIMASO
 70
     1
  9
$DIMSHO
 70
     1
  9
$DIMPOST
  1

  9
$DIMAPOST
  1

  9
$DIMALT
 70
     0
  9
$DIMALTD
 70
     2
  9
$DIMALTF
 40
25.4
  9
$DIMLFAC
 40
1.0
  9
$DIMTOFL
 70
     0
  9
$DIMTVP
 40
0.0
  9
$DIMTIX
 70
     0
  9
$DIMSOXD
 70
     0
  9
$DIMSAH
 70
     0
  9
$DIMBLK1
  1

  9
$DIMBLK2
  1

  9
$DIMSTYLE
  2
STANDARD
  9
$DIMCLRD
 70
     0
  9
$DIMCLRE
 70
     0
  9
$DIMCLRT
 70
     0
  9
$DIMTFAC
 40
1.0
  9
$DIMGAP
 40
0.09
  9
$DIMJUST
 70
     0
  9
$DIMSD1
 70
     0
  9
$DIMSD2
 70
     0
  9
$DIMTOLJ
 70
     1
  9
$DIMTZIN
 70
     0
  9
$DIMALTZ
 70
     0
  9
$DIMALTTZ
 70
     0
  9
$DIMUPT
 70
     0
  9
$DIMDEC
 70
     4
  9
$DIMTDEC
 70
     4
  9
$DIMALTU
 70
     2
  9
$DIMALTTD
 70
     2
  9
$DIMTXSTY
  7
STANDARD
  9
$DIMAUNIT
 70
     0
  9
$DIMADEC
 70
     0
  9
$DIMALTRND
 40
0.0
  9
$DIMAZIN
 70
     0
  9
$DIMDSEP
 70
    46
  9
$DIMATFIT
 70
     3
  9
$DIMFRAC
 70
     0
  9
$DIMLDRBLK
  1

  9
$DIMLUNIT
 70
     2
  9
$DIMLWD
 70
    -2
  9
$DIMLWE
 70
    -2
  9
$DIMTMOVE
 70
     0
  9
$LUNITS
 70
     2
  9
$LUPREC
 70
     4
  9
$SKETCHINC
 40
0.1
  9
$FILLETRAD
 40
0.0
  9
$AUNITS
 70
     0
  9
$AUPREC
 70
     0
  9
$MENU
  1
.
  9
$ELEVATION
 40
0.0
  9
$PELEVATION
 40
0.0
  9
$THICKNESS
 40
0.0
  9
$LIMCHECK
 70
     0
  9
$CHAMFERA
 40
0.0
  9
$CHAMFERB
 40
0.0
  9
$CHAMFERC
 40
0.0
  9
$CHAMFERD
 40
0.0
  9
$SKPOLY
 70
     0
  9
$TDCREATE
 40
2444972.375000000
  9
$TDUCREATE
 40
2444972.000000000
  9
$TDUPDATE
 40
2455216.788789815
  9
$TDUUPDATE
 40
2455216.413789814
  9
$TDINDWG
 40
0.0153964120
  9
$TDUSRTIMER
 40
0.0153964120
  9
$USRTIMER
 70
     1
  9
$ANGBASE
 50
0.0
  9
$ANGDIR
 70
     0
  9
$PDMODE
 70
     0
  9
$PDSIZE
 40
0.0
  9
$PLINEWID
 40
0.0
  9
$SPLFRAME
 70
     0
  9
$SPLINETYPE
 70
     6
  9
$SPLINESEGS
 70
     8
  9
$HANDSEED
  5
27A
  9
$SURFTAB1
 70
     6
  9
$SURFTAB2
 70
     6
  9
$SURFTYPE
 70
     6
  9
$SURFU
 70
     6
  9
$SURFV
 70
     6
  9
$UCSBASE
  2

  9
$UCSNAME
  2

  9
$UCSORG
 10
0.0
 20
0.0
 30
0.0
  9
$UCSXDIR
 10
1.0
 20
0.0
 30
0.0
  9
$UCSYDIR
 10
0.0
 20
1.0
 30
0.0
  9
$UCSORTHOREF
  2

  9
$UCSORTHOVIEW
 70
     0
  9
$UCSORGTOP
 10
0.0
 20
0.0
 30
0.0
  9
$UCSORGBOTTOM
 10
0.0
 20
0.0
 30
0.0
  9
$UCSORGLEFT
 10
0.0
 20
0.0
 30
0.0
  9
$UCSORGRIGHT
 10
0.0
 20
0.0
 30
0.0
  9
$UCSORGFRONT
 10
0.0
 20
0.0
 30
0.0
  9
$UCSORGBACK
 10
0.0
 20
0.0
 30
0.0
  9
$PUCSBASE
  2

  9
$PUCSNAME
  2

  9
$PUCSORG
 10
0.0
 20
0.0
 30
0.0
  9
$PUCSXDIR
 10
1.0
 20
0.0
 30
0.0
  9
$PUCSYDIR
 10
0.0
 20
1.0
 30
0.0
  9
$PUCSORTHOREF
  2

  9
$PUCSORTHOVIEW
 70
     0
  9
$PUCSORGTOP
 10
0.0
 20
0.0
 30
0.0
  9
$PUCSORGBOTTOM
 10
0.0
 20
0.0
 30
0.0
  9
$PUCSORGLEFT
 10
0.0
 20
0.0
 30
0.0
  9
$PUCSORGRIGHT
 10
0.0
 20
0.0
 30
0.0
  9
$PUCSORGFRONT
 10
0.0
 20
0.0
 30
0.0
  9
$PUCSORGBACK
 10
0.0
 20
0.0
 30
0.0
  9
$USERI1
 70
     0
  9
$USERI2
 70
     0
  9
$USERI3
 70
     0
  9
$USERI4
 70
     0
  9
$USERI5
 70
     0
  9
$USERR1
 40
0.0
  9
$USERR2
 40
0.0
  9
$USERR3
 40
0.0
  9
$USERR4
 40
0.0
  9
$USERR5
 40
0.0
  9
$WORLDVIEW
 70
     1
  9
$SHADEDGE
 70
     3
  9
$SHADEDIF
 70
    70
  9
$TILEMODE
 70
     1
  9
$MAXACTVP
 70
    48
  9
$PINSBASE
 10
0.0
 20
0.0
 30
0.0
  9
$PLIMCHECK
 70
     0
  9
$PEXTMIN
 10
1.000000000000000E+20
 20
1.000000000000000E+20
 30
1.000000000000000E+20
  9
$PEXTMAX
 10
-1.000000000000000E+20
 20
-1.000000000000000E+20
 30
-1.000000000000000E+20
  9
$PLIMMIN
 10
0.0
 20
0.0
  9
$PLIMMAX
 10
12.0
 20
9.0
  9
$UNITMODE
 70
     0
  9
$VISRETAIN
 70
     1
  9
$PLINEGEN
 70
     0
  9
$PSLTSCALE
 70
     1
  9
$TREEDEPTH
 70
  3020
  9
$CMLSTYLE
  2
STANDARD
  9
$CMLJUST
 70
     0
  9
$CMLSCALE
 40
1.0
  9
$PROXYGRAPHICS
 70
     1
  9
$MEASUREMENT
 70
     0
  9
$CELWEIGHT
370
    -1
  9
$ENDCAPS
280
     0
  9
$JOINSTYLE
280
     0
  9
$LWDISPLAY
290
     0
  9
$INSUNITS
 70
     0
  9
$HYPERLINKBASE
  1

  9
$STYLESHEET
  1

  9
$XEDIT
290
     1
  9
$CEPSNTYPE
380
     0
  9
$PSTYLEMODE
290
     1
  9
$FINGERPRINTGUID
  2
{08CE530B-0BB8-4EC3-B9F7-D1C07CB35686}
  9
$VERSIONGUID
  2
{7C258B64-2CA5-44CC-8CD6-B9C52F6599CD}
  9
$EXTNAMES
290
     1
  9
$PSVPSCALE
 40
0.0
  9
$OLESTARTUP
290
     0
  0
ENDSEC
  0
SECTION
  2
CLASSES
  0
CLASS
  1
ACDBDICTIONARYWDFLT
  2
AcDbDictionaryWithDefault
  3
AutoCAD 2000
 90
        0
280
     0
281
     0
  0
CLASS
  1
ACDBPLACEHOLDER
  2
AcDbPlaceHolder
  3
AutoCAD 2000
 90
        0
280
     0
281
     0
  0
CLASS
  1
LAYOUT
  2
AcDbLayout
  3
AutoCAD 2000
 90
        0
280
     0
281
     0
  0
ENDSEC
  0
SECTION
  2
TABLES
  0
TABLE
  2
VPORT
  5
8
330
0
100
AcDbSymbolTable
 70
     2
  0
VPORT
  5
279
330
8
100
AcDbSymbolTableRecord
100
AcDbViewportTableRecord
  2
*Active
 70
     0
 10
0.0
 20
0.0
 11
1.0
 21
1.0
 12
124.5038417607013
 22
127.4300013830654
 13
0.0
 23
0.0
 14
1.0
 24
1.0
 15
0.0
 25
0.0
 16
0.0
 26
0.0
 36
1.0
 17
0.0
 27
0.0
 37
0.0
 40
300.6137958416829
 41
1.912109375
 42
50.0
 43
0.0
 44
0.0
 50
0.0
 51
0.0
 71
     0
 72
   100
 73
     1
 74
     1
 75
     0
 76
     0
 77
     0
 78
     0
281
     0
 65
     1
110
0.0
120
0.0
130
0.0
111
1.0
121
0.0
131
0.0
112
0.0
122
1.0
132
0.0
 79
     0
146
0.0
  0
ENDTAB
  0
TABLE
  2
LTYPE
  5
5
330
0
100
AcDbSymbolTable
 70
     2
  0
LTYPE
  5
12
330
5
100
AcDbSymbolTableRecord
100
AcDbLinetypeTableRecord
  2
BYBLOCK
 70
     0
  3

 72
    65
 73
     0
 40
0.0
  0
LTYPE
  5
13
330
5
100
AcDbSymbolTableRecord
100
AcDbLinetypeTableRecord
  2
BYLAYER
 70
     0
  3

 72
    65
 73
     0
 40
0.0
  0
LTYPE
  5
14
330
5
100
AcDbSymbolTableRecord
100
AcDbLinetypeTableRecord
  2
CONTINUOUS
 70
     0
  3
Solid line
 72
    65
 73
     0
 40
0.0
  0
LTYPE
  5
1F
330
5
100
AcDbSymbolTableRecord
100
AcDbLinetypeTableRecord
  2
AIGENLINE001
 70
     0
  3
generate AI->DXF Converter
 72
    65
 73
     4
 40
5.856144999999999
 49
3.5278
 74
     0
 49
-0.776115
 74
     0
 49
0.776115
 74
     0
 49
-0.776115
 74
     0
  0
ENDTAB
  0
TABLE
  2
LAYER
  5
2
330
0
100
AcDbSymbolTable
 70
     2
  0
LAYER
  5
E
330
2
100
AcDbSymbolTableRecord
100
AcDbLayerTableRecord
  2
0
 70
     0
 62
     7
  6
CONTINUOUS
370
    -3
390
267
  0
LAYER
  5
20
330
2
100
AcDbSymbolTableRecord
100
AcDbLayerTableRecord
  2
_________2
 70
     0
 62
     7
  6
CONTINUOUS
370
    -3
390
267
  0
ENDTAB
  0
TABLE
  2
STYLE
  5
3
330
0
100
AcDbSymbolTable
 70
     1
  0
STYLE
  5
F
330
3
100
AcDbSymbolTableRecord
100
AcDbTextStyleTableRecord
  2
STANDARD
 70
     0
 40
0.0
 41
0.0
 50
0.0
 71
     0
 42
0.0
  3
TXT
  4
BIGFONT
  0
ENDTAB
  0
TABLE
  2
VIEW
  5
6
330
0
100
AcDbSymbolTable
 70
     0
  0
ENDTAB
  0
TABLE
  2
UCS
  5
7
330
0
100
AcDbSymbolTable
 70
     0
  0
ENDTAB
  0
TABLE
  2
APPID
  5
9
330
0
100
AcDbSymbolTable
 70
     1
  0
APPID
  5
10
330
9
100
AcDbSymbolTableRecord
100
AcDbRegAppTableRecord
  2
ACAD
 70
     0
  0
ENDTAB
  0
TABLE
  2
DIMSTYLE
  5
A
330
0
100
AcDbSymbolTable
 70
     1
100
AcDbDimStyleTable
 71
     0
  0
DIMSTYLE
105
263
330
A
100
AcDbSymbolTableRecord
100
AcDbDimStyleTableRecord
  2
STANDARD
 70
     0
340
F
  0
ENDTAB
  0
TABLE
  2
BLOCK_RECORD
  5
1
330
0
100
AcDbSymbolTable
 70
     0
  0
BLOCK_RECORD
  5
18
330
1
100
AcDbSymbolTableRecord
100
AcDbBlockTableRecord
  2
*MODEL_SPACE
340
26A
  0
BLOCK_RECORD
  5
15
330
1
100
AcDbSymbolTableRecord
100
AcDbBlockTableRecord
  2
*PAPER_SPACE
340
26B
  0
ENDTAB
  0
ENDSEC
  0
SECTION
  2
BLOCKS
  0
BLOCK
  5
19
330
18
100
AcDbEntity
  8
0
100
AcDbBlockBegin
  2
*MODEL_SPACE
 70
     0
 10
0.0
 20
0.0
 30
0.0
  3
*MODEL_SPACE
  1

  0
ENDBLK
  5
1A
330
18
100
AcDbEntity
  8
0
100
AcDbBlockEnd
  0
BLOCK
  5
16
330
15
100
AcDbEntity
 67
     1
  8
0
100
AcDbBlockBegin
  2
*PAPER_SPACE
 70
     0
 10
0.0
 20
0.0
 30
0.0
  3
*PAPER_SPACE
  1

  0
ENDBLK
  5
17
330
15
100
AcDbEntity
 67
     1
  8
0
100
AcDbBlockEnd
  0
ENDSEC
  0
SECTION
  2
ENTITIES
  0
TEXT
  5
22
330
18
100
AcDbEntity
  8
0
100
AcDbText
 10
72.45971499999999
 20
202.4809999999999
 30
0.0
 40
3.09234
  1
（%%c8×50樹脂プラグ付）
 41
0.5
 72
     2
 11
93.8484
 21
202.4809999999999
 31
0.0
100
AcDbText
  0
TEXT
  5
23
330
18
100
AcDbEntity
  8
0
100
AcDbText
 10
59.52923900000001
 20
207.717
 30
0.0
 40
3.09234
  1
十字穴付皿頭SUSタッピングねじ%%c6×70
 41
0.5
 72
     2
 11
95.555
 21
207.717
 31
0.0
100
AcDbText
  0
TEXT
  5
24
330
18
100
AcDbEntity
  8
0
100
AcDbText
 10
114.197
 20
140.5949999999999
 30
0.0
 40
3.09234
  1
%%c25
 41
0.5
100
AcDbText
  0
TEXT
  5
25
330
18
100
AcDbEntity
  8
0
100
AcDbText
 10
113.346
 20
106.942
 30
0.0
 40
3.09234
  1
%%c32
 41
0.5
100
AcDbText
  0
TEXT
  5
26
330
18
100
AcDbEntity
  8
0
100
AcDbText
 10
123.5745249999999
 20
52.6741
 30
0.0
 40
3.09234
  1
59
 41
0.5
 72
     1
 11
124.863
 21
52.6741
 31
0.0
100
AcDbText
  0
TEXT
  5
27
330
18
100
AcDbEntity
  8
0
100
AcDbText
 10
67.2099725
 20
59.8596
 30
0.0
 40
3.09234
  1
90
 41
0.5
 72
     1
 11
68.36960000000001
 21
59.8596
 31
0.0
100
AcDbText
  0
TEXT
  5
28
330
18
100
AcDbEntity
  8
0
100
AcDbText
 10
123.7033725
 20
58.7658
 30
0.0
 40
3.09234
  1
40
 41
0.5
 72
     1
 11
124.863
 21
58.7658
 31
0.0
100
AcDbText
  0
TEXT
  5
29
330
18
100
AcDbEntity
  8
0
100
AcDbText
 10
86.89
 20
129.8102874999999
 30
0.0
 40
3.09234
  1
650
 50
90.0
 41
0.5
 72
     1
 11
86.89
 21
131.7429999999999
 31
0.0
100
AcDbText
  0
TEXT
  5
2A
330
18
100
AcDbEntity
  8
0
100
AcDbText
 10
148.067
 20
129.68144
 30
0.0
 40
3.09234
  1
665
 50
90.0
 41
0.5
 72
     1
 11
148.067
 21
131.7429999999999
 31
0.0
100
AcDbText
  0
TEXT
  5
2B
330
18
100
AcDbEntity
  8
0
100
AcDbText
 10
106.927
 20
70.46092499999999
 30
0.0
 40
3.09234
  1
65
 50
90.0
 41
0.5
 72
     1
 11
106.927
 21
71.74939999999999
 31
0.0
100
AcDbText
  0
TEXT
  5
2C
330
18
100
AcDbEntity
  8
0
100
AcDbText
 10
112.914
 20
70.46092499999999
 30
0.0
 40
3.09234
  1
36
 50
90.0
 41
0.5
 72
     1
 11
112.914
 21
71.74939999999999
 31
0.0
100
AcDbText
  0
TEXT
  5
2D
330
18
100
AcDbEntity
  8
0
100
AcDbText
 10
139.6409999999999
 20
129.939135
 30
0.0
 40
3.09234
  1
600
 50
90.0
 41
0.5
 72
     1
 11
139.6409999999999
 21
131.7429999999999
 31
0.0
100
AcDbText
  0
LINE
  5
2E
330
18
100
AcDbEntity
  8
0
100
AcDbLine
 10
50.2257
 20
197.734
 30
0.0
 11
49.8438
 21
195.9429999999999
 31
0.0
  0
LINE
  5
2F
330
18
100
AcDbEntity
  8
0
100
AcDbLine
 10
49.8438
 20
195.9429999999999
 30
0.0
 11
51.0702
 21
197.3029999999999
 31
0.0
  0
LINE
  5
30
330
18
100
AcDbEntity
  8
0
100
AcDbLine
 10
51.0702
 20
197.3029999999999
 30
0.0
 11
50.2257
 21
197.734
 31
0.0
  0
LINE
  5
31
330
18
100
AcDbEntity
  8
0
100
AcDbLine
 10
49.8334
 20
195.9479999999999
 30
0.0
 11
55.2418
 21
206.542
 31
0.0
  0
LINE
  5
32
330
18
100
AcDbEntity
  8
0
100
AcDbLine
 10
95.67399999999999
 20
206.542
 30
0.0
 11
55.2418
 21
206.542
 31
0.0
  0
LINE
  5
33
330
18
100
AcDbEntity
  8
0
100
AcDbLine
 10
122.297
 20
196.743
 30
0.0
 11
122.297
 21
182.543
 31
0.0
  0
LINE
  5
34
330
18
100
AcDbEntity
  8
0
100
AcDbLine
 10
127.296
 20
196.743
 30
0.0
 11
127.296
 21
182.543
 31
0.0
  0
LINE
  5
35
330
18
100
AcDbEntity
  8
0
100
AcDbLine
 10
130.0749999999999
 20
191.7429999999999
 30
0.0
 11
140.8199999999999
 21
191.7429999999999
 31
0.0
  0
LINE
  5
36
330
18
100
AcDbEntity
  8
0
100
AcDbLine
 10
128.7959999999999
 20
192.46
 30
0.0
 11
128.7959999999999
 21
191.0259999999999
 31
0.0
  0
LINE
  5
37
330
18
100
AcDbEntity
  8
0
100
AcDbLine
 10
128.079
 20
191.7429999999999
 30
0.0
 11
129.514
 21
191.7429999999999
 31
0.0
  0
LINE
  5
38
330
18
100
AcDbEntity
  8
0
100
AcDbLine
 10
120.797
 20
188.86
 30
0.0
 11
120.797
 21
187.4259999999999
 31
0.0
  0
LINE
  5
39
330
18
100
AcDbEntity
  8
0
100
AcDbLine
 10
120.08
 20
188.1429999999999
 30
0.0
 11
121.5139999999999
 21
188.1429999999999
 31
0.0
  0
LINE
  5
3A
330
18
100
AcDbEntity
  8
0
100
AcDbLine
 10
120.797
 20
196.06
 30
0.0
 11
120.797
 21
194.6259999999999
 31
0.0
  0
LINE
  5
3B
330
18
100
AcDbEntity
  8
0
100
AcDbLine
 10
120.08
 20
195.3429999999999
 30
0.0
 11
121.5139999999999
 21
195.3429999999999
 31
0.0
  0
LINE
  5
3C
330
18
100
AcDbEntity
  8
0
100
AcDbLine
 10
130.6969999999999
 20
197.8429999999999
 30
0.0
 11
130.6969999999999
 21
185.6429999999999
 31
0.0
  0
LINE
  5
3D
330
18
100
AcDbEntity
  8
0
100
AcDbLine
 10
119.297
 20
198.2429999999999
 30
0.0
 11
130.2969999999999
 21
198.2429999999999
 31
0.0
  0
ARC
  5
3E
330
18
100
AcDbEntity
  8
0
100
AcDbCircle
 10
130.281583
 20
197.827771
 30
0.0
 40
0.4154180000000001
100
AcDbArc
 50
2.090071
 51
87.86054699999999
  0
LINE
  5
3F
330
18
100
AcDbEntity
  8
0
100
AcDbLine
 10
127.296
 20
185.243
 30
0.0
 11
130.2969999999999
 21
185.243
 31
0.0
  0
LINE
  5
40
330
18
100
AcDbEntity
  8
0
100
AcDbLine
 10
119.297
 20
185.243
 30
0.0
 11
122.297
 21
185.243
 31
0.0
  0
ARC
  5
41
330
18
100
AcDbEntity
  8
0
100
AcDbCircle
 10
130.281935
 20
185.657527
 30
0.0
 40
0.415054
100
AcDbArc
 50
272.092734
 51
357.9566479999999
  0
LINE
  5
42
330
18
100
AcDbEntity
  8
0
100
AcDbLine
 10
118.897
 20
197.8429999999999
 30
0.0
 11
118.897
 21
185.6429999999999
 31
0.0
  0
ARC
  5
43
330
18
100
AcDbEntity
  8
0
100
AcDbCircle
 10
119.311673
 20
185.657927
 30
0.0
 40
0.415442
100
AcDbArc
 50
182.096676
 51
267.9526829999999
  0
ARC
  5
44
330
18
100
AcDbEntity
  8
0
100
AcDbCircle
 10
119.312247
 20
197.827148
 30
0.0
 40
0.4160370000000001
100
AcDbArc
 50
92.12340000000001
 51
177.8272409999999
  0
LINE
  5
45
330
18
100
AcDbEntity
  8
0
100
AcDbLine
 10
122.297
 20
196.143
 30
0.0
 11
127.296
 21
196.143
 31
0.0
  0
LINE
  5
46
330
18
100
AcDbEntity
  8
0
100
AcDbLine
 10
122.297
 20
196.743
 30
0.0
 11
127.296
 21
196.743
 31
0.0
  0
ARC
  5
47
330
18
100
AcDbEntity
  8
0
100
AcDbCircle
 10
74.329255
 20
164.242384
 30
0.0
 40
3.080433
100
AcDbArc
 50
150.8496969999999
 51
209.137145
  0
LINE
  5
48
330
18
100
AcDbEntity
  8
0
100
AcDbLine
 10
74.4388
 20
164.243
 30
0.0
 11
71.92849999999999
 21
165.587
 31
0.0
  0
LINE
  5
49
330
18
100
AcDbEntity
  8
0
100
AcDbLine
 10
74.4388
 20
164.243
 30
0.0
 11
71.92849999999999
 21
162.898
 31
0.0
  0
ARC
  5
4A
330
18
100
AcDbEntity
  8
0
100
AcDbCircle
 10
74.329255
 20
169.242455
 30
0.0
 40
3.080433
100
AcDbArc
 50
150.8496969999999
 51
209.137145
  0
LINE
  5
4B
330
18
100
AcDbEntity
  8
0
100
AcDbLine
 10
74.4388
 20
169.2429999999999
 30
0.0
 11
71.92849999999999
 21
170.587
 31
0.0
  0
LINE
  5
4C
330
18
100
AcDbEntity
  8
0
100
AcDbLine
 10
74.4388
 20
169.2429999999999
 30
0.0
 11
71.92849999999999
 21
167.8979999999999
 31
0.0
  0
ARC
  5
4D
330
18
100
AcDbEntity
  8
0
100
AcDbCircle
 10
74.327845
 20
174.2424399999999
 30
0.0
 40
3.079159999999999
100
AcDbArc
 50
150.8383189999999
 51
209.148522
  0
LINE
  5
4E
330
18
100
AcDbEntity
  8
0
100
AcDbLine
 10
74.4388
 20
174.2429999999999
 30
0.0
 11
71.92849999999999
 21
175.587
 31
0.0
  0
LINE
  5
4F
330
18
100
AcDbEntity
  8
0
100
AcDbLine
 10
74.4388
 20
174.2429999999999
 30
0.0
 11
71.92849999999999
 21
172.8979999999999
 31
0.0
  0
ARC
  5
50
330
18
100
AcDbEntity
  8
0
100
AcDbCircle
 10
74.327845
 20
179.242511
 30
0.0
 40
3.079159999999999
100
AcDbArc
 50
150.8383189999999
 51
209.148522
  0
LINE
  5
51
330
18
100
AcDbEntity
  8
0
100
AcDbLine
 10
74.4388
 20
179.2429999999999
 30
0.0
 11
71.92849999999999
 21
180.587
 31
0.0
  0
LINE
  5
52
330
18
100
AcDbEntity
  8
0
100
AcDbLine
 10
74.4388
 20
179.2429999999999
 30
0.0
 11
71.92849999999999
 21
177.8979999999999
 31
0.0
  0
LINE
  5
53
330
18
100
AcDbEntity
  8
0
100
AcDbLine
 10
78.03879999999999
 20
181.589
 30
0.0
 11
78.03879999999999
 21
161.7429999999999
 31
0.0
  0
LINE
  5
54
330
18
100
AcDbEntity
  8
0
100
AcDbLine
 10
72.339
 20
182.543
 30
0.0
 11
77.3391
 21
182.543
 31
0.0
  0
ARC
  5
55
330
18
100
AcDbEntity
  8
0
100
AcDbCircle
 10
77.010742
 20
181.568212
 30
0.0
 40
1.028262
100
AcDbArc
 50
1.150508
 51
71.377792
  0
LINE
  5
56
330
18
100
AcDbEntity
  8
0
100
AcDbLine
 10
71.63859999999999
 20
162.7429999999999
 30
0.0
 11
71.63859999999999
 21
161.7429999999999
 31
0.0
  0
LINE
  5
57
330
18
100
AcDbEntity
  8
0
100
AcDbLine
 10
71.63859999999999
 20
167.743
 30
0.0
 11
71.63859999999999
 21
165.7429999999999
 31
0.0
  0
LINE
  5
58
330
18
100
AcDbEntity
  8
0
100
AcDbLine
 10
71.63859999999999
 20
172.743
 30
0.0
 11
71.63859999999999
 21
170.743
 31
0.0
  0
LINE
  5
59
330
18
100
AcDbEntity
  8
0
100
AcDbLine
 10
71.63859999999999
 20
177.743
 30
0.0
 11
71.63859999999999
 21
175.743
 31
0.0
  0
LINE
  5
5A
330
18
100
AcDbEntity
  8
0
100
AcDbLine
 10
71.63859999999999
 20
181.589
 30
0.0
 11
71.63859999999999
 21
180.743
 31
0.0
  0
ARC
  5
5B
330
18
100
AcDbEntity
  8
0
100
AcDbCircle
 10
72.667529
 20
181.5675309999999
 30
0.0
 40
1.02912
100
AcDbArc
 50
108.615234
 51
178.812498
  0
LINE
  5
5C
330
18
100
AcDbEntity
  8
0
100
AcDbLine
 10
72.339
 20
187.543
 30
0.0
 11
72.339
 21
182.542
 31
0.0
  0
ARC
  5
5D
330
18
100
AcDbEntity
  8
0
100
AcDbCircle
 10
74.32733299999999
 20
159.242708
 30
0.0
 40
3.078561999999999
100
AcDbArc
 50
150.8386909999999
 51
209.161309
  0
LINE
  5
5E
330
18
100
AcDbEntity
  8
0
100
AcDbLine
 10
74.4388
 20
159.243
 30
0.0
 11
71.92849999999999
 21
157.898
 31
0.0
  0
LINE
  5
5F
330
18
100
AcDbEntity
  8
0
100
AcDbLine
 10
74.4388
 20
159.243
 30
0.0
 11
71.92849999999999
 21
160.5879999999999
 31
0.0
  0
ARC
  5
60
330
18
100
AcDbEntity
  8
0
100
AcDbCircle
 10
74.328742
 20
154.242723
 30
0.0
 40
3.079833999999999
100
AcDbArc
 50
150.850068
 51
209.149932
  0
LINE
  5
61
330
18
100
AcDbEntity
  8
0
100
AcDbLine
 10
74.4388
 20
154.2429999999999
 30
0.0
 11
71.92849999999999
 21
152.8979999999999
 31
0.0
  0
LINE
  5
62
330
18
100
AcDbEntity
  8
0
100
AcDbLine
 10
74.4388
 20
154.2429999999999
 30
0.0
 11
71.92849999999999
 21
155.587
 31
0.0
  0
ARC
  5
63
330
18
100
AcDbEntity
  8
0
100
AcDbCircle
 10
74.328586
 20
149.242738
 30
0.0
 40
3.079655999999999
100
AcDbArc
 50
150.8500549999999
 51
209.149945
  0
LINE
  5
64
330
18
100
AcDbEntity
  8
0
100
AcDbLine
 10
74.4388
 20
149.2429999999999
 30
0.0
 11
71.92849999999999
 21
147.8979999999999
 31
0.0
  0
LINE
  5
65
330
18
100
AcDbEntity
  8
0
100
AcDbLine
 10
74.4388
 20
149.2429999999999
 30
0.0
 11
71.92849999999999
 21
150.587
 31
0.0
  0
ARC
  5
66
330
18
100
AcDbEntity
  8
0
100
AcDbCircle
 10
74.328586
 20
144.2426669999999
 30
0.0
 40
3.079655999999999
100
AcDbArc
 50
150.8500549999999
 51
209.149945
  0
LINE
  5
67
330
18
100
AcDbEntity
  8
0
100
AcDbLine
 10
74.4388
 20
144.2429999999999
 30
0.0
 11
71.92849999999999
 21
142.8979999999999
 31
0.0
  0
LINE
  5
68
330
18
100
AcDbEntity
  8
0
100
AcDbLine
 10
74.4388
 20
144.2429999999999
 30
0.0
 11
71.92849999999999
 21
145.587
 31
0.0
  0
LINE
  5
69
330
18
100
AcDbEntity
  8
0
100
AcDbLine
 10
78.03879999999999
 20
141.897
 30
0.0
 11
78.03879999999999
 21
161.7429999999999
 31
0.0
  0
LINE
  5
6A
330
18
100
AcDbEntity
  8
0
100
AcDbLine
 10
72.339
 20
140.9429999999999
 30
0.0
 11
77.3391
 21
140.9429999999999
 31
0.0
  0
ARC
  5
6B
330
18
100
AcDbEntity
  8
0
100
AcDbCircle
 10
77.010442
 20
141.917495
 30
0.0
 40
1.028566
100
AcDbArc
 50
288.634115
 51
358.8375839999999
  0
LINE
  5
6C
330
18
100
AcDbEntity
  8
0
100
AcDbLine
 10
71.63859999999999
 20
160.742
 30
0.0
 11
71.63859999999999
 21
161.7429999999999
 31
0.0
  0
LINE
  5
6D
330
18
100
AcDbEntity
  8
0
100
AcDbLine
 10
71.63859999999999
 20
155.742
 30
0.0
 11
71.63859999999999
 21
157.7429999999999
 31
0.0
  0
LINE
  5
6E
330
18
100
AcDbEntity
  8
0
100
AcDbLine
 10
71.63859999999999
 20
150.743
 30
0.0
 11
71.63859999999999
 21
152.743
 31
0.0
  0
LINE
  5
6F
330
18
100
AcDbEntity
  8
0
100
AcDbLine
 10
71.63859999999999
 20
145.743
 30
0.0
 11
71.63859999999999
 21
147.743
 31
0.0
  0
LINE
  5
70
330
18
100
AcDbEntity
  8
0
100
AcDbLine
 10
71.63859999999999
 20
141.897
 30
0.0
 11
71.63859999999999
 21
142.742
 31
0.0
  0
ARC
  5
71
330
18
100
AcDbEntity
  8
0
100
AcDbCircle
 10
72.66641199999999
 20
141.917312
 30
0.0
 40
1.027989999999999
100
AcDbArc
 50
181.152898
 51
251.4292419999999
  0
LINE
  5
72
330
18
100
AcDbEntity
  8
0
100
AcDbLine
 10
72.339
 20
135.9429999999999
 30
0.0
 11
72.339
 21
140.9429999999999
 31
0.0
  0
LINE
  5
73
330
18
100
AcDbEntity
  8
0
100
AcDbLine
 10
77.3391
 20
140.9439999999999
 30
0.0
 11
77.3391
 21
122.5419999999999
 31
0.0
  0
LINE
  5
74
330
18
100
AcDbEntity
  8
0
100
AcDbLine
 10
77.3391
 20
196.743
 30
0.0
 11
77.3391
 21
182.543
 31
0.0
  0
LINE
  5
75
330
18
100
AcDbEntity
  8
0
100
AcDbLine
 10
73.73909999999999
 20
195.9429999999999
 30
0.0
 11
61.5389
 21
195.9429999999999
 31
0.0
  0
LINE
  5
76
330
18
100
AcDbEntity
  8
0
100
AcDbLine
 10
73.73909999999999
 20
195.9429999999999
 30
0.0
 11
73.73909999999999
 21
187.543
 31
0.0
  0
LINE
  5
77
330
18
100
AcDbEntity
  8
0
100
AcDbLine
 10
61.5389
 20
185.243
 30
0.0
 11
59.3387
 21
185.243
 31
0.0
  0
LINE
  5
78
330
18
100
AcDbEntity
  8
0
100
AcDbLine
 10
61.5389
 20
198.2429999999999
 30
0.0
 11
59.3387
 21
198.2429999999999
 31
0.0
  0
LINE
  5
79
330
18
100
AcDbEntity
  8
0
100
AcDbLine
 10
61.5389
 20
198.2429999999999
 30
0.0
 11
61.5389
 21
185.243
 31
0.0
  0
LINE
  5
7A
330
18
100
AcDbEntity
  8
0
100
AcDbLine
 10
59.3387
 20
198.2429999999999
 30
0.0
 11
59.3387
 21
185.243
 31
0.0
  0
LINE
  5
7B
330
18
100
AcDbEntity
  8
0
100
AcDbLine
 10
73.73909999999999
 20
187.543
 30
0.0
 11
61.5389
 21
187.543
 31
0.0
  0
LINE
  5
7C
330
18
100
AcDbEntity
  8
0
100
AcDbLine
 10
72.339
 20
196.143
 30
0.0
 11
77.3391
 21
196.143
 31
0.0
  0
LINE
  5
7D
330
18
100
AcDbEntity
  8
0
100
AcDbLine
 10
72.339
 20
196.743
 30
0.0
 11
77.3391
 21
196.743
 31
0.0
  0
LINE
  5
7E
330
18
100
AcDbEntity
  8
0
100
AcDbLine
 10
72.339
 20
196.743
 30
0.0
 11
72.339
 21
195.9429999999999
 31
0.0
  0
LINE
  5
7F
330
18
100
AcDbEntity
  8
0
100
AcDbLine
 10
48.7333
 20
187.543
 30
0.0
 11
48.24110000000001
 21
188.7429999999999
 31
0.0
  0
LINE
  5
80
330
18
100
AcDbEntity
  8
0
100
AcDbLine
 10
49.5344
 20
187.543
 30
0.0
 11
49.0425
 21
188.7429999999999
 31
0.0
  0
LINE
  5
81
330
18
100
AcDbEntity
  8
0
100
AcDbLine
 10
50.3357
 20
187.543
 30
0.0
 11
49.8438
 21
188.7429999999999
 31
0.0
  0
LINE
  5
82
330
18
100
AcDbEntity
  8
0
100
AcDbLine
 10
51.1371
 20
187.543
 30
0.0
 11
50.6451
 21
188.7429999999999
 31
0.0
  0
LINE
  5
83
330
18
100
AcDbEntity
  8
0
100
AcDbLine
 10
51.9384
 20
187.543
 30
0.0
 11
51.4465
 21
188.7429999999999
 31
0.0
  0
LINE
  5
84
330
18
100
AcDbEntity
  8
0
100
AcDbLine
 10
52.7397
 20
187.543
 30
0.0
 11
52.24779999999999
 21
188.7429999999999
 31
0.0
  0
LINE
  5
85
330
18
100
AcDbEntity
  8
0
100
AcDbLine
 10
53.5411
 20
187.543
 30
0.0
 11
53.0491
 21
188.7429999999999
 31
0.0
  0
LINE
  5
86
330
18
100
AcDbEntity
  8
0
100
AcDbLine
 10
54.34239999999999
 20
187.543
 30
0.0
 11
53.8503
 21
188.7429999999999
 31
0.0
  0
LINE
  5
87
330
18
100
AcDbEntity
  8
0
100
AcDbLine
 10
55.1438
 20
187.543
 30
0.0
 11
54.6518
 21
188.7429999999999
 31
0.0
  0
LINE
  5
88
330
18
100
AcDbEntity
  8
0
100
AcDbLine
 10
55.9449
 20
187.543
 30
0.0
 11
55.45300000000001
 21
188.7429999999999
 31
0.0
  0
LINE
  5
89
330
18
100
AcDbEntity
  8
0
100
AcDbLine
 10
56.7464
 20
187.543
 30
0.0
 11
56.2545
 21
188.7429999999999
 31
0.0
  0
LINE
  5
8A
330
18
100
AcDbEntity
  8
0
100
AcDbLine
 10
57.5476
 20
187.543
 30
0.0
 11
57.0556
 21
188.7429999999999
 31
0.0
  0
LINE
  5
8B
330
18
100
AcDbEntity
  8
0
100
AcDbLine
 10
58.3491
 20
187.543
 30
0.0
 11
57.8571
 21
188.7429999999999
 31
0.0
  0
LINE
  5
8C
330
18
100
AcDbEntity
  8
0
100
AcDbLine
 10
47.3387
 20
188.1429999999999
 30
0.0
 11
48.2501
 21
188.4499999999999
 31
0.0
  0
LINE
  5
8D
330
18
100
AcDbEntity
  8
0
100
AcDbLine
 10
47.3387
 20
188.1429999999999
 30
0.0
 11
48.2501
 21
187.8359999999999
 31
0.0
  0
LINE
  5
8E
330
18
100
AcDbEntity
  8
0
100
AcDbLine
 10
59.3387
 20
188.4499999999999
 30
0.0
 11
48.2501
 21
188.4499999999999
 31
0.0
  0
LINE
  5
8F
330
18
100
AcDbEntity
  8
0
100
AcDbLine
 10
59.3387
 20
187.8359999999999
 30
0.0
 11
48.2501
 21
187.8359999999999
 31
0.0
  0
LINE
  5
90
330
18
100
AcDbEntity
  8
0
  6
AIGENLINE001
100
AcDbLine
 10
60.18899999999999
 20
188.1429999999999
 30
0.0
 11
46.5218
 21
188.1429999999999
 31
0.0
  0
LINE
  5
91
330
18
100
AcDbEntity
  8
0
100
AcDbLine
 10
59.1503
 20
187.543
 30
0.0
 11
58.65829999999999
 21
188.7429999999999
 31
0.0
  0
LINE
  5
92
330
18
100
AcDbEntity
  8
0
100
AcDbLine
 10
48.7333
 20
191.143
 30
0.0
 11
48.24110000000001
 21
192.3429999999999
 31
0.0
  0
LINE
  5
93
330
18
100
AcDbEntity
  8
0
100
AcDbLine
 10
49.5344
 20
191.143
 30
0.0
 11
49.0425
 21
192.3429999999999
 31
0.0
  0
LINE
  5
94
330
18
100
AcDbEntity
  8
0
100
AcDbLine
 10
50.3357
 20
191.143
 30
0.0
 11
49.8438
 21
192.3429999999999
 31
0.0
  0
LINE
  5
95
330
18
100
AcDbEntity
  8
0
100
AcDbLine
 10
51.1371
 20
191.143
 30
0.0
 11
50.6451
 21
192.3429999999999
 31
0.0
  0
LINE
  5
96
330
18
100
AcDbEntity
  8
0
100
AcDbLine
 10
51.9384
 20
191.143
 30
0.0
 11
51.4465
 21
192.3429999999999
 31
0.0
  0
LINE
  5
97
330
18
100
AcDbEntity
  8
0
100
AcDbLine
 10
52.7397
 20
191.143
 30
0.0
 11
52.24779999999999
 21
192.3429999999999
 31
0.0
  0
LINE
  5
98
330
18
100
AcDbEntity
  8
0
100
AcDbLine
 10
53.5411
 20
191.143
 30
0.0
 11
53.0491
 21
192.3429999999999
 31
0.0
  0
LINE
  5
99
330
18
100
AcDbEntity
  8
0
100
AcDbLine
 10
54.34239999999999
 20
191.143
 30
0.0
 11
53.8503
 21
192.3429999999999
 31
0.0
  0
LINE
  5
9A
330
18
100
AcDbEntity
  8
0
100
AcDbLine
 10
55.1438
 20
191.143
 30
0.0
 11
54.6518
 21
192.3429999999999
 31
0.0
  0
LINE
  5
9B
330
18
100
AcDbEntity
  8
0
100
AcDbLine
 10
55.9449
 20
191.143
 30
0.0
 11
55.45300000000001
 21
192.3429999999999
 31
0.0
  0
LINE
  5
9C
330
18
100
AcDbEntity
  8
0
100
AcDbLine
 10
56.7464
 20
191.143
 30
0.0
 11
56.2545
 21
192.3429999999999
 31
0.0
  0
LINE
  5
9D
330
18
100
AcDbEntity
  8
0
100
AcDbLine
 10
57.5476
 20
191.143
 30
0.0
 11
57.0556
 21
192.3429999999999
 31
0.0
  0
LINE
  5
9E
330
18
100
AcDbEntity
  8
0
100
AcDbLine
 10
58.3491
 20
191.143
 30
0.0
 11
57.8571
 21
192.3429999999999
 31
0.0
  0
LINE
  5
9F
330
18
100
AcDbEntity
  8
0
100
AcDbLine
 10
47.3387
 20
191.7429999999999
 30
0.0
 11
48.2501
 21
192.05
 31
0.0
  0
LINE
  5
A0
330
18
100
AcDbEntity
  8
0
100
AcDbLine
 10
47.3387
 20
191.7429999999999
 30
0.0
 11
48.2501
 21
191.4359999999999
 31
0.0
  0
LINE
  5
A1
330
18
100
AcDbEntity
  8
0
100
AcDbLine
 10
59.3387
 20
192.05
 30
0.0
 11
48.2501
 21
192.05
 31
0.0
  0
LINE
  5
A2
330
18
100
AcDbEntity
  8
0
100
AcDbLine
 10
59.3387
 20
191.4359999999999
 30
0.0
 11
48.2501
 21
191.4359999999999
 31
0.0
  0
LINE
  5
A3
330
18
100
AcDbEntity
  8
0
  6
AIGENLINE001
100
AcDbLine
 10
60.18899999999999
 20
191.7429999999999
 30
0.0
 11
46.5218
 21
191.7429999999999
 31
0.0
  0
LINE
  5
A4
330
18
100
AcDbEntity
  8
0
100
AcDbLine
 10
59.1503
 20
191.143
 30
0.0
 11
58.65829999999999
 21
192.3429999999999
 31
0.0
  0
LINE
  5
A5
330
18
100
AcDbEntity
  8
0
100
AcDbLine
 10
48.7333
 20
194.7429999999999
 30
0.0
 11
48.24110000000001
 21
195.9429999999999
 31
0.0
  0
LINE
  5
A6
330
18
100
AcDbEntity
  8
0
100
AcDbLine
 10
49.5344
 20
194.7429999999999
 30
0.0
 11
49.0425
 21
195.9429999999999
 31
0.0
  0
LINE
  5
A7
330
18
100
AcDbEntity
  8
0
100
AcDbLine
 10
50.3357
 20
194.7429999999999
 30
0.0
 11
49.8438
 21
195.9429999999999
 31
0.0
  0
LINE
  5
A8
330
18
100
AcDbEntity
  8
0
100
AcDbLine
 10
51.1371
 20
194.7429999999999
 30
0.0
 11
50.6451
 21
195.9429999999999
 31
0.0
  0
LINE
  5
A9
330
18
100
AcDbEntity
  8
0
100
AcDbLine
 10
51.9384
 20
194.7429999999999
 30
0.0
 11
51.4465
 21
195.9429999999999
 31
0.0
  0
LINE
  5
AA
330
18
100
AcDbEntity
  8
0
100
AcDbLine
 10
52.7397
 20
194.7429999999999
 30
0.0
 11
52.24779999999999
 21
195.9429999999999
 31
0.0
  0
LINE
  5
AB
330
18
100
AcDbEntity
  8
0
100
AcDbLine
 10
53.5411
 20
194.7429999999999
 30
0.0
 11
53.0491
 21
195.9429999999999
 31
0.0
  0
LINE
  5
AC
330
18
100
AcDbEntity
  8
0
100
AcDbLine
 10
54.34239999999999
 20
194.7429999999999
 30
0.0
 11
53.8503
 21
195.9429999999999
 31
0.0
  0
LINE
  5
AD
330
18
100
AcDbEntity
  8
0
100
AcDbLine
 10
55.1438
 20
194.7429999999999
 30
0.0
 11
54.6518
 21
195.9429999999999
 31
0.0
  0
LINE
  5
AE
330
18
100
AcDbEntity
  8
0
100
AcDbLine
 10
55.9449
 20
194.7429999999999
 30
0.0
 11
55.45300000000001
 21
195.9429999999999
 31
0.0
  0
LINE
  5
AF
330
18
100
AcDbEntity
  8
0
100
AcDbLine
 10
56.7464
 20
194.7429999999999
 30
0.0
 11
56.2545
 21
195.9429999999999
 31
0.0
  0
LINE
  5
B0
330
18
100
AcDbEntity
  8
0
100
AcDbLine
 10
57.5476
 20
194.7429999999999
 30
0.0
 11
57.0556
 21
195.9429999999999
 31
0.0
  0
LINE
  5
B1
330
18
100
AcDbEntity
  8
0
100
AcDbLine
 10
58.3491
 20
194.7429999999999
 30
0.0
 11
57.8571
 21
195.9429999999999
 31
0.0
  0
LINE
  5
B2
330
18
100
AcDbEntity
  8
0
100
AcDbLine
 10
47.3387
 20
195.3429999999999
 30
0.0
 11
48.2501
 21
195.65
 31
0.0
  0
LINE
  5
B3
330
18
100
AcDbEntity
  8
0
100
AcDbLine
 10
47.3387
 20
195.3429999999999
 30
0.0
 11
48.2501
 21
195.0359999999999
 31
0.0
  0
LINE
  5
B4
330
18
100
AcDbEntity
  8
0
100
AcDbLine
 10
59.3387
 20
195.65
 30
0.0
 11
48.2501
 21
195.65
 31
0.0
  0
LINE
  5
B5
330
18
100
AcDbEntity
  8
0
100
AcDbLine
 10
59.3387
 20
195.0359999999999
 30
0.0
 11
48.2501
 21
195.0359999999999
 31
0.0
  0
LINE
  5
B6
330
18
100
AcDbEntity
  8
0
  6
AIGENLINE001
100
AcDbLine
 10
60.18899999999999
 20
195.3429999999999
 30
0.0
 11
46.5218
 21
195.3429999999999
 31
0.0
  0
LINE
  5
B7
330
18
100
AcDbEntity
  8
0
100
AcDbLine
 10
59.1503
 20
194.7429999999999
 30
0.0
 11
58.65829999999999
 21
195.9429999999999
 31
0.0
  0
LINE
  5
B8
330
18
100
AcDbEntity
  8
0
  6
AIGENLINE001
100
AcDbLine
 10
124.797
 20
232.719
 30
0.0
 11
124.797
 21
211.315
 31
0.0
  0
LINE
  5
B9
330
18
100
AcDbEntity
  8
0
100
AcDbLine
 10
127.197
 20
228.9719999999999
 30
0.0
 11
127.197
 21
217.788
 31
0.0
  0
LINE
  5
BA
330
18
100
AcDbEntity
  8
0
100
AcDbLine
 10
122.397
 20
228.9719999999999
 30
0.0
 11
122.397
 21
217.788
 31
0.0
  0
ARC
  5
BB
330
18
100
AcDbEntity
  8
0
100
AcDbCircle
 10
124.796444
 20
215.671575
 30
0.0
 40
3.199997999999999
100
AcDbArc
 50
359.9969259999999
 51
89.99689599999999
  0
ARC
  5
BC
330
18
100
AcDbEntity
  8
0
100
AcDbCircle
 10
124.7967899999999
 20
215.671575
 30
0.0
 40
3.199997999999999
100
AcDbArc
 50
90.00308400000001
 51
180.003094
  0
ARC
  5
BD
330
18
100
AcDbEntity
  8
0
100
AcDbCircle
 10
124.7967019999999
 20
215.6713169999999
 30
0.0
 40
3.19991
100
AcDbArc
 50
179.9984279999999
 51
269.9984779999999
  0
ARC
  5
BE
330
18
100
AcDbEntity
  8
0
100
AcDbCircle
 10
124.79653
 20
215.671318
 30
0.0
 40
3.199911999999999
100
AcDbArc
 50
270.001562
 51
0.001532
  0
ARC
  5
BF
330
18
100
AcDbEntity
  8
0
100
AcDbCircle
 10
124.796444
 20
215.671575
 30
0.0
 40
2.49995
100
AcDbArc
 50
359.996062
 51
89.99603200000001
  0
ARC
  5
C0
330
18
100
AcDbEntity
  8
0
100
AcDbCircle
 10
124.7967899999999
 20
215.671575
 30
0.0
 40
2.49995
100
AcDbArc
 50
90.003948
 51
180.003958
  0
ARC
  5
C1
330
18
100
AcDbEntity
  8
0
100
AcDbCircle
 10
124.796703
 20
215.6713169999999
 30
0.0
 40
2.499862999999999
100
AcDbArc
 50
179.9979959999999
 51
269.9980459999999
  0
ARC
  5
C2
330
18
100
AcDbEntity
  8
0
100
AcDbCircle
 10
124.79653
 20
215.671318
 30
0.0
 40
2.499864
100
AcDbArc
 50
270.0019939999999
 51
0.001964
  0
LINE
  5
C3
330
18
100
AcDbEntity
  8
0
  6
AIGENLINE001
100
AcDbLine
 10
129.462
 20
215.6719999999999
 30
0.0
 11
120.147
 21
215.6719999999999
 31
0.0
  0
LINE
  5
C4
330
18
100
AcDbEntity
  8
0
100
AcDbLine
 10
120.1969999999999
 20
241.777
 30
0.0
 11
121.3969999999999
 21
242.27
 31
0.0
  0
LINE
  5
C5
330
18
100
AcDbEntity
  8
0
100
AcDbLine
 10
120.1969999999999
 20
240.9759999999999
 30
0.0
 11
121.3969999999999
 21
241.468
 31
0.0
  0
LINE
  5
C6
330
18
100
AcDbEntity
  8
0
100
AcDbLine
 10
120.1969999999999
 20
240.175
 30
0.0
 11
121.3969999999999
 21
240.667
 31
0.0
  0
LINE
  5
C7
330
18
100
AcDbEntity
  8
0
100
AcDbLine
 10
120.1969999999999
 20
239.374
 30
0.0
 11
121.3969999999999
 21
239.866
 31
0.0
  0
LINE
  5
C8
330
18
100
AcDbEntity
  8
0
100
AcDbLine
 10
120.1969999999999
 20
238.572
 30
0.0
 11
121.3969999999999
 21
239.064
 31
0.0
  0
LINE
  5
C9
330
18
100
AcDbEntity
  8
0
100
AcDbLine
 10
120.1969999999999
 20
237.7709999999999
 30
0.0
 11
121.3969999999999
 21
238.263
 31
0.0
  0
LINE
  5
CA
330
18
100
AcDbEntity
  8
0
100
AcDbLine
 10
120.1969999999999
 20
236.9699999999999
 30
0.0
 11
121.3969999999999
 21
237.462
 31
0.0
  0
LINE
  5
CB
330
18
100
AcDbEntity
  8
0
100
AcDbLine
 10
120.1969999999999
 20
236.168
 30
0.0
 11
121.3969999999999
 21
236.66
 31
0.0
  0
LINE
  5
CC
330
18
100
AcDbEntity
  8
0
100
AcDbLine
 10
120.1969999999999
 20
235.367
 30
0.0
 11
121.3969999999999
 21
235.8589999999999
 31
0.0
  0
LINE
  5
CD
330
18
100
AcDbEntity
  8
0
100
AcDbLine
 10
120.1969999999999
 20
234.5659999999999
 30
0.0
 11
121.3969999999999
 21
235.0579999999999
 31
0.0
  0
LINE
  5
CE
330
18
100
AcDbEntity
  8
0
100
AcDbLine
 10
120.1969999999999
 20
233.7639999999999
 30
0.0
 11
121.3969999999999
 21
234.2559999999999
 31
0.0
  0
LINE
  5
CF
330
18
100
AcDbEntity
  8
0
100
AcDbLine
 10
120.1969999999999
 20
232.9629999999999
 30
0.0
 11
121.3969999999999
 21
233.455
 31
0.0
  0
LINE
  5
D0
330
18
100
AcDbEntity
  8
0
100
AcDbLine
 10
120.1969999999999
 20
232.162
 30
0.0
 11
121.3969999999999
 21
232.654
 31
0.0
  0
LINE
  5
D1
330
18
100
AcDbEntity
  8
0
100
AcDbLine
 10
120.797
 20
243.1719999999999
 30
0.0
 11
121.103
 21
242.261
 31
0.0
  0
LINE
  5
D2
330
18
100
AcDbEntity
  8
0
100
AcDbLine
 10
120.797
 20
243.1719999999999
 30
0.0
 11
120.49
 21
242.261
 31
0.0
  0
LINE
  5
D3
330
18
100
AcDbEntity
  8
0
100
AcDbLine
 10
121.103
 20
231.172
 30
0.0
 11
121.103
 21
242.261
 31
0.0
  0
LINE
  5
D4
330
18
100
AcDbEntity
  8
0
100
AcDbLine
 10
120.49
 20
231.172
 30
0.0
 11
120.49
 21
242.261
 31
0.0
  0
LINE
  5
D5
330
18
100
AcDbEntity
  8
0
  6
AIGENLINE001
100
AcDbLine
 10
120.797
 20
230.322
 30
0.0
 11
120.797
 21
243.989
 31
0.0
  0
LINE
  5
D6
330
18
100
AcDbEntity
  8
0
100
AcDbLine
 10
120.1969999999999
 20
231.36
 30
0.0
 11
121.3969999999999
 21
231.8519999999999
 31
0.0
  0
LINE
  5
D7
330
18
100
AcDbEntity
  8
0
100
AcDbLine
 10
130.6969999999999
 20
231.172
 30
0.0
 11
130.6969999999999
 21
228.9719999999999
 31
0.0
  0
LINE
  5
D8
330
18
100
AcDbEntity
  8
0
100
AcDbLine
 10
118.897
 20
228.9719999999999
 30
0.0
 11
118.897
 21
231.172
 31
0.0
  0
LINE
  5
D9
330
18
100
AcDbEntity
  8
0
100
AcDbLine
 10
130.6969999999999
 20
228.9719999999999
 30
0.0
 11
118.897
 21
228.9719999999999
 31
0.0
  0
LINE
  5
DA
330
18
100
AcDbEntity
  8
0
100
AcDbLine
 10
130.6969999999999
 20
231.172
 30
0.0
 11
118.897
 21
231.172
 31
0.0
  0
LINE
  5
DB
330
18
100
AcDbEntity
  8
0
100
AcDbLine
 10
128.197
 20
241.777
 30
0.0
 11
129.397
 21
242.269
 31
0.0
  0
LINE
  5
DC
330
18
100
AcDbEntity
  8
0
100
AcDbLine
 10
128.197
 20
240.9759999999999
 30
0.0
 11
129.397
 21
241.468
 31
0.0
  0
LINE
  5
DD
330
18
100
AcDbEntity
  8
0
100
AcDbLine
 10
128.197
 20
240.175
 30
0.0
 11
129.397
 21
240.667
 31
0.0
  0
LINE
  5
DE
330
18
100
AcDbEntity
  8
0
100
AcDbLine
 10
128.197
 20
239.373
 30
0.0
 11
129.397
 21
239.8649999999999
 31
0.0
  0
LINE
  5
DF
330
18
100
AcDbEntity
  8
0
100
AcDbLine
 10
128.197
 20
238.572
 30
0.0
 11
129.397
 21
239.064
 31
0.0
  0
LINE
  5
E0
330
18
100
AcDbEntity
  8
0
100
AcDbLine
 10
128.197
 20
237.7709999999999
 30
0.0
 11
129.397
 21
238.263
 31
0.0
  0
LINE
  5
E1
330
18
100
AcDbEntity
  8
0
100
AcDbLine
 10
128.197
 20
236.969
 30
0.0
 11
129.397
 21
237.462
 31
0.0
  0
LINE
  5
E2
330
18
100
AcDbEntity
  8
0
100
AcDbLine
 10
128.197
 20
236.168
 30
0.0
 11
129.397
 21
236.66
 31
0.0
  0
LINE
  5
E3
330
18
100
AcDbEntity
  8
0
100
AcDbLine
 10
128.197
 20
235.367
 30
0.0
 11
129.397
 21
235.8589999999999
 31
0.0
  0
LINE
  5
E4
330
18
100
AcDbEntity
  8
0
100
AcDbLine
 10
128.197
 20
234.5659999999999
 30
0.0
 11
129.397
 21
235.0579999999999
 31
0.0
  0
LINE
  5
E5
330
18
100
AcDbEntity
  8
0
100
AcDbLine
 10
128.197
 20
233.7639999999999
 30
0.0
 11
129.397
 21
234.2559999999999
 31
0.0
  0
LINE
  5
E6
330
18
100
AcDbEntity
  8
0
100
AcDbLine
 10
128.197
 20
232.9629999999999
 30
0.0
 11
129.397
 21
233.455
 31
0.0
  0
LINE
  5
E7
330
18
100
AcDbEntity
  8
0
100
AcDbLine
 10
128.197
 20
232.162
 30
0.0
 11
129.397
 21
232.654
 31
0.0
  0
LINE
  5
E8
330
18
100
AcDbEntity
  8
0
100
AcDbLine
 10
128.7959999999999
 20
243.1719999999999
 30
0.0
 11
129.1039999999999
 21
242.26
 31
0.0
  0
LINE
  5
E9
330
18
100
AcDbEntity
  8
0
100
AcDbLine
 10
128.7959999999999
 20
243.1719999999999
 30
0.0
 11
128.49
 21
242.26
 31
0.0
  0
LINE
  5
EA
330
18
100
AcDbEntity
  8
0
100
AcDbLine
 10
129.1039999999999
 20
231.172
 30
0.0
 11
129.1039999999999
 21
242.26
 31
0.0
  0
LINE
  5
EB
330
18
100
AcDbEntity
  8
0
100
AcDbLine
 10
128.49
 20
231.172
 30
0.0
 11
128.49
 21
242.26
 31
0.0
  0
LINE
  5
EC
330
18
100
AcDbEntity
  8
0
  6
AIGENLINE001
100
AcDbLine
 10
128.7959999999999
 20
230.3209999999999
 30
0.0
 11
128.7959999999999
 21
243.989
 31
0.0
  0
LINE
  5
ED
330
18
100
AcDbEntity
  8
0
100
AcDbLine
 10
128.197
 20
231.36
 30
0.0
 11
129.397
 21
231.8519999999999
 31
0.0
  0
LINE
  5
EE
330
18
100
AcDbEntity
  8
0
100
AcDbLine
 10
148.234
 20
67.0113
 30
0.0
 11
148.7079999999999
 21
65.2419
 31
0.0
  0
LINE
  5
EF
330
18
100
AcDbEntity
  8
0
100
AcDbLine
 10
148.7079999999999
 20
65.2419
 30
0.0
 11
149.183
 21
67.0113
 31
0.0
  0
LINE
  5
F0
330
18
100
AcDbEntity
  8
0
100
AcDbLine
 10
149.183
 20
67.0113
 30
0.0
 11
148.234
 21
67.0113
 31
0.0
  0
LINE
  5
F1
330
18
100
AcDbEntity
  8
0
100
AcDbLine
 10
149.1709999999999
 20
196.474
 30
0.0
 11
148.697
 21
198.2429999999999
 31
0.0
  0
LINE
  5
F2
330
18
100
AcDbEntity
  8
0
100
AcDbLine
 10
148.697
 20
198.2429999999999
 30
0.0
 11
148.2229999999999
 21
196.474
 31
0.0
  0
LINE
  5
F3
330
18
100
AcDbEntity
  8
0
100
AcDbLine
 10
148.2229999999999
 20
196.474
 30
0.0
 11
149.1709999999999
 21
196.474
 31
0.0
  0
LINE
  5
F4
330
18
100
AcDbEntity
  8
0
100
AcDbLine
 10
148.697
 20
65.2419
 30
0.0
 11
148.697
 21
198.2429999999999
 31
0.0
  0
LINE
  5
F5
330
18
100
AcDbEntity
  8
0
100
AcDbLine
 10
131.257
 20
198.2429999999999
 30
0.0
 11
149.257
 21
198.2429999999999
 31
0.0
  0
LINE
  5
F6
330
18
100
AcDbEntity
  8
0
100
AcDbLine
 10
131.257
 20
65.2419
 30
0.0
 11
149.257
 21
65.2419
 31
0.0
  0
LINE
  5
F7
330
18
100
AcDbEntity
  8
0
100
AcDbLine
 10
139.7969999999999
 20
73.5112
 30
0.0
 11
140.271
 21
71.7425
 31
0.0
  0
LINE
  5
F8
330
18
100
AcDbEntity
  8
0
100
AcDbLine
 10
140.271
 20
71.7425
 30
0.0
 11
140.745
 21
73.5112
 31
0.0
  0
LINE
  5
F9
330
18
100
AcDbEntity
  8
0
100
AcDbLine
 10
140.745
 20
73.5112
 30
0.0
 11
139.7969999999999
 21
73.5112
 31
0.0
  0
LINE
  5
FA
330
18
100
AcDbEntity
  8
0
100
AcDbLine
 10
140.734
 20
189.974
 30
0.0
 11
140.2599999999999
 21
191.7429999999999
 31
0.0
  0
LINE
  5
FB
330
18
100
AcDbEntity
  8
0
100
AcDbLine
 10
140.2599999999999
 20
191.7429999999999
 30
0.0
 11
139.786
 21
189.974
 31
0.0
  0
LINE
  5
FC
330
18
100
AcDbEntity
  8
0
100
AcDbLine
 10
139.786
 20
189.974
 30
0.0
 11
140.734
 21
189.974
 31
0.0
  0
LINE
  5
FD
330
18
100
AcDbEntity
  8
0
100
AcDbLine
 10
140.2599999999999
 20
71.7425
 30
0.0
 11
140.2599999999999
 21
191.7429999999999
 31
0.0
  0
LINE
  5
FE
330
18
100
AcDbEntity
  8
0
100
AcDbLine
 10
130.0749999999999
 20
71.7425
 30
0.0
 11
140.8199999999999
 21
71.7425
 31
0.0
  0
LINE
  5
FF
330
18
100
AcDbEntity
  8
0
100
AcDbLine
 10
129.066
 20
139.894
 30
0.0
 11
127.296
 21
139.4199999999999
 31
0.0
  0
LINE
  5
100
330
18
100
AcDbEntity
  8
0
100
AcDbLine
 10
127.296
 20
139.4199999999999
 30
0.0
 11
129.066
 21
138.9459999999999
 31
0.0
  0
LINE
  5
101
330
18
100
AcDbEntity
  8
0
100
AcDbLine
 10
129.066
 20
138.9459999999999
 30
0.0
 11
129.066
 21
139.894
 31
0.0
  0
LINE
  5
102
330
18
100
AcDbEntity
  8
0
100
AcDbLine
 10
120.527
 20
138.9569999999999
 30
0.0
 11
122.297
 21
139.431
 31
0.0
  0
LINE
  5
103
330
18
100
AcDbEntity
  8
0
100
AcDbLine
 10
122.297
 20
139.431
 30
0.0
 11
120.527
 21
139.905
 31
0.0
  0
LINE
  5
104
330
18
100
AcDbEntity
  8
0
100
AcDbLine
 10
120.527
 20
139.905
 30
0.0
 11
120.527
 21
138.9569999999999
 31
0.0
  0
LINE
  5
105
330
18
100
AcDbEntity
  8
0
100
AcDbLine
 10
114.162
 20
139.4199999999999
 30
0.0
 11
130.875
 21
139.4199999999999
 31
0.0
  0
LINE
  5
106
330
18
100
AcDbEntity
  8
0
100
AcDbLine
 10
129.766
 20
106.387
 30
0.0
 11
127.996
 21
105.9129999999999
 31
0.0
  0
LINE
  5
107
330
18
100
AcDbEntity
  8
0
100
AcDbLine
 10
127.996
 20
105.9129999999999
 30
0.0
 11
129.766
 21
105.4389999999999
 31
0.0
  0
LINE
  5
108
330
18
100
AcDbEntity
  8
0
100
AcDbLine
 10
129.766
 20
105.4389999999999
 30
0.0
 11
129.766
 21
106.387
 31
0.0
  0
LINE
  5
109
330
18
100
AcDbEntity
  8
0
100
AcDbLine
 10
119.827
 20
105.451
 30
0.0
 11
121.597
 21
105.925
 31
0.0
  0
LINE
  5
10A
330
18
100
AcDbEntity
  8
0
100
AcDbLine
 10
121.597
 20
105.925
 30
0.0
 11
119.827
 21
106.3989999999999
 31
0.0
  0
LINE
  5
10B
330
18
100
AcDbEntity
  8
0
100
AcDbLine
 10
119.827
 20
106.3989999999999
 30
0.0
 11
119.827
 21
105.451
 31
0.0
  0
LINE
  5
10C
330
18
100
AcDbEntity
  8
0
100
AcDbLine
 10
113.182
 20
105.9129999999999
 30
0.0
 11
130.875
 21
105.9129999999999
 31
0.0
  0
LINE
  5
10D
330
18
100
AcDbEntity
  8
0
100
AcDbLine
 10
120.666
 20
52.3627
 30
0.0
 11
118.897
 21
51.8886
 31
0.0
  0
LINE
  5
10E
330
18
100
AcDbEntity
  8
0
100
AcDbLine
 10
118.897
 20
51.8886
 30
0.0
 11
120.666
 21
51.4146
 31
0.0
  0
LINE
  5
10F
330
18
100
AcDbEntity
  8
0
100
AcDbLine
 10
120.666
 20
51.4146
 30
0.0
 11
120.666
 21
52.3627
 31
0.0
  0
LINE
  5
110
330
18
100
AcDbEntity
  8
0
100
AcDbLine
 10
128.9279999999999
 20
51.4263
 30
0.0
 11
130.6969999999999
 21
51.9003
 31
0.0
  0
LINE
  5
111
330
18
100
AcDbEntity
  8
0
100
AcDbLine
 10
130.6969999999999
 20
51.9003
 30
0.0
 11
128.9279999999999
 21
52.3744
 31
0.0
  0
LINE
  5
112
330
18
100
AcDbEntity
  8
0
100
AcDbLine
 10
128.9279999999999
 20
52.3744
 30
0.0
 11
128.9279999999999
 21
51.4263
 31
0.0
  0
LINE
  5
113
330
18
100
AcDbEntity
  8
0
100
AcDbLine
 10
118.897
 20
51.8886
 30
0.0
 11
130.6969999999999
 21
51.8886
 31
0.0
  0
LINE
  5
114
330
18
100
AcDbEntity
  8
0
100
AcDbLine
 10
130.6969999999999
 20
65.0821
 30
0.0
 11
130.6969999999999
 21
51.3285
 31
0.0
  0
LINE
  5
115
330
18
100
AcDbEntity
  8
0
100
AcDbLine
 10
118.897
 20
65.0821
 30
0.0
 11
118.897
 21
51.3285
 31
0.0
  0
LINE
  5
116
330
18
100
AcDbEntity
  8
0
100
AcDbLine
 10
122.5659999999999
 20
58.5722
 30
0.0
 11
120.797
 21
58.0981
 31
0.0
  0
LINE
  5
117
330
18
100
AcDbEntity
  8
0
100
AcDbLine
 10
120.797
 20
58.0981
 30
0.0
 11
122.5659999999999
 21
57.6241
 31
0.0
  0
LINE
  5
118
330
18
100
AcDbEntity
  8
0
100
AcDbLine
 10
122.5659999999999
 20
57.6241
 30
0.0
 11
122.5659999999999
 21
58.5722
 31
0.0
  0
LINE
  5
119
330
18
100
AcDbEntity
  8
0
100
AcDbLine
 10
127.0279999999999
 20
57.63580000000001
 30
0.0
 11
128.7959999999999
 21
58.1098
 31
0.0
  0
LINE
  5
11A
330
18
100
AcDbEntity
  8
0
100
AcDbLine
 10
128.7959999999999
 20
58.1098
 30
0.0
 11
127.0279999999999
 21
58.58389999999999
 31
0.0
  0
LINE
  5
11B
330
18
100
AcDbEntity
  8
0
100
AcDbLine
 10
127.0279999999999
 20
58.58389999999999
 30
0.0
 11
127.0279999999999
 21
57.63580000000001
 31
0.0
  0
LINE
  5
11C
330
18
100
AcDbEntity
  8
0
100
AcDbLine
 10
120.797
 20
58.0981
 30
0.0
 11
128.7959999999999
 21
58.0981
 31
0.0
  0
LINE
  5
11D
330
18
100
AcDbEntity
  8
0
100
AcDbLine
 10
128.7959999999999
 20
70.46469999999999
 30
0.0
 11
128.7959999999999
 21
57.5383
 31
0.0
  0
LINE
  5
11E
330
18
100
AcDbEntity
  8
0
100
AcDbLine
 10
120.797
 20
66.8646
 30
0.0
 11
120.797
 21
57.5383
 31
0.0
  0
LINE
  5
11F
330
18
100
AcDbEntity
  8
0
100
AcDbLine
 10
107.097
 20
67.0113
 30
0.0
 11
107.5709999999999
 21
65.2419
 31
0.0
  0
LINE
  5
120
330
18
100
AcDbEntity
  8
0
100
AcDbLine
 10
107.5709999999999
 20
65.2419
 30
0.0
 11
108.045
 21
67.0113
 31
0.0
  0
LINE
  5
121
330
18
100
AcDbEntity
  8
0
100
AcDbLine
 10
108.045
 20
67.0113
 30
0.0
 11
107.097
 21
67.0113
 31
0.0
  0
LINE
  5
122
330
18
100
AcDbEntity
  8
0
100
AcDbLine
 10
108.0329999999999
 20
76.4733
 30
0.0
 11
107.559
 21
78.2424
 31
0.0
  0
LINE
  5
123
330
18
100
AcDbEntity
  8
0
100
AcDbLine
 10
107.559
 20
78.2424
 30
0.0
 11
107.0849999999999
 21
76.4733
 31
0.0
  0
LINE
  5
124
330
18
100
AcDbEntity
  8
0
100
AcDbLine
 10
107.0849999999999
 20
76.4733
 30
0.0
 11
108.0329999999999
 21
76.4733
 31
0.0
  0
LINE
  5
125
330
18
100
AcDbEntity
  8
0
100
AcDbLine
 10
107.559
 20
65.2419
 30
0.0
 11
107.559
 21
78.2424
 31
0.0
  0
LINE
  5
126
330
18
100
AcDbEntity
  8
0
100
AcDbLine
 10
118.737
 20
78.2424
 30
0.0
 11
107.0
 21
78.2424
 31
0.0
  0
LINE
  5
127
330
18
100
AcDbEntity
  8
0
100
AcDbLine
 10
118.737
 20
65.2419
 30
0.0
 11
107.0
 21
65.2419
 31
0.0
  0
LINE
  5
128
330
18
100
AcDbEntity
  8
0
100
AcDbLine
 10
113.0889999999999
 20
75.34229999999999
 30
0.0
 11
119.5189999999999
 21
75.34229999999999
 31
0.0
  0
LINE
  5
129
330
18
100
AcDbEntity
  8
0
100
AcDbLine
 10
113.0889999999999
 20
68.1417
 30
0.0
 11
119.5189999999999
 21
68.1417
 31
0.0
  0
LINE
  5
12A
330
18
100
AcDbEntity
  8
0
100
AcDbLine
 10
113.187
 20
69.9111
 30
0.0
 11
113.661
 21
68.1417
 31
0.0
  0
LINE
  5
12B
330
18
100
AcDbEntity
  8
0
100
AcDbLine
 10
113.661
 20
68.1417
 30
0.0
 11
114.135
 21
69.9111
 31
0.0
  0
LINE
  5
12C
330
18
100
AcDbEntity
  8
0
100
AcDbLine
 10
114.135
 20
69.9111
 30
0.0
 11
113.187
 21
69.9111
 31
0.0
  0
LINE
  5
12D
330
18
100
AcDbEntity
  8
0
100
AcDbLine
 10
114.1229999999999
 20
73.5729
 30
0.0
 11
113.649
 21
75.34229999999999
 31
0.0
  0
LINE
  5
12E
330
18
100
AcDbEntity
  8
0
100
AcDbLine
 10
113.649
 20
75.34229999999999
 30
0.0
 11
113.175
 21
73.5729
 31
0.0
  0
LINE
  5
12F
330
18
100
AcDbEntity
  8
0
100
AcDbLine
 10
113.175
 20
73.5729
 30
0.0
 11
114.1229999999999
 21
73.5729
 31
0.0
  0
LINE
  5
130
330
18
100
AcDbEntity
  8
0
100
AcDbLine
 10
113.649
 20
68.1417
 30
0.0
 11
113.649
 21
75.34229999999999
 31
0.0
  0
LINE
  5
131
330
18
100
AcDbEntity
  8
0
100
AcDbLine
 10
128.7959999999999
 20
132.4599999999999
 30
0.0
 11
128.7959999999999
 21
131.025
 31
0.0
  0
LINE
  5
132
330
18
100
AcDbEntity
  8
0
100
AcDbLine
 10
128.079
 20
131.742
 30
0.0
 11
129.514
 21
131.742
 31
0.0
  0
LINE
  5
133
330
18
100
AcDbEntity
  8
0
100
AcDbLine
 10
120.797
 20
128.86
 30
0.0
 11
120.797
 21
127.425
 31
0.0
  0
LINE
  5
134
330
18
100
AcDbEntity
  8
0
100
AcDbLine
 10
120.08
 20
128.1419999999999
 30
0.0
 11
121.5139999999999
 21
128.1419999999999
 31
0.0
  0
LINE
  5
135
330
18
100
AcDbEntity
  8
0
100
AcDbLine
 10
120.797
 20
136.06
 30
0.0
 11
120.797
 21
134.6249999999999
 31
0.0
  0
LINE
  5
136
330
18
100
AcDbEntity
  8
0
100
AcDbLine
 10
120.08
 20
135.3429999999999
 30
0.0
 11
121.5139999999999
 21
135.3429999999999
 31
0.0
  0
LINE
  5
137
330
18
100
AcDbEntity
  8
0
100
AcDbLine
 10
130.6969999999999
 20
137.842
 30
0.0
 11
130.6969999999999
 21
125.642
 31
0.0
  0
LINE
  5
138
330
18
100
AcDbEntity
  8
0
100
AcDbLine
 10
127.296
 20
138.243
 30
0.0
 11
130.2969999999999
 21
138.243
 31
0.0
  0
LINE
  5
139
330
18
100
AcDbEntity
  8
0
100
AcDbLine
 10
119.297
 20
138.243
 30
0.0
 11
122.297
 21
138.243
 31
0.0
  0
ARC
  5
13A
330
18
100
AcDbEntity
  8
0
100
AcDbCircle
 10
130.2814159999999
 20
137.827277
 30
0.0
 40
0.4155840000000001
100
AcDbArc
 50
2.087501
 51
87.83844700000001
  0
LINE
  5
13B
330
18
100
AcDbEntity
  8
0
100
AcDbLine
 10
127.296
 20
125.242
 30
0.0
 11
130.2969999999999
 21
125.242
 31
0.0
  0
LINE
  5
13C
330
18
100
AcDbEntity
  8
0
100
AcDbLine
 10
119.297
 20
125.242
 30
0.0
 11
122.297
 21
125.242
 31
0.0
  0
ARC
  5
13D
330
18
100
AcDbEntity
  8
0
100
AcDbCircle
 10
130.281935
 20
125.657192
 30
0.0
 40
0.415054
100
AcDbArc
 50
272.092734
 51
357.9566479999999
  0
LINE
  5
13E
330
18
100
AcDbEntity
  8
0
100
AcDbLine
 10
118.897
 20
137.842
 30
0.0
 11
118.897
 21
125.642
 31
0.0
  0
ARC
  5
13F
330
18
100
AcDbEntity
  8
0
100
AcDbCircle
 10
119.311673
 20
125.6575919999999
 30
0.0
 40
0.415442
100
AcDbArc
 50
182.096676
 51
267.9526829999999
  0
ARC
  5
140
330
18
100
AcDbEntity
  8
0
100
AcDbCircle
 10
119.3119929999999
 20
137.827074
 30
0.0
 40
0.415767
100
AcDbArc
 50
92.08985300000001
 51
177.8854579999999
  0
LINE
  5
141
330
18
100
AcDbEntity
  8
0
100
AcDbLine
 10
128.7959999999999
 20
71.02450000000001
 30
0.0
 11
128.7959999999999
 21
72.4594
 31
0.0
  0
LINE
  5
142
330
18
100
AcDbEntity
  8
0
100
AcDbLine
 10
128.079
 20
71.7425
 30
0.0
 11
129.514
 21
71.7425
 31
0.0
  0
LINE
  5
143
330
18
100
AcDbEntity
  8
0
100
AcDbLine
 10
120.797
 20
74.6254
 30
0.0
 11
120.797
 21
76.0596
 31
0.0
  0
LINE
  5
144
330
18
100
AcDbEntity
  8
0
100
AcDbLine
 10
120.08
 20
75.34229999999999
 30
0.0
 11
121.5139999999999
 21
75.34229999999999
 31
0.0
  0
LINE
  5
145
330
18
100
AcDbEntity
  8
0
100
AcDbLine
 10
120.797
 20
67.4247
 30
0.0
 11
120.797
 21
68.8596
 31
0.0
  0
LINE
  5
146
330
18
100
AcDbEntity
  8
0
100
AcDbLine
 10
120.08
 20
68.1417
 30
0.0
 11
121.5139999999999
 21
68.1417
 31
0.0
  0
LINE
  5
147
330
18
100
AcDbEntity
  8
0
100
AcDbLine
 10
130.6969999999999
 20
65.6419
 30
0.0
 11
130.6969999999999
 21
77.8421
 31
0.0
  0
LINE
  5
148
330
18
100
AcDbEntity
  8
0
100
AcDbLine
 10
119.297
 20
65.2419
 30
0.0
 11
130.2969999999999
 21
65.2419
 31
0.0
  0
ARC
  5
149
330
18
100
AcDbEntity
  8
0
100
AcDbCircle
 10
130.281954
 20
65.656666
 30
0.0
 40
0.415034
100
AcDbArc
 50
272.090106
 51
357.9592749999999
  0
LINE
  5
14A
330
18
100
AcDbEntity
  8
0
100
AcDbLine
 10
127.296
 20
78.2424
 30
0.0
 11
130.2969999999999
 21
78.2424
 31
0.0
  0
LINE
  5
14B
330
18
100
AcDbEntity
  8
0
100
AcDbLine
 10
119.297
 20
78.2424
 30
0.0
 11
122.297
 21
78.2424
 31
0.0
  0
ARC
  5
14C
330
18
100
AcDbEntity
  8
0
100
AcDbCircle
 10
130.2812499999999
 20
77.82695499999999
 30
0.0
 40
0.41575
100
AcDbArc
 50
2.084934
 51
87.816355
  0
LINE
  5
14D
330
18
100
AcDbEntity
  8
0
100
AcDbLine
 10
118.897
 20
65.6419
 30
0.0
 11
118.897
 21
77.8421
 31
0.0
  0
ARC
  5
14E
330
18
100
AcDbEntity
  8
0
100
AcDbCircle
 10
119.312138
 20
77.826774
 30
0.0
 40
0.415911
100
AcDbArc
 50
92.10908799999998
 51
177.890882
  0
ARC
  5
14F
330
18
100
AcDbEntity
  8
0
100
AcDbCircle
 10
119.3116779999999
 20
65.65709
 30
0.0
 40
0.415448
100
AcDbArc
 50
182.0973479999999
 51
267.9520109999999
  0
LINE
  5
150
330
18
100
AcDbEntity
  8
0
100
AcDbLine
 10
122.297
 20
122.5419999999999
 30
0.0
 11
127.296
 21
122.5419999999999
 31
0.0
  0
ARC
  5
151
330
18
100
AcDbEntity
  8
0
100
AcDbCircle
 10
126.9678269999999
 20
121.5675309999999
 30
0.0
 40
1.028821999999999
100
AcDbArc
 50
1.149962
 51
71.37563799999999
  0
ARC
  5
152
330
18
100
AcDbEntity
  8
0
100
AcDbCircle
 10
122.623908
 20
121.568631
 30
0.0
 40
1.027301999999999
100
AcDbArc
 50
108.564727
 51
178.909633
  0
LINE
  5
153
330
18
100
AcDbEntity
  8
0
100
AcDbLine
 10
122.297
 20
140.9429999999999
 30
0.0
 11
122.297
 21
122.543
 31
0.0
  0
LINE
  5
154
330
18
100
AcDbEntity
  8
0
100
AcDbLine
 10
127.296
 20
140.9429999999999
 30
0.0
 11
127.296
 21
122.5419999999999
 31
0.0
  0
LINE
  5
155
330
18
100
AcDbEntity
  8
0
100
AcDbLine
 10
127.996
 20
81.89629999999999
 30
0.0
 11
127.996
 21
121.588
 31
0.0
  0
LINE
  5
156
330
18
100
AcDbEntity
  8
0
100
AcDbLine
 10
122.297
 20
80.94230000000001
 30
0.0
 11
127.296
 21
80.94230000000001
 31
0.0
  0
ARC
  5
157
330
18
100
AcDbEntity
  8
0
100
AcDbCircle
 10
126.968685
 20
81.916664
 30
0.0
 40
1.027957999999999
100
AcDbArc
 50
288.590107
 51
358.864559
  0
LINE
  5
158
330
18
100
AcDbEntity
  8
0
100
AcDbLine
 10
121.597
 20
81.89629999999999
 30
0.0
 11
121.597
 21
121.588
 31
0.0
  0
ARC
  5
159
330
18
100
AcDbEntity
  8
0
100
AcDbCircle
 10
122.624933
 20
81.91694599999999
 30
0.0
 40
1.028348
100
AcDbArc
 50
181.150754
 51
251.39462
  0
LINE
  5
15A
330
18
100
AcDbEntity
  8
0
100
AcDbLine
 10
122.297
 20
67.3421
 30
0.0
 11
127.296
 21
67.3421
 31
0.0
  0
LINE
  5
15B
330
18
100
AcDbEntity
  8
0
100
AcDbLine
 10
122.297
 20
66.7423
 30
0.0
 11
127.296
 21
66.7423
 31
0.0
  0
LINE
  5
15C
330
18
100
AcDbEntity
  8
0
100
AcDbLine
 10
122.297
 20
66.7423
 30
0.0
 11
122.297
 21
80.94230000000001
 31
0.0
  0
LINE
  5
15D
330
18
100
AcDbEntity
  8
0
100
AcDbLine
 10
127.296
 20
66.7423
 30
0.0
 11
127.296
 21
80.94269999999999
 31
0.0
  0
LINE
  5
15E
330
18
100
AcDbEntity
  8
0
100
AcDbLine
 10
88.01
 20
196.743
 30
0.0
 11
77.8991
 21
196.743
 31
0.0
  0
LINE
  5
15F
330
18
100
AcDbEntity
  8
0
100
AcDbLine
 10
88.01
 20
66.7423
 30
0.0
 11
77.8991
 21
66.7423
 31
0.0
  0
LINE
  5
160
330
18
100
AcDbEntity
  8
0
100
AcDbLine
 10
86.9875
 20
68.5117
 30
0.0
 11
87.4615
 21
66.7423
 31
0.0
  0
LINE
  5
161
330
18
100
AcDbEntity
  8
0
100
AcDbLine
 10
87.4615
 20
66.7423
 30
0.0
 11
87.93559999999999
 21
68.5117
 31
0.0
  0
LINE
  5
162
330
18
100
AcDbEntity
  8
0
100
AcDbLine
 10
87.93559999999999
 20
68.5117
 30
0.0
 11
86.9875
 21
68.5117
 31
0.0
  0
LINE
  5
163
330
18
100
AcDbEntity
  8
0
100
AcDbLine
 10
87.92399999999998
 20
194.974
 30
0.0
 11
87.45
 21
196.743
 31
0.0
  0
LINE
  5
164
330
18
100
AcDbEntity
  8
0
100
AcDbLine
 10
87.45
 20
196.743
 30
0.0
 11
86.97589999999999
 21
194.974
 31
0.0
  0
LINE
  5
165
330
18
100
AcDbEntity
  8
0
100
AcDbLine
 10
86.97589999999999
 20
194.974
 30
0.0
 11
87.92399999999998
 21
194.974
 31
0.0
  0
LINE
  5
166
330
18
100
AcDbEntity
  8
0
100
AcDbLine
 10
87.45
 20
66.7423
 30
0.0
 11
87.45
 21
196.743
 31
0.0
  0
LINE
  5
167
330
18
100
AcDbEntity
  8
0
100
AcDbLine
 10
77.3391
 20
66.18210000000001
 30
0.0
 11
77.3391
 21
58.6028
 31
0.0
  0
LINE
  5
168
330
18
100
AcDbEntity
  8
0
100
AcDbLine
 10
75.56969999999999
 20
58.7007
 30
0.0
 11
77.3387
 21
59.1747
 31
0.0
  0
LINE
  5
169
330
18
100
AcDbEntity
  8
0
100
AcDbLine
 10
77.3387
 20
59.1747
 30
0.0
 11
75.56969999999999
 21
59.6488
 31
0.0
  0
LINE
  5
16A
330
18
100
AcDbEntity
  8
0
100
AcDbLine
 10
75.56969999999999
 20
59.6488
 30
0.0
 11
75.56969999999999
 21
58.7007
 31
0.0
  0
LINE
  5
16B
330
18
100
AcDbEntity
  8
0
100
AcDbLine
 10
61.1079
 20
59.637
 30
0.0
 11
59.3387
 21
59.163
 31
0.0
  0
LINE
  5
16C
330
18
100
AcDbEntity
  8
0
100
AcDbLine
 10
59.3387
 20
59.163
 30
0.0
 11
61.1079
 21
58.689
 31
0.0
  0
LINE
  5
16D
330
18
100
AcDbEntity
  8
0
100
AcDbLine
 10
61.1079
 20
58.689
 30
0.0
 11
61.1079
 21
59.637
 31
0.0
  0
LINE
  5
16E
330
18
100
AcDbEntity
  8
0
100
AcDbLine
 10
77.3387
 20
59.163
 30
0.0
 11
59.3387
 21
59.163
 31
0.0
  0
LINE
  5
16F
330
18
100
AcDbEntity
  8
0
100
AcDbLine
 10
59.3387
 20
64.6817
 30
0.0
 11
59.3387
 21
58.6028
 31
0.0
  0
ARC
  5
170
330
18
100
AcDbEntity
  8
0
100
AcDbCircle
 10
74.32737799999999
 20
104.241877
 30
0.0
 40
3.078625999999999
100
AcDbArc
 50
150.838281
 51
209.148558
  0
LINE
  5
171
330
18
100
AcDbEntity
  8
0
100
AcDbLine
 10
74.4388
 20
104.242
 30
0.0
 11
71.92849999999999
 21
105.587
 31
0.0
  0
LINE
  5
172
330
18
100
AcDbEntity
  8
0
100
AcDbLine
 10
74.4388
 20
104.242
 30
0.0
 11
71.92849999999999
 21
102.897
 31
0.0
  0
ARC
  5
173
330
18
100
AcDbEntity
  8
0
100
AcDbCircle
 10
74.328001
 20
109.241776
 30
0.0
 40
3.079337999999999
100
AcDbArc
 50
150.838332
 51
209.14851
  0
LINE
  5
174
330
18
100
AcDbEntity
  8
0
100
AcDbLine
 10
74.4388
 20
109.242
 30
0.0
 11
71.92849999999999
 21
110.587
 31
0.0
  0
LINE
  5
175
330
18
100
AcDbEntity
  8
0
100
AcDbLine
 10
74.4388
 20
109.242
 30
0.0
 11
71.92849999999999
 21
107.8969999999999
 31
0.0
  0
ARC
  5
176
330
18
100
AcDbEntity
  8
0
100
AcDbCircle
 10
74.328001
 20
114.2420189999999
 30
0.0
 40
3.079337999999999
100
AcDbArc
 50
150.838332
 51
209.14851
  0
LINE
  5
177
330
18
100
AcDbEntity
  8
0
100
AcDbLine
 10
74.4388
 20
114.2419999999999
 30
0.0
 11
71.92849999999999
 21
115.5869999999999
 31
0.0
  0
LINE
  5
178
330
18
100
AcDbEntity
  8
0
100
AcDbLine
 10
74.4388
 20
114.2419999999999
 30
0.0
 11
71.92849999999999
 21
112.898
 31
0.0
  0
ARC
  5
179
330
18
100
AcDbEntity
  8
0
100
AcDbCircle
 10
74.329255
 20
119.242262
 30
0.0
 40
3.080433
100
AcDbArc
 50
150.8496969999999
 51
209.137145
  0
LINE
  5
17A
330
18
100
AcDbEntity
  8
0
100
AcDbLine
 10
74.4388
 20
119.242
 30
0.0
 11
71.92849999999999
 21
120.5869999999999
 31
0.0
  0
LINE
  5
17B
330
18
100
AcDbEntity
  8
0
100
AcDbLine
 10
74.4388
 20
119.242
 30
0.0
 11
71.92849999999999
 21
117.8979999999999
 31
0.0
  0
LINE
  5
17C
330
18
100
AcDbEntity
  8
0
100
AcDbLine
 10
78.03879999999999
 20
121.588
 30
0.0
 11
78.03879999999999
 21
101.743
 31
0.0
  0
LINE
  5
17D
330
18
100
AcDbEntity
  8
0
100
AcDbLine
 10
72.339
 20
122.5419999999999
 30
0.0
 11
77.3391
 21
122.5419999999999
 31
0.0
  0
ARC
  5
17E
330
18
100
AcDbEntity
  8
0
100
AcDbCircle
 10
77.01004499999999
 20
121.5675499999999
 30
0.0
 40
1.028958
100
AcDbArc
 50
1.148778
 51
71.34992099999999
  0
LINE
  5
17F
330
18
100
AcDbEntity
  8
0
100
AcDbLine
 10
71.63859999999999
 20
102.7419999999999
 30
0.0
 11
71.63859999999999
 21
101.743
 31
0.0
  0
LINE
  5
180
330
18
100
AcDbEntity
  8
0
100
AcDbLine
 10
71.63859999999999
 20
107.7429999999999
 30
0.0
 11
71.63859999999999
 21
105.742
 31
0.0
  0
LINE
  5
181
330
18
100
AcDbEntity
  8
0
100
AcDbLine
 10
71.63859999999999
 20
112.742
 30
0.0
 11
71.63859999999999
 21
110.742
 31
0.0
  0
LINE
  5
182
330
18
100
AcDbEntity
  8
0
100
AcDbLine
 10
71.63859999999999
 20
117.742
 30
0.0
 11
71.63859999999999
 21
115.742
 31
0.0
  0
LINE
  5
183
330
18
100
AcDbEntity
  8
0
100
AcDbLine
 10
71.63859999999999
 20
121.588
 30
0.0
 11
71.63859999999999
 21
120.743
 31
0.0
  0
ARC
  5
184
330
18
100
AcDbEntity
  8
0
100
AcDbCircle
 10
72.666228
 20
121.568159
 30
0.0
 40
1.027792999999999
100
AcDbArc
 50
108.563632
 51
178.883838
  0
LINE
  5
185
330
18
100
AcDbEntity
  8
0
100
AcDbLine
 10
73.73909999999999
 20
135.942
 30
0.0
 11
61.5389
 21
135.942
 31
0.0
  0
LINE
  5
186
330
18
100
AcDbEntity
  8
0
100
AcDbLine
 10
73.73909999999999
 20
135.9429999999999
 30
0.0
 11
73.73909999999999
 21
127.5429999999999
 31
0.0
  0
LINE
  5
187
330
18
100
AcDbEntity
  8
0
100
AcDbLine
 10
61.5389
 20
125.242
 30
0.0
 11
59.3387
 21
125.242
 31
0.0
  0
LINE
  5
188
330
18
100
AcDbEntity
  8
0
100
AcDbLine
 10
61.5389
 20
138.243
 30
0.0
 11
59.3387
 21
138.243
 31
0.0
  0
LINE
  5
189
330
18
100
AcDbEntity
  8
0
100
AcDbLine
 10
61.5389
 20
138.243
 30
0.0
 11
61.5389
 21
125.242
 31
0.0
  0
LINE
  5
18A
330
18
100
AcDbEntity
  8
0
100
AcDbLine
 10
59.3387
 20
138.243
 30
0.0
 11
59.3387
 21
125.242
 31
0.0
  0
LINE
  5
18B
330
18
100
AcDbEntity
  8
0
100
AcDbLine
 10
73.73909999999999
 20
127.5429999999999
 30
0.0
 11
61.5389
 21
127.5429999999999
 31
0.0
  0
LINE
  5
18C
330
18
100
AcDbEntity
  8
0
100
AcDbLine
 10
72.339
 20
127.5429999999999
 30
0.0
 11
72.339
 21
122.5419999999999
 31
0.0
  0
LINE
  5
18D
330
18
100
AcDbEntity
  8
0
100
AcDbLine
 10
48.7333
 20
127.5429999999999
 30
0.0
 11
48.24110000000001
 21
128.742
 31
0.0
  0
LINE
  5
18E
330
18
100
AcDbEntity
  8
0
100
AcDbLine
 10
49.5344
 20
127.5429999999999
 30
0.0
 11
49.0425
 21
128.742
 31
0.0
  0
LINE
  5
18F
330
18
100
AcDbEntity
  8
0
100
AcDbLine
 10
50.3357
 20
127.5429999999999
 30
0.0
 11
49.8438
 21
128.742
 31
0.0
  0
LINE
  5
190
330
18
100
AcDbEntity
  8
0
100
AcDbLine
 10
51.1371
 20
127.5429999999999
 30
0.0
 11
50.6451
 21
128.742
 31
0.0
  0
LINE
  5
191
330
18
100
AcDbEntity
  8
0
100
AcDbLine
 10
51.9384
 20
127.5429999999999
 30
0.0
 11
51.4465
 21
128.742
 31
0.0
  0
LINE
  5
192
330
18
100
AcDbEntity
  8
0
100
AcDbLine
 10
52.7397
 20
127.5429999999999
 30
0.0
 11
52.24779999999999
 21
128.742
 31
0.0
  0
LINE
  5
193
330
18
100
AcDbEntity
  8
0
100
AcDbLine
 10
53.5411
 20
127.5429999999999
 30
0.0
 11
53.0491
 21
128.742
 31
0.0
  0
LINE
  5
194
330
18
100
AcDbEntity
  8
0
100
AcDbLine
 10
54.34239999999999
 20
127.5429999999999
 30
0.0
 11
53.8503
 21
128.742
 31
0.0
  0
LINE
  5
195
330
18
100
AcDbEntity
  8
0
100
AcDbLine
 10
55.1438
 20
127.5429999999999
 30
0.0
 11
54.6518
 21
128.742
 31
0.0
  0
LINE
  5
196
330
18
100
AcDbEntity
  8
0
100
AcDbLine
 10
55.9449
 20
127.5429999999999
 30
0.0
 11
55.45300000000001
 21
128.742
 31
0.0
  0
LINE
  5
197
330
18
100
AcDbEntity
  8
0
100
AcDbLine
 10
56.7464
 20
127.5429999999999
 30
0.0
 11
56.2545
 21
128.742
 31
0.0
  0
LINE
  5
198
330
18
100
AcDbEntity
  8
0
100
AcDbLine
 10
57.5476
 20
127.5429999999999
 30
0.0
 11
57.0556
 21
128.742
 31
0.0
  0
LINE
  5
199
330
18
100
AcDbEntity
  8
0
100
AcDbLine
 10
58.3491
 20
127.5429999999999
 30
0.0
 11
57.8571
 21
128.742
 31
0.0
  0
LINE
  5
19A
330
18
100
AcDbEntity
  8
0
100
AcDbLine
 10
47.3387
 20
128.143
 30
0.0
 11
48.2501
 21
128.4489999999999
 31
0.0
  0
LINE
  5
19B
330
18
100
AcDbEntity
  8
0
100
AcDbLine
 10
47.3387
 20
128.143
 30
0.0
 11
48.2501
 21
127.8359999999999
 31
0.0
  0
LINE
  5
19C
330
18
100
AcDbEntity
  8
0
100
AcDbLine
 10
59.3387
 20
128.4489999999999
 30
0.0
 11
48.2501
 21
128.4489999999999
 31
0.0
  0
LINE
  5
19D
330
18
100
AcDbEntity
  8
0
100
AcDbLine
 10
59.3387
 20
127.8359999999999
 30
0.0
 11
48.2501
 21
127.8359999999999
 31
0.0
  0
LINE
  5
19E
330
18
100
AcDbEntity
  8
0
  6
AIGENLINE001
100
AcDbLine
 10
60.18899999999999
 20
128.143
 30
0.0
 11
46.5218
 21
128.143
 31
0.0
  0
LINE
  5
19F
330
18
100
AcDbEntity
  8
0
100
AcDbLine
 10
59.1503
 20
127.5429999999999
 30
0.0
 11
58.65829999999999
 21
128.742
 31
0.0
  0
LINE
  5
1A0
330
18
100
AcDbEntity
  8
0
100
AcDbLine
 10
48.7333
 20
131.142
 30
0.0
 11
48.24110000000001
 21
132.342
 31
0.0
  0
LINE
  5
1A1
330
18
100
AcDbEntity
  8
0
100
AcDbLine
 10
49.5344
 20
131.142
 30
0.0
 11
49.0425
 21
132.342
 31
0.0
  0
LINE
  5
1A2
330
18
100
AcDbEntity
  8
0
100
AcDbLine
 10
50.3357
 20
131.142
 30
0.0
 11
49.8438
 21
132.342
 31
0.0
  0
LINE
  5
1A3
330
18
100
AcDbEntity
  8
0
100
AcDbLine
 10
51.1371
 20
131.142
 30
0.0
 11
50.6451
 21
132.342
 31
0.0
  0
LINE
  5
1A4
330
18
100
AcDbEntity
  8
0
100
AcDbLine
 10
51.9384
 20
131.142
 30
0.0
 11
51.4465
 21
132.342
 31
0.0
  0
LINE
  5
1A5
330
18
100
AcDbEntity
  8
0
100
AcDbLine
 10
52.7397
 20
131.142
 30
0.0
 11
52.24779999999999
 21
132.342
 31
0.0
  0
LINE
  5
1A6
330
18
100
AcDbEntity
  8
0
100
AcDbLine
 10
53.5411
 20
131.142
 30
0.0
 11
53.0491
 21
132.342
 31
0.0
  0
LINE
  5
1A7
330
18
100
AcDbEntity
  8
0
100
AcDbLine
 10
54.34239999999999
 20
131.142
 30
0.0
 11
53.8503
 21
132.342
 31
0.0
  0
LINE
  5
1A8
330
18
100
AcDbEntity
  8
0
100
AcDbLine
 10
55.1438
 20
131.142
 30
0.0
 11
54.6518
 21
132.342
 31
0.0
  0
LINE
  5
1A9
330
18
100
AcDbEntity
  8
0
100
AcDbLine
 10
55.9449
 20
131.142
 30
0.0
 11
55.45300000000001
 21
132.342
 31
0.0
  0
LINE
  5
1AA
330
18
100
AcDbEntity
  8
0
100
AcDbLine
 10
56.7464
 20
131.142
 30
0.0
 11
56.2545
 21
132.342
 31
0.0
  0
LINE
  5
1AB
330
18
100
AcDbEntity
  8
0
100
AcDbLine
 10
57.5476
 20
131.142
 30
0.0
 11
57.0556
 21
132.342
 31
0.0
  0
LINE
  5
1AC
330
18
100
AcDbEntity
  8
0
100
AcDbLine
 10
58.3491
 20
131.142
 30
0.0
 11
57.8571
 21
132.342
 31
0.0
  0
LINE
  5
1AD
330
18
100
AcDbEntity
  8
0
100
AcDbLine
 10
47.3387
 20
131.7429999999999
 30
0.0
 11
48.2501
 21
132.049
 31
0.0
  0
LINE
  5
1AE
330
18
100
AcDbEntity
  8
0
100
AcDbLine
 10
47.3387
 20
131.7429999999999
 30
0.0
 11
48.2501
 21
131.436
 31
0.0
  0
LINE
  5
1AF
330
18
100
AcDbEntity
  8
0
100
AcDbLine
 10
59.3387
 20
132.049
 30
0.0
 11
48.2501
 21
132.049
 31
0.0
  0
LINE
  5
1B0
330
18
100
AcDbEntity
  8
0
100
AcDbLine
 10
59.3387
 20
131.436
 30
0.0
 11
48.2501
 21
131.436
 31
0.0
  0
LINE
  5
1B1
330
18
100
AcDbEntity
  8
0
  6
AIGENLINE001
100
AcDbLine
 10
60.18899999999999
 20
131.7429999999999
 30
0.0
 11
46.5218
 21
131.7429999999999
 31
0.0
  0
LINE
  5
1B2
330
18
100
AcDbEntity
  8
0
100
AcDbLine
 10
59.1503
 20
131.142
 30
0.0
 11
58.65829999999999
 21
132.342
 31
0.0
  0
LINE
  5
1B3
330
18
100
AcDbEntity
  8
0
100
AcDbLine
 10
48.7333
 20
134.742
 30
0.0
 11
48.24110000000001
 21
135.942
 31
0.0
  0
LINE
  5
1B4
330
18
100
AcDbEntity
  8
0
100
AcDbLine
 10
49.5344
 20
134.742
 30
0.0
 11
49.0425
 21
135.942
 31
0.0
  0
LINE
  5
1B5
330
18
100
AcDbEntity
  8
0
100
AcDbLine
 10
50.3357
 20
134.742
 30
0.0
 11
49.8438
 21
135.942
 31
0.0
  0
LINE
  5
1B6
330
18
100
AcDbEntity
  8
0
100
AcDbLine
 10
51.1371
 20
134.742
 30
0.0
 11
50.6451
 21
135.942
 31
0.0
  0
LINE
  5
1B7
330
18
100
AcDbEntity
  8
0
100
AcDbLine
 10
51.9384
 20
134.742
 30
0.0
 11
51.4465
 21
135.942
 31
0.0
  0
LINE
  5
1B8
330
18
100
AcDbEntity
  8
0
100
AcDbLine
 10
52.7397
 20
134.742
 30
0.0
 11
52.24779999999999
 21
135.942
 31
0.0
  0
LINE
  5
1B9
330
18
100
AcDbEntity
  8
0
100
AcDbLine
 10
53.5411
 20
134.742
 30
0.0
 11
53.0491
 21
135.942
 31
0.0
  0
LINE
  5
1BA
330
18
100
AcDbEntity
  8
0
100
AcDbLine
 10
54.34239999999999
 20
134.742
 30
0.0
 11
53.8503
 21
135.942
 31
0.0
  0
LINE
  5
1BB
330
18
100
AcDbEntity
  8
0
100
AcDbLine
 10
55.1438
 20
134.742
 30
0.0
 11
54.6518
 21
135.942
 31
0.0
  0
LINE
  5
1BC
330
18
100
AcDbEntity
  8
0
100
AcDbLine
 10
55.9449
 20
134.742
 30
0.0
 11
55.45300000000001
 21
135.942
 31
0.0
  0
LINE
  5
1BD
330
18
100
AcDbEntity
  8
0
100
AcDbLine
 10
56.7464
 20
134.742
 30
0.0
 11
56.2545
 21
135.942
 31
0.0
  0
LINE
  5
1BE
330
18
100
AcDbEntity
  8
0
100
AcDbLine
 10
57.5476
 20
134.742
 30
0.0
 11
57.0556
 21
135.942
 31
0.0
  0
LINE
  5
1BF
330
18
100
AcDbEntity
  8
0
100
AcDbLine
 10
58.3491
 20
134.742
 30
0.0
 11
57.8571
 21
135.942
 31
0.0
  0
LINE
  5
1C0
330
18
100
AcDbEntity
  8
0
100
AcDbLine
 10
47.3387
 20
135.3429999999999
 30
0.0
 11
48.2501
 21
135.65
 31
0.0
  0
LINE
  5
1C1
330
18
100
AcDbEntity
  8
0
100
AcDbLine
 10
47.3387
 20
135.3429999999999
 30
0.0
 11
48.2501
 21
135.036
 31
0.0
  0
LINE
  5
1C2
330
18
100
AcDbEntity
  8
0
100
AcDbLine
 10
59.3387
 20
135.65
 30
0.0
 11
48.2501
 21
135.65
 31
0.0
  0
LINE
  5
1C3
330
18
100
AcDbEntity
  8
0
100
AcDbLine
 10
59.3387
 20
135.036
 30
0.0
 11
48.2501
 21
135.036
 31
0.0
  0
LINE
  5
1C4
330
18
100
AcDbEntity
  8
0
  6
AIGENLINE001
100
AcDbLine
 10
60.18899999999999
 20
135.3429999999999
 30
0.0
 11
46.5218
 21
135.3429999999999
 31
0.0
  0
LINE
  5
1C5
330
18
100
AcDbEntity
  8
0
100
AcDbLine
 10
59.1503
 20
134.742
 30
0.0
 11
58.65829999999999
 21
135.942
 31
0.0
  0
LINE
  5
1C6
330
18
100
AcDbEntity
  8
0
100
AcDbLine
 10
48.7333
 20
67.5422
 30
0.0
 11
48.24110000000001
 21
68.74209999999999
 31
0.0
  0
LINE
  5
1C7
330
18
100
AcDbEntity
  8
0
100
AcDbLine
 10
49.5344
 20
67.5422
 30
0.0
 11
49.0425
 21
68.74209999999999
 31
0.0
  0
LINE
  5
1C8
330
18
100
AcDbEntity
  8
0
100
AcDbLine
 10
50.3357
 20
67.5422
 30
0.0
 11
49.8438
 21
68.74209999999999
 31
0.0
  0
LINE
  5
1C9
330
18
100
AcDbEntity
  8
0
100
AcDbLine
 10
51.1371
 20
67.5422
 30
0.0
 11
50.6451
 21
68.74209999999999
 31
0.0
  0
LINE
  5
1CA
330
18
100
AcDbEntity
  8
0
100
AcDbLine
 10
51.9384
 20
67.5422
 30
0.0
 11
51.4465
 21
68.74209999999999
 31
0.0
  0
LINE
  5
1CB
330
18
100
AcDbEntity
  8
0
100
AcDbLine
 10
52.7397
 20
67.5422
 30
0.0
 11
52.24779999999999
 21
68.74209999999999
 31
0.0
  0
LINE
  5
1CC
330
18
100
AcDbEntity
  8
0
100
AcDbLine
 10
53.5411
 20
67.5422
 30
0.0
 11
53.0491
 21
68.74209999999999
 31
0.0
  0
LINE
  5
1CD
330
18
100
AcDbEntity
  8
0
100
AcDbLine
 10
54.34239999999999
 20
67.5422
 30
0.0
 11
53.8503
 21
68.74209999999999
 31
0.0
  0
LINE
  5
1CE
330
18
100
AcDbEntity
  8
0
100
AcDbLine
 10
55.1438
 20
67.5422
 30
0.0
 11
54.6518
 21
68.74209999999999
 31
0.0
  0
LINE
  5
1CF
330
18
100
AcDbEntity
  8
0
100
AcDbLine
 10
55.9449
 20
67.5422
 30
0.0
 11
55.45300000000001
 21
68.74209999999999
 31
0.0
  0
LINE
  5
1D0
330
18
100
AcDbEntity
  8
0
100
AcDbLine
 10
56.7464
 20
67.5422
 30
0.0
 11
56.2545
 21
68.74209999999999
 31
0.0
  0
LINE
  5
1D1
330
18
100
AcDbEntity
  8
0
100
AcDbLine
 10
57.5476
 20
67.5422
 30
0.0
 11
57.0556
 21
68.74209999999999
 31
0.0
  0
LINE
  5
1D2
330
18
100
AcDbEntity
  8
0
100
AcDbLine
 10
58.3491
 20
67.5422
 30
0.0
 11
57.8571
 21
68.74209999999999
 31
0.0
  0
LINE
  5
1D3
330
18
100
AcDbEntity
  8
0
100
AcDbLine
 10
47.3387
 20
68.1417
 30
0.0
 11
48.2501
 21
68.44899999999999
 31
0.0
  0
LINE
  5
1D4
330
18
100
AcDbEntity
  8
0
100
AcDbLine
 10
47.3387
 20
68.1417
 30
0.0
 11
48.2501
 21
67.83540000000001
 31
0.0
  0
LINE
  5
1D5
330
18
100
AcDbEntity
  8
0
100
AcDbLine
 10
59.3387
 20
68.44899999999999
 30
0.0
 11
48.2501
 21
68.44899999999999
 31
0.0
  0
LINE
  5
1D6
330
18
100
AcDbEntity
  8
0
100
AcDbLine
 10
59.3387
 20
67.83540000000001
 30
0.0
 11
48.2501
 21
67.83540000000001
 31
0.0
  0
LINE
  5
1D7
330
18
100
AcDbEntity
  8
0
  6
AIGENLINE001
100
AcDbLine
 10
60.18899999999999
 20
68.1417
 30
0.0
 11
46.5218
 21
68.1417
 31
0.0
  0
LINE
  5
1D8
330
18
100
AcDbEntity
  8
0
100
AcDbLine
 10
59.1503
 20
67.5422
 30
0.0
 11
58.65829999999999
 21
68.74209999999999
 31
0.0
  0
LINE
  5
1D9
330
18
100
AcDbEntity
  8
0
100
AcDbLine
 10
48.7333
 20
71.142
 30
0.0
 11
48.24110000000001
 21
72.342
 31
0.0
  0
LINE
  5
1DA
330
18
100
AcDbEntity
  8
0
100
AcDbLine
 10
49.5344
 20
71.142
 30
0.0
 11
49.0425
 21
72.342
 31
0.0
  0
LINE
  5
1DB
330
18
100
AcDbEntity
  8
0
100
AcDbLine
 10
50.3357
 20
71.142
 30
0.0
 11
49.8438
 21
72.342
 31
0.0
  0
LINE
  5
1DC
330
18
100
AcDbEntity
  8
0
100
AcDbLine
 10
51.1371
 20
71.142
 30
0.0
 11
50.6451
 21
72.342
 31
0.0
  0
LINE
  5
1DD
330
18
100
AcDbEntity
  8
0
100
AcDbLine
 10
51.9384
 20
71.142
 30
0.0
 11
51.4465
 21
72.342
 31
0.0
  0
LINE
  5
1DE
330
18
100
AcDbEntity
  8
0
100
AcDbLine
 10
52.7397
 20
71.142
 30
0.0
 11
52.24779999999999
 21
72.342
 31
0.0
  0
LINE
  5
1DF
330
18
100
AcDbEntity
  8
0
100
AcDbLine
 10
53.5411
 20
71.142
 30
0.0
 11
53.0491
 21
72.342
 31
0.0
  0
LINE
  5
1E0
330
18
100
AcDbEntity
  8
0
100
AcDbLine
 10
54.34239999999999
 20
71.142
 30
0.0
 11
53.8503
 21
72.342
 31
0.0
  0
LINE
  5
1E1
330
18
100
AcDbEntity
  8
0
100
AcDbLine
 10
55.1438
 20
71.142
 30
0.0
 11
54.6518
 21
72.342
 31
0.0
  0
LINE
  5
1E2
330
18
100
AcDbEntity
  8
0
100
AcDbLine
 10
55.9449
 20
71.142
 30
0.0
 11
55.45300000000001
 21
72.342
 31
0.0
  0
LINE
  5
1E3
330
18
100
AcDbEntity
  8
0
100
AcDbLine
 10
56.7464
 20
71.142
 30
0.0
 11
56.2545
 21
72.342
 31
0.0
  0
LINE
  5
1E4
330
18
100
AcDbEntity
  8
0
100
AcDbLine
 10
57.5476
 20
71.142
 30
0.0
 11
57.0556
 21
72.342
 31
0.0
  0
LINE
  5
1E5
330
18
100
AcDbEntity
  8
0
100
AcDbLine
 10
58.3491
 20
71.142
 30
0.0
 11
57.8571
 21
72.342
 31
0.0
  0
LINE
  5
1E6
330
18
100
AcDbEntity
  8
0
100
AcDbLine
 10
47.3387
 20
71.7425
 30
0.0
 11
48.2501
 21
72.0495
 31
0.0
  0
LINE
  5
1E7
330
18
100
AcDbEntity
  8
0
100
AcDbLine
 10
47.3387
 20
71.7425
 30
0.0
 11
48.2501
 21
71.43519999999999
 31
0.0
  0
LINE
  5
1E8
330
18
100
AcDbEntity
  8
0
100
AcDbLine
 10
59.3387
 20
72.0495
 30
0.0
 11
48.2501
 21
72.0495
 31
0.0
  0
LINE
  5
1E9
330
18
100
AcDbEntity
  8
0
100
AcDbLine
 10
59.3387
 20
71.43519999999999
 30
0.0
 11
48.2501
 21
71.43519999999999
 31
0.0
  0
LINE
  5
1EA
330
18
100
AcDbEntity
  8
0
  6
AIGENLINE001
100
AcDbLine
 10
60.18899999999999
 20
71.7425
 30
0.0
 11
46.5218
 21
71.7425
 31
0.0
  0
LINE
  5
1EB
330
18
100
AcDbEntity
  8
0
100
AcDbLine
 10
59.1503
 20
71.142
 30
0.0
 11
58.65829999999999
 21
72.342
 31
0.0
  0
LINE
  5
1EC
330
18
100
AcDbEntity
  8
0
100
AcDbLine
 10
48.7333
 20
74.74219999999999
 30
0.0
 11
48.24110000000001
 21
75.9421
 31
0.0
  0
LINE
  5
1ED
330
18
100
AcDbEntity
  8
0
100
AcDbLine
 10
49.5344
 20
74.74219999999999
 30
0.0
 11
49.0425
 21
75.9421
 31
0.0
  0
LINE
  5
1EE
330
18
100
AcDbEntity
  8
0
100
AcDbLine
 10
50.3357
 20
74.74219999999999
 30
0.0
 11
49.8438
 21
75.9421
 31
0.0
  0
LINE
  5
1EF
330
18
100
AcDbEntity
  8
0
100
AcDbLine
 10
51.1371
 20
74.74219999999999
 30
0.0
 11
50.6451
 21
75.9421
 31
0.0
  0
LINE
  5
1F0
330
18
100
AcDbEntity
  8
0
100
AcDbLine
 10
51.9384
 20
74.74219999999999
 30
0.0
 11
51.4465
 21
75.9421
 31
0.0
  0
LINE
  5
1F1
330
18
100
AcDbEntity
  8
0
100
AcDbLine
 10
52.7397
 20
74.74219999999999
 30
0.0
 11
52.24779999999999
 21
75.9421
 31
0.0
  0
LINE
  5
1F2
330
18
100
AcDbEntity
  8
0
100
AcDbLine
 10
53.5411
 20
74.74219999999999
 30
0.0
 11
53.0491
 21
75.9421
 31
0.0
  0
LINE
  5
1F3
330
18
100
AcDbEntity
  8
0
100
AcDbLine
 10
54.34239999999999
 20
74.74219999999999
 30
0.0
 11
53.8503
 21
75.9421
 31
0.0
  0
LINE
  5
1F4
330
18
100
AcDbEntity
  8
0
100
AcDbLine
 10
55.1438
 20
74.74219999999999
 30
0.0
 11
54.6518
 21
75.9421
 31
0.0
  0
LINE
  5
1F5
330
18
100
AcDbEntity
  8
0
100
AcDbLine
 10
55.9449
 20
74.74219999999999
 30
0.0
 11
55.45300000000001
 21
75.9421
 31
0.0
  0
LINE
  5
1F6
330
18
100
AcDbEntity
  8
0
100
AcDbLine
 10
56.7464
 20
74.74219999999999
 30
0.0
 11
56.2545
 21
75.9421
 31
0.0
  0
LINE
  5
1F7
330
18
100
AcDbEntity
  8
0
100
AcDbLine
 10
57.5476
 20
74.74219999999999
 30
0.0
 11
57.0556
 21
75.9421
 31
0.0
  0
LINE
  5
1F8
330
18
100
AcDbEntity
  8
0
100
AcDbLine
 10
58.3491
 20
74.74219999999999
 30
0.0
 11
57.8571
 21
75.9421
 31
0.0
  0
LINE
  5
1F9
330
18
100
AcDbEntity
  8
0
100
AcDbLine
 10
47.3387
 20
75.34229999999999
 30
0.0
 11
48.2501
 21
75.6493
 31
0.0
  0
LINE
  5
1FA
330
18
100
AcDbEntity
  8
0
100
AcDbLine
 10
47.3387
 20
75.34229999999999
 30
0.0
 11
48.2501
 21
75.03530000000001
 31
0.0
  0
LINE
  5
1FB
330
18
100
AcDbEntity
  8
0
100
AcDbLine
 10
59.3387
 20
75.6493
 30
0.0
 11
48.2501
 21
75.6493
 31
0.0
  0
LINE
  5
1FC
330
18
100
AcDbEntity
  8
0
100
AcDbLine
 10
59.3387
 20
75.03530000000001
 30
0.0
 11
48.2501
 21
75.03530000000001
 31
0.0
  0
LINE
  5
1FD
330
18
100
AcDbEntity
  8
0
  6
AIGENLINE001
100
AcDbLine
 10
60.18899999999999
 20
75.34229999999999
 30
0.0
 11
46.5218
 21
75.34229999999999
 31
0.0
  0
LINE
  5
1FE
330
18
100
AcDbEntity
  8
0
100
AcDbLine
 10
59.1503
 20
74.74219999999999
 30
0.0
 11
58.65829999999999
 21
75.9421
 31
0.0
  0
ARC
  5
1FF
330
18
100
AcDbEntity
  8
0
100
AcDbCircle
 10
74.32663199999999
 20
99.24259599999999
 30
0.0
 40
3.078141999999999
100
AcDbArc
 50
150.839076
 51
209.1740819999999
  0
LINE
  5
200
330
18
100
AcDbEntity
  8
0
100
AcDbLine
 10
74.4388
 20
99.2421
 30
0.0
 11
71.92849999999999
 21
97.8978
 31
0.0
  0
LINE
  5
201
330
18
100
AcDbEntity
  8
0
100
AcDbLine
 10
74.4388
 20
99.2421
 30
0.0
 11
71.92849999999999
 21
100.587
 31
0.0
  0
ARC
  5
202
330
18
100
AcDbEntity
  8
0
100
AcDbCircle
 10
74.327885
 20
94.24269699999999
 30
0.0
 40
3.079235999999999
100
AcDbArc
 50
150.8504399999999
 51
209.1627179999999
  0
LINE
  5
203
330
18
100
AcDbEntity
  8
0
100
AcDbLine
 10
74.4388
 20
94.2426
 30
0.0
 11
71.92849999999999
 21
92.89759999999999
 31
0.0
  0
LINE
  5
204
330
18
100
AcDbEntity
  8
0
100
AcDbLine
 10
74.4388
 20
94.2426
 30
0.0
 11
71.92849999999999
 21
95.5868
 31
0.0
  0
ARC
  5
205
330
18
100
AcDbEntity
  8
0
100
AcDbCircle
 10
74.327885
 20
89.24245400000001
 30
0.0
 40
3.079235999999999
100
AcDbArc
 50
150.8504399999999
 51
209.1627179999999
  0
LINE
  5
206
330
18
100
AcDbEntity
  8
0
100
AcDbLine
 10
74.4388
 20
89.24229999999999
 30
0.0
 11
71.92849999999999
 21
87.8973
 31
0.0
  0
LINE
  5
207
330
18
100
AcDbEntity
  8
0
100
AcDbLine
 10
74.4388
 20
89.24229999999999
 30
0.0
 11
71.92849999999999
 21
90.5869
 31
0.0
  0
ARC
  5
208
330
18
100
AcDbEntity
  8
0
100
AcDbCircle
 10
74.326947
 20
84.24238299999998
 30
0.0
 40
3.078333
100
AcDbArc
 50
150.844733
 51
209.168426
  0
LINE
  5
209
330
18
100
AcDbEntity
  8
0
100
AcDbLine
 10
74.4388
 20
84.24240000000001
 30
0.0
 11
71.92849999999999
 21
82.8974
 31
0.0
  0
LINE
  5
20A
330
18
100
AcDbEntity
  8
0
100
AcDbLine
 10
74.4388
 20
84.24240000000001
 30
0.0
 11
71.92849999999999
 21
85.58669999999999
 31
0.0
  0
LINE
  5
20B
330
18
100
AcDbEntity
  8
0
100
AcDbLine
 10
78.03879999999999
 20
81.89629999999999
 30
0.0
 11
78.03879999999999
 21
101.743
 31
0.0
  0
LINE
  5
20C
330
18
100
AcDbEntity
  8
0
100
AcDbLine
 10
72.339
 20
80.94230000000001
 30
0.0
 11
77.3391
 21
80.94230000000001
 31
0.0
  0
ARC
  5
20D
330
18
100
AcDbEntity
  8
0
100
AcDbCircle
 10
77.011093
 20
81.916507
 30
0.0
 40
1.027902
100
AcDbArc
 50
288.608302
 51
358.873267
  0
LINE
  5
20E
330
18
100
AcDbEntity
  8
0
100
AcDbLine
 10
71.63859999999999
 20
100.7419999999999
 30
0.0
 11
71.63859999999999
 21
101.743
 31
0.0
  0
LINE
  5
20F
330
18
100
AcDbEntity
  8
0
100
AcDbLine
 10
71.63859999999999
 20
95.74189999999999
 30
0.0
 11
71.63859999999999
 21
97.7421
 31
0.0
  0
LINE
  5
210
330
18
100
AcDbEntity
  8
0
100
AcDbLine
 10
71.63859999999999
 20
90.7423
 30
0.0
 11
71.63859999999999
 21
92.74219999999999
 31
0.0
  0
LINE
  5
211
330
18
100
AcDbEntity
  8
0
100
AcDbLine
 10
71.63859999999999
 20
85.74209999999998
 30
0.0
 11
71.63859999999999
 21
87.74269999999999
 31
0.0
  0
LINE
  5
212
330
18
100
AcDbEntity
  8
0
100
AcDbLine
 10
71.63859999999999
 20
81.89629999999999
 30
0.0
 11
71.63859999999999
 21
82.7421
 31
0.0
  0
ARC
  5
213
330
18
100
AcDbEntity
  8
0
100
AcDbCircle
 10
72.666634
 20
81.916965
 30
0.0
 40
1.028212999999999
100
AcDbArc
 50
181.1519389999999
 51
251.420329
  0
LINE
  5
214
330
18
100
AcDbEntity
  8
0
100
AcDbLine
 10
73.73909999999999
 20
67.5422
 30
0.0
 11
61.5389
 21
67.5422
 31
0.0
  0
LINE
  5
215
330
18
100
AcDbEntity
  8
0
100
AcDbLine
 10
73.73909999999999
 20
67.5415
 30
0.0
 11
73.73909999999999
 21
75.9421
 31
0.0
  0
LINE
  5
216
330
18
100
AcDbEntity
  8
0
100
AcDbLine
 10
61.5389
 20
78.2424
 30
0.0
 11
59.3387
 21
78.2424
 31
0.0
  0
LINE
  5
217
330
18
100
AcDbEntity
  8
0
100
AcDbLine
 10
61.5389
 20
65.2419
 30
0.0
 11
59.3387
 21
65.2419
 31
0.0
  0
LINE
  5
218
330
18
100
AcDbEntity
  8
0
100
AcDbLine
 10
61.5389
 20
65.2419
 30
0.0
 11
61.5389
 21
78.2424
 31
0.0
  0
LINE
  5
219
330
18
100
AcDbEntity
  8
0
100
AcDbLine
 10
59.3387
 20
65.2419
 30
0.0
 11
59.3387
 21
78.2424
 31
0.0
  0
LINE
  5
21A
330
18
100
AcDbEntity
  8
0
100
AcDbLine
 10
73.73909999999999
 20
75.9421
 30
0.0
 11
61.5389
 21
75.9421
 31
0.0
  0
LINE
  5
21B
330
18
100
AcDbEntity
  8
0
100
AcDbLine
 10
72.339
 20
67.3421
 30
0.0
 11
77.3391
 21
67.3421
 31
0.0
  0
LINE
  5
21C
330
18
100
AcDbEntity
  8
0
100
AcDbLine
 10
72.339
 20
66.7423
 30
0.0
 11
77.3391
 21
66.7423
 31
0.0
  0
LINE
  5
21D
330
18
100
AcDbEntity
  8
0
100
AcDbLine
 10
72.339
 20
75.9421
 30
0.0
 11
72.339
 21
80.94230000000001
 31
0.0
  0
LINE
  5
21E
330
18
100
AcDbEntity
  8
0
100
AcDbLine
 10
72.339
 20
66.7423
 30
0.0
 11
72.339
 21
67.5422
 31
0.0
  0
LINE
  5
21F
330
18
100
AcDbEntity
  8
0
100
AcDbLine
 10
77.3391
 20
66.7423
 30
0.0
 11
77.3391
 21
80.94269999999999
 31
0.0
  0
LINE
  5
220
330
18
100
AcDbEntity
  8
0
100
AcDbLine
 10
122.297
 20
182.543
 30
0.0
 11
127.296
 21
182.543
 31
0.0
  0
ARC
  5
221
330
18
100
AcDbEntity
  8
0
100
AcDbCircle
 10
126.968523
 20
181.5681929999999
 30
0.0
 40
1.028126
100
AcDbArc
 50
1.151693
 51
71.40351200000001
  0
ARC
  5
222
330
18
100
AcDbEntity
  8
0
100
AcDbCircle
 10
122.625208
 20
181.568004
 30
0.0
 40
1.028628
100
AcDbArc
 50
108.616325
 51
178.8383009999999
  0
LINE
  5
223
330
18
100
AcDbEntity
  8
0
100
AcDbLine
 10
127.996
 20
141.897
 30
0.0
 11
127.996
 21
181.589
 31
0.0
  0
LINE
  5
224
330
18
100
AcDbEntity
  8
0
100
AcDbLine
 10
122.297
 20
140.9429999999999
 30
0.0
 11
127.296
 21
140.9429999999999
 31
0.0
  0
ARC
  5
225
330
18
100
AcDbEntity
  8
0
100
AcDbCircle
 10
126.968035
 20
141.917652
 30
0.0
 40
1.028621
100
AcDbArc
 50
288.615896
 51
358.828899
  0
LINE
  5
226
330
18
100
AcDbEntity
  8
0
100
AcDbLine
 10
121.597
 20
141.897
 30
0.0
 11
121.597
 21
181.589
 31
0.0
  0
ARC
  5
227
330
18
100
AcDbEntity
  8
0
100
AcDbCircle
 10
122.62471
 20
141.917293
 30
0.0
 40
1.028126
100
AcDbArc
 50
181.151713
 51
251.403532
  0
LINE
  5
228
330
18
100
AcDbEntity
  8
_________2
100
AcDbLine
 10
205.301
 20
127.411
 30
0.0
 11
183.551
 21
127.411
 31
0.0
  0
LINE
  5
229
330
18
100
AcDbEntity
  8
_________2
100
AcDbLine
 10
100.2999999999999
 20
-4.09108
 30
0.0
 11
100.2999999999999
 21
-21.07099999999999
 31
0.0
  0
LINE
  5
22A
330
18
100
AcDbEntity
  8
_________2
100
AcDbLine
 10
100.2999999999999
 20
275.9309999999999
 30
0.0
 11
100.2999999999999
 21
258.911
 31
0.0
  0
LINE
  5
22B
330
18
100
AcDbEntity
  8
_________2
100
AcDbLine
 10
17.04939999999999
 20
127.411
 30
0.0
 11
-4.70103
 21
127.411
 31
0.0
  0
LINE
  5
22C
330
18
100
AcDbEntity
  8
_________2
100
AcDbLine
 10
76.7408
 20
29.8047
 30
0.0
 11
74.55459999999999
 21
29.8047
 31
0.0
  0
LINE
  5
22D
330
18
100
AcDbEntity
  8
_________2
100
AcDbLine
 10
77.2335
 20
29.8047
 30
0.0
 11
76.9813
 21
29.8047
 31
0.0
  0
LINE
  5
22E
330
18
100
AcDbEntity
  8
_________2
100
AcDbLine
 10
77.7262
 20
29.8047
 30
0.0
 11
80.6511
 21
29.8047
 31
0.0
  0
LINE
  5
22F
330
18
100
AcDbEntity
  8
_________2
100
AcDbLine
 10
77.2335
 20
29.8047
 30
0.0
 11
77.48569999999999
 21
29.8047
 31
0.0
  0
LINE
  5
230
330
18
100
AcDbEntity
  8
_________2
100
AcDbLine
 10
70.8373
 20
29.8047
 30
0.0
 11
68.6503
 21
29.8047
 31
0.0
  0
LINE
  5
231
330
18
100
AcDbEntity
  8
_________2
100
AcDbLine
 10
71.3293
 20
29.8047
 30
0.0
 11
71.07779999999999
 21
29.8047
 31
0.0
  0
LINE
  5
232
330
18
100
AcDbEntity
  8
_________2
100
AcDbLine
 10
71.3293
 20
30.2974
 30
0.0
 11
71.3293
 21
32.4844
 31
0.0
  0
LINE
  5
233
330
18
100
AcDbEntity
  8
_________2
100
AcDbLine
 10
71.3293
 20
29.8047
 30
0.0
 11
71.3293
 21
30.0573
 31
0.0
  0
LINE
  5
234
330
18
100
AcDbEntity
  8
_________2
100
AcDbLine
 10
71.8219
 20
29.8047
 30
0.0
 11
74.0089
 21
29.8047
 31
0.0
  0
LINE
  5
235
330
18
100
AcDbEntity
  8
_________2
100
AcDbLine
 10
71.3293
 20
29.8047
 30
0.0
 11
71.5814
 21
29.8047
 31
0.0
  0
LINE
  5
236
330
18
100
AcDbEntity
  8
_________2
100
AcDbLine
 10
71.3293
 20
29.3128
 30
0.0
 11
71.3293
 21
27.1262
 31
0.0
  0
LINE
  5
237
330
18
100
AcDbEntity
  8
_________2
100
AcDbLine
 10
71.3293
 20
29.8047
 30
0.0
 11
71.3293
 21
29.5532
 31
0.0
  0
LINE
  5
238
330
18
100
AcDbEntity
  8
_________2
100
AcDbLine
 10
75.0403
 20
28.5852
 30
0.0
 11
80.21829999999999
 21
27.7204
 31
0.0
  0
LINE
  5
239
330
18
100
AcDbEntity
  8
_________2
100
AcDbLine
 10
75.0403
 20
31.0247
 30
0.0
 11
80.21829999999999
 21
31.8901
 31
0.0
  0
LINE
  5
23A
330
18
100
AcDbEntity
  8
_________2
100
AcDbLine
 10
80.21829999999999
 20
27.7204
 30
0.0
 11
80.21829999999999
 21
31.8901
 31
0.0
  0
LINE
  5
23B
330
18
100
AcDbEntity
  8
_________2
100
AcDbLine
 10
75.0403
 20
28.5852
 30
0.0
 11
75.0403
 21
31.0247
 31
0.0
  0
ARC
  5
23C
330
18
100
AcDbEntity
  8
_________2
100
AcDbCircle
 10
71.282674
 20
29.757801
 30
0.0
 40
1.267714
100
AcDbArc
 50
2.122084
 51
87.89408399999999
  0
ARC
  5
23D
330
18
100
AcDbEntity
  8
_________2
100
AcDbCircle
 10
71.37581299999999
 20
29.758546
 30
0.0
 40
1.266968
100
AcDbArc
 50
92.10578299999999
 51
177.91037
  0
ARC
  5
23E
330
18
100
AcDbEntity
  8
_________2
100
AcDbCircle
 10
71.376186
 20
29.851671
 30
0.0
 40
1.267368
100
AcDbArc
 50
182.122036
 51
267.877993
  0
ARC
  5
23F
330
18
100
AcDbEntity
  8
_________2
100
AcDbCircle
 10
71.28236899999999
 20
29.852348
 30
0.0
 40
1.268043999999999
100
AcDbArc
 50
272.119164
 51
357.8484849999999
  0
ARC
  5
240
330
18
100
AcDbEntity
  8
_________2
100
AcDbCircle
 10
71.24889
 20
29.72473199999999
 30
0.0
 40
2.166831
100
AcDbArc
 50
2.116143999999999
 51
87.874379
  0
ARC
  5
241
330
18
100
AcDbEntity
  8
_________2
100
AcDbCircle
 10
71.408928
 20
29.726146
 30
0.0
 40
2.165392999999999
100
AcDbArc
 50
92.108509
 51
177.919865
  0
ARC
  5
242
330
18
100
AcDbEntity
  8
_________2
100
AcDbCircle
 10
71.409267
 20
29.884752
 30
0.0
 40
2.165783
100
AcDbArc
 50
182.117133
 51
267.882897
  0
ARC
  5
243
330
18
100
AcDbEntity
  8
_________2
100
AcDbCircle
 10
71.24928699999999
 20
29.88542999999999
 30
0.0
 40
2.166459
100
AcDbArc
 50
272.115468
 51
357.865604
  0
TEXT
  5
244
330
18
100
AcDbEntity
  8
_________2
100
AcDbText
 10
104.605
 20
1.67949
 30
0.0
 40
3.09234
  1
図番
 41
0.5
100
AcDbText
  0
LINE
  5
245
330
18
100
AcDbEntity
  8
_________2
100
AcDbLine
 10
103.55
 20
5.908719999999999
 30
0.0
 11
183.551
 21
5.908719999999999
 31
0.0
  0
TEXT
  5
246
330
18
100
AcDbEntity
  8
_________2
100
AcDbText
 10
104.605
 20
11.67929999999999
 30
0.0
 40
3.09234
  1
品番
 41
0.5
100
AcDbText
  0
TEXT
  5
247
330
18
100
AcDbEntity
  8
_________2
100
AcDbText
 10
104.605
 20
31.8184
 30
0.0
 40
3.09234
  1
名称
 41
0.5
100
AcDbText
  0
TEXT
  5
248
330
18
100
AcDbEntity
  8
_________2
100
AcDbText
 10
91.84495833333334
 20
26.8223
 30
0.0
 40
3.65458
  1
mm
 41
0.5
 72
     1
 11
93.36769999999999
 21
26.8223
 31
0.0
100
AcDbText
  0
TEXT
  5
249
330
18
100
AcDbEntity
  8
_________2
100
AcDbText
 10
85.64299999999999
 20
31.8184
 30
0.0
 40
3.09234
  1
単位
 41
0.5
100
AcDbText
  0
TEXT
  5
24A
330
18
100
AcDbEntity
  8
_________2
100
AcDbText
 10
85.64299999999999
 20
19.41079999999999
 30
0.0
 40
3.09234
  1
尺度
 41
0.5
100
AcDbText
  0
TEXT
  5
24B
330
18
100
AcDbEntity
  8
_________2
100
AcDbText
 10
90.54855866666668
 20
13.21819999999999
 30
0.0
 40
3.65458
  1
1 ： 5
 41
0.5
 72
     1
 11
93.9595
 21
13.21819999999999
 31
0.0
100
AcDbText
  0
TEXT
  5
24C
330
18
100
AcDbEntity
  8
_________2
100
AcDbText
 10
136.662525
 20
9.1082
 30
0.0
 40
3.9357
  1
EC357001
 41
0.5
 72
     1
 11
143.55
 21
9.1082
 31
0.0
100
AcDbText
  0
TEXT
  5
24D
330
18
100
AcDbEntity
  8
_________2
100
AcDbText
 10
136.662525
 20
-0.8926299999999999
 30
0.0
 40
3.9357
  1
EC357001
 41
0.5
 72
     1
 11
143.55
 21
-0.8926299999999999
 31
0.0
100
AcDbText
  0
TEXT
  5
24E
330
18
100
AcDbEntity
  8
_________2
100
AcDbText
 10
109.179
 20
24.2261
 30
0.0
 40
3.9357
  1
システム02  I型バスグリップ（L＝650）
 41
0.5
100
AcDbText
  0
TEXT
  5
24F
330
18
100
AcDbEntity
  8
_________2
100
AcDbText
 10
39.303281
 20
13.6034
 30
0.0
 40
3.65458
  1
田尻
 41
0.5
 72
     1
 11
41.3133
 21
13.6034
 31
0.0
100
AcDbText
  0
TEXT
  5
250
330
18
100
AcDbEntity
  8
_________2
100
AcDbText
 10
20.79019066666667
 20
13.6034
 30
0.0
 40
3.65458
  1
石原
 41
0.5
 72
     1
 11
22.7393
 21
13.6034
 31
0.0
100
AcDbText
  0
TEXT
  5
251
330
18
100
AcDbEntity
  8
_________2
100
AcDbText
 10
67.7856
 20
13.21819999999999
 30
0.0
 40
3.65458
  1
09.09.04
 41
0.5
100
AcDbText
  0
TEXT
  5
252
330
18
100
AcDbEntity
  8
_________2
100
AcDbText
 10
66.5929
 20
19.41079999999999
 30
0.0
 40
3.09234
  1
日付
 41
0.5
100
AcDbText
  0
TEXT
  5
253
330
18
100
AcDbEntity
  8
_________2
100
AcDbText
 10
29.63919999999999
 20
19.41079999999999
 30
0.0
 40
3.09234
  1
検図
 41
0.5
100
AcDbText
  0
TEXT
  5
254
330
18
100
AcDbEntity
  8
_________2
100
AcDbText
 10
18.0209
 20
5.21143
 30
0.0
 40
3.09234
  1
備考
 41
0.5
100
AcDbText
  0
TEXT
  5
255
330
18
100
AcDbEntity
  8
_________2
100
AcDbText
 10
18.0209
 20
19.41079999999999
 30
0.0
 40
3.09234
  1
製図
 41
0.5
100
AcDbText
  0
TEXT
  5
256
330
18
100
AcDbEntity
  8
_________2
100
AcDbText
 10
23.863231
 20
27.9368
 30
0.0
 40
4.497939999999999
  1
セラトレーディング株式会社
 41
0.5
 72
     1
 11
41.1803
 21
27.9368
 31
0.0
100
AcDbText
  0
LINE
  5
257
330
18
100
AcDbEntity
  8
_________2
100
AcDbLine
 10
183.551
 20
-4.09108
 30
0.0
 11
17.04939999999999
 21
-4.09108
 31
0.0
  0
LINE
  5
258
330
18
100
AcDbEntity
  8
_________2
100
AcDbLine
 10
17.04939999999999
 20
-4.09108
 30
0.0
 11
17.04939999999999
 21
258.911
 31
0.0
  0
LINE
  5
259
330
18
100
AcDbEntity
  8
_________2
100
AcDbLine
 10
17.04939999999999
 20
258.911
 30
0.0
 11
183.551
 21
258.911
 31
0.0
  0
LINE
  5
25A
330
18
100
AcDbEntity
  8
_________2
100
AcDbLine
 10
183.551
 20
258.911
 30
0.0
 11
183.551
 21
-4.09108
 31
0.0
  0
LINE
  5
25B
330
18
100
AcDbEntity
  8
_________2
100
AcDbLine
 10
65.5497
 20
9.409299999999999
 30
0.0
 11
65.5497
 21
35.9091
 31
0.0
  0
LINE
  5
25C
330
18
100
AcDbEntity
  8
_________2
100
AcDbLine
 10
84.54959999999999
 20
9.409299999999999
 30
0.0
 11
84.54959999999999
 21
35.9091
 31
0.0
  0
LINE
  5
25D
330
18
100
AcDbEntity
  8
_________2
100
AcDbLine
 10
103.55
 20
-4.09108
 30
0.0
 11
103.55
 21
35.9091
 31
0.0
  0
LINE
  5
25E
330
18
100
AcDbEntity
  8
_________2
100
AcDbLine
 10
28.54919999999999
 20
9.409299999999999
 30
0.0
 11
28.54919999999999
 21
23.4092
 31
0.0
  0
LINE
  5
25F
330
18
100
AcDbEntity
  8
_________2
100
AcDbLine
 10
17.04939999999999
 20
9.409299999999999
 30
0.0
 11
103.55
 21
9.409299999999999
 31
0.0
  0
LINE
  5
260
330
18
100
AcDbEntity
  8
_________2
100
AcDbLine
 10
17.04939999999999
 20
23.4092
 30
0.0
 11
103.55
 21
23.4092
 31
0.0
  0
LINE
  5
261
330
18
100
AcDbEntity
  8
_________2
100
AcDbLine
 10
103.55
 20
15.9085
 30
0.0
 11
183.551
 21
15.9085
 31
0.0
  0
LINE
  5
262
330
18
100
AcDbEntity
  8
_________2
100
AcDbLine
 10
17.04939999999999
 20
35.9091
 30
0.0
 11
183.551
 21
35.9091
 31
0.0
  0
ENDSEC
  0
SECTION
  2
OBJECTS
  0
DICTIONARY
  5
C
330
0
100
AcDbDictionary
281
     1
  3
ACAD_GROUP
350
D
  3
ACAD_LAYOUT
350
268
  3
ACAD_MLINESTYLE
350
1B
  3
ACAD_PLOTSETTINGS
350
269
  3
ACAD_PLOTSTYLENAME
350
266
  0
DICTIONARY
  5
D
102
{ACAD_REACTORS
330
C
102
}
330
C
100
AcDbDictionary
281
     1
  0
DICTIONARY
  5
268
102
{ACAD_REACTORS
330
C
102
}
330
C
100
AcDbDictionary
281
     1
  3
Model
350
26A
  3
ﾚｲｱｳﾄ1
350
26B
  0
DICTIONARY
  5
1B
102
{ACAD_REACTORS
330
C
102
}
330
C
100
AcDbDictionary
281
     1
  3
STANDARD
350
1C
  0
DICTIONARY
  5
269
102
{ACAD_REACTORS
330
C
102
}
330
C
100
AcDbDictionary
281
     1
  0
ACDBDICTIONARYWDFLT
  5
266
102
{ACAD_REACTORS
330
C
102
}
330
C
100
AcDbDictionary
281
     1
  3
Normal
350
267
100
AcDbDictionaryWithDefault
340
267
  0
LAYOUT
  5
26A
102
{ACAD_REACTORS
330
268
102
}
330
268
100
AcDbPlotSettings
  1

  2
DocuPrint2060
  4

  6

 40
0.0
 41
0.0
 42
0.0
 43
0.0
 44
0.0
 45
0.0
 46
0.0
 47
0.0
 48
0.0
 49
0.0
140
0.0
141
0.0
142
1.0
143
1.0
 70
  1712
 72
     0
 73
     0
 74
     0
  7

 75
     0
147
1.0
148
0.0
149
0.0
100
AcDbLayout
  1
Model
 70
     1
 71
     0
 10
0.0
 20
0.0
 11
12.0
 21
9.0
 12
0.0
 22
0.0
 32
0.0
 14
0.0
 24
0.0
 34
0.0
 15
0.0
 25
0.0
 35
0.0
146
0.0
 13
0.0
 23
0.0
 33
0.0
 16
1.0
 26
0.0
 36
0.0
 17
0.0
 27
1.0
 37
0.0
 76
     0
330
18
  0
LAYOUT
  5
26B
102
{ACAD_REACTORS
330
268
102
}
330
268
100
AcDbPlotSettings
  1

  2
DocuPrint2060
  4

  6

 40
0.0
 41
0.0
 42
0.0
 43
0.0
 44
0.0
 45
0.0
 46
0.0
 47
0.0
 48
0.0
 49
0.0
140
0.0
141
0.0
142
1.0
143
1.0
 70
   688
 72
     0
 73
     0
 74
     5
  7

 75
    16
147
1.0
148
0.0
149
0.0
100
AcDbLayout
  1
ﾚｲｱｳﾄ1
 70
     1
 71
     1
 10
0.0
 20
0.0
 11
12.0
 21
9.0
 12
0.0
 22
0.0
 32
0.0
 14
1.000000000000000E+20
 24
1.000000000000000E+20
 34
1.000000000000000E+20
 15
-1.000000000000000E+20
 25
-1.000000000000000E+20
 35
-1.000000000000000E+20
146
0.0
 13
0.0
 23
0.0
 33
0.0
 16
1.0
 26
0.0
 36
0.0
 17
0.0
 27
1.0
 37
0.0
 76
     0
330
15
  0
MLINESTYLE
  5
1C
102
{ACAD_REACTORS
330
1B
102
}
330
1B
100
AcDbMlineStyle
  2
STANDARD
 70
     0
  3

 62
   256
 51
90.0
 52
90.0
 71
     2
 49
0.5
 62
   256
  6
BYLAYER
 49
-0.5
 62
   256
  6
BYLAYER
  0
ACDBPLACEHOLDER
  5
267
102
{ACAD_REACTORS
330
266
102
}
330
266
  0
ENDSEC
  0
EOF
