  0
SECTION
  2
HEADER
  9
$ACADVER
  1
AC1015
  9
$ACADMAINTVER
 70
     6
  9
$DWGCODEPAGE
  3
ANSI_932
  9
$INSBASE
 10
0.0
 20
0.0
 30
0.0
  9
$EXTMIN
 10
-4.70103
 20
-21.07099999999999
 30
0.0
  9
$EXTMAX
 10
205.301
 20
275.9309999999999
 30
0.0
  9
$LIMMIN
 10
0.0
 20
0.0
  9
$LIMMAX
 10
12.0
 20
9.0
  9
$ORTHOMODE
 70
     0
  9
$REGENMODE
 70
     1
  9
$FILLMODE
 70
     1
  9
$QTEXTMODE
 70
     0
  9
$MIRRTEXT
 70
     1
  9
$LTSCALE
 40
1.0
  9
$ATTMODE
 70
     1
  9
$TEXTSIZE
 40
0.0
  9
$TRACEWID
 40
0.05
  9
$TEXTSTYLE
  7
STANDARD
  9
$CLAYER
  8
0
  9
$CELTYPE
  6
CONTINUOUS
  9
$CECOLOR
 62
   256
  9
$CELTSCALE
 40
1.0
  9
$DISPSILH
 70
     0
  9
$DIMSCALE
 40
1.0
  9
$DIMASZ
 40
0.18
  9
$DIMEXO
 40
0.0625
  9
$DIMDLI
 40
0.38
  9
$DIMRND
 40
0.0
  9
$DIMDLE
 40
0.0
  9
$DIMEXE
 40
0.18
  9
$DIMTP
 40
0.0
  9
$DIMTM
 40
0.0
  9
$DIMTXT
 40
0.18
  9
$DIMCEN
 40
0.09
  9
$DIMTSZ
 40
0.0
  9
$DIMTOL
 70
     0
  9
$DIMLIM
 70
     0
  9
$DIMTIH
 70
     1
  9
$DIMTOH
 70
     1
  9
$DIMSE1
 70
     0
  9
$DIMSE2
 70
     0
  9
$DIMTAD
 70
     0
  9
$DIMZIN
 70
     0
  9
$DIMBLK
  1

  9
$DIMASO
 70
     1
  9
$DIMSHO
 70
     1
  9
$DIMPOST
  1

  9
$DIMAPOST
  1

  9
$DIMALT
 70
     0
  9
$DIMALTD
 70
     2
  9
$DIMALTF
 40
25.4
  9
$DIMLFAC
 40
1.0
  9
$DIMTOFL
 70
     0
  9
$DIMTVP
 40
0.0
  9
$DIMTIX
 70
     0
  9
$DIMSOXD
 70
     0
  9
$DIMSAH
 70
     0
  9
$DIMBLK1
  1

  9
$DIMBLK2
  1

  9
$DIMSTYLE
  2
STANDARD
  9
$DIMCLRD
 70
     0
  9
$DIMCLRE
 70
     0
  9
$DIMCLRT
 70
     0
  9
$DIMTFAC
 40
1.0
  9
$DIMGAP
 40
0.09
  9
$DIMJUST
 70
     0
  9
$DIMSD1
 70
     0
  9
$DIMSD2
 70
     0
  9
$DIMTOLJ
 70
     1
  9
$DIMTZIN
 70
     0
  9
$DIMALTZ
 70
     0
  9
$DIMALTTZ
 70
     0
  9
$DIMUPT
 70
     0
  9
$DIMDEC
 70
     4
  9
$DIMTDEC
 70
     4
  9
$DIMALTU
 70
     2
  9
$DIMALTTD
 70
     2
  9
$DIMTXSTY
  7
STANDARD
  9
$DIMAUNIT
 70
     0
  9
$DIMADEC
 70
     0
  9
$DIMALTRND
 40
0.0
  9
$DIMAZIN
 70
     0
  9
$DIMDSEP
 70
    46
  9
$DIMATFIT
 70
     3
  9
$DIMFRAC
 70
     0
  9
$DIMLDRBLK
  1

  9
$DIMLUNIT
 70
     2
  9
$DIMLWD
 70
    -2
  9
$DIMLWE
 70
    -2
  9
$DIMTMOVE
 70
     0
  9
$LUNITS
 70
     2
  9
$LUPREC
 70
     4
  9
$SKETCHINC
 40
0.1
  9
$FILLETRAD
 40
0.0
  9
$AUNITS
 70
     0
  9
$AUPREC
 70
     0
  9
$MENU
  1
.
  9
$ELEVATION
 40
0.0
  9
$PELEVATION
 40
0.0
  9
$THICKNESS
 40
0.0
  9
$LIMCHECK
 70
     0
  9
$CHAMFERA
 40
0.0
  9
$CHAMFERB
 40
0.0
  9
$CHAMFERC
 40
0.0
  9
$CHAMFERD
 40
0.0
  9
$SKPOLY
 70
     0
  9
$TDCREATE
 40
2444972.375000000
  9
$TDUCREATE
 40
2444972.000000000
  9
$TDUPDATE
 40
2455218.829108912
  9
$TDUUPDATE
 40
2455218.454108912
  9
$TDINDWG
 40
0.0047855324
  9
$TDUSRTIMER
 40
0.0047855324
  9
$USRTIMER
 70
     1
  9
$ANGBASE
 50
0.0
  9
$ANGDIR
 70
     0
  9
$PDMODE
 70
     0
  9
$PDSIZE
 40
0.0
  9
$PLINEWID
 40
0.0
  9
$SPLFRAME
 70
     0
  9
$SPLINETYPE
 70
     6
  9
$SPLINESEGS
 70
     8
  9
$HANDSEED
  5
2D4
  9
$SURFTAB1
 70
     6
  9
$SURFTAB2
 70
     6
  9
$SURFTYPE
 70
     6
  9
$SURFU
 70
     6
  9
$SURFV
 70
     6
  9
$UCSBASE
  2

  9
$UCSNAME
  2

  9
$UCSORG
 10
0.0
 20
0.0
 30
0.0
  9
$UCSXDIR
 10
1.0
 20
0.0
 30
0.0
  9
$UCSYDIR
 10
0.0
 20
1.0
 30
0.0
  9
$UCSORTHOREF
  2

  9
$UCSORTHOVIEW
 70
     0
  9
$UCSORGTOP
 10
0.0
 20
0.0
 30
0.0
  9
$UCSORGBOTTOM
 10
0.0
 20
0.0
 30
0.0
  9
$UCSORGLEFT
 10
0.0
 20
0.0
 30
0.0
  9
$UCSORGRIGHT
 10
0.0
 20
0.0
 30
0.0
  9
$UCSORGFRONT
 10
0.0
 20
0.0
 30
0.0
  9
$UCSORGBACK
 10
0.0
 20
0.0
 30
0.0
  9
$PUCSBASE
  2

  9
$PUCSNAME
  2

  9
$PUCSORG
 10
0.0
 20
0.0
 30
0.0
  9
$PUCSXDIR
 10
1.0
 20
0.0
 30
0.0
  9
$PUCSYDIR
 10
0.0
 20
1.0
 30
0.0
  9
$PUCSORTHOREF
  2

  9
$PUCSORTHOVIEW
 70
     0
  9
$PUCSORGTOP
 10
0.0
 20
0.0
 30
0.0
  9
$PUCSORGBOTTOM
 10
0.0
 20
0.0
 30
0.0
  9
$PUCSORGLEFT
 10
0.0
 20
0.0
 30
0.0
  9
$PUCSORGRIGHT
 10
0.0
 20
0.0
 30
0.0
  9
$PUCSORGFRONT
 10
0.0
 20
0.0
 30
0.0
  9
$PUCSORGBACK
 10
0.0
 20
0.0
 30
0.0
  9
$USERI1
 70
     0
  9
$USERI2
 70
     0
  9
$USERI3
 70
     0
  9
$USERI4
 70
     0
  9
$USERI5
 70
     0
  9
$USERR1
 40
0.0
  9
$USERR2
 40
0.0
  9
$USERR3
 40
0.0
  9
$USERR4
 40
0.0
  9
$USERR5
 40
0.0
  9
$WORLDVIEW
 70
     1
  9
$SHADEDGE
 70
     3
  9
$SHADEDIF
 70
    70
  9
$TILEMODE
 70
     1
  9
$MAXACTVP
 70
    48
  9
$PINSBASE
 10
0.0
 20
0.0
 30
0.0
  9
$PLIMCHECK
 70
     0
  9
$PEXTMIN
 10
1.000000000000000E+20
 20
1.000000000000000E+20
 30
1.000000000000000E+20
  9
$PEXTMAX
 10
-1.000000000000000E+20
 20
-1.000000000000000E+20
 30
-1.000000000000000E+20
  9
$PLIMMIN
 10
0.0
 20
0.0
  9
$PLIMMAX
 10
12.0
 20
9.0
  9
$UNITMODE
 70
     0
  9
$VISRETAIN
 70
     1
  9
$PLINEGEN
 70
     0
  9
$PSLTSCALE
 70
     1
  9
$TREEDEPTH
 70
  3020
  9
$CMLSTYLE
  2
STANDARD
  9
$CMLJUST
 70
     0
  9
$CMLSCALE
 40
1.0
  9
$PROXYGRAPHICS
 70
     1
  9
$MEASUREMENT
 70
     0
  9
$CELWEIGHT
370
    -1
  9
$ENDCAPS
280
     0
  9
$JOINSTYLE
280
     0
  9
$LWDISPLAY
290
     0
  9
$INSUNITS
 70
     0
  9
$HYPERLINKBASE
  1

  9
$STYLESHEET
  1

  9
$XEDIT
290
     1
  9
$CEPSNTYPE
380
     0
  9
$PSTYLEMODE
290
     1
  9
$FINGERPRINTGUID
  2
{426A8D39-2A4C-4425-9EE9-4EBF442B9494}
  9
$VERSIONGUID
  2
{68F29C22-8284-494F-B364-0C95BF2BF70A}
  9
$EXTNAMES
290
     1
  9
$PSVPSCALE
 40
0.0
  9
$OLESTARTUP
290
     0
  0
ENDSEC
  0
SECTION
  2
CLASSES
  0
CLASS
  1
ACDBDICTIONARYWDFLT
  2
AcDbDictionaryWithDefault
  3
AutoCAD 2000
 90
        0
280
     0
281
     0
  0
CLASS
  1
ACDBPLACEHOLDER
  2
AcDbPlaceHolder
  3
AutoCAD 2000
 90
        0
280
     0
281
     0
  0
CLASS
  1
LAYOUT
  2
AcDbLayout
  3
AutoCAD 2000
 90
        0
280
     0
281
     0
  0
ENDSEC
  0
SECTION
  2
TABLES
  0
TABLE
  2
VPORT
  5
8
330
0
100
AcDbSymbolTable
 70
     2
  0
VPORT
  5
2D3
330
8
100
AcDbSymbolTableRecord
100
AcDbViewportTableRecord
  2
*Active
 70
     0
 10
0.0
 20
0.0
 11
1.0
 21
1.0
 12
124.5016263205282
 22
127.4300020746615
 13
0.0
 23
0.0
 14
1.0
 24
1.0
 15
0.0
 25
0.0
 16
0.0
 26
0.0
 36
1.0
 17
0.0
 27
0.0
 37
0.0
 40
300.3813412959848
 41
1.912109375
 42
50.0
 43
0.0
 44
0.0
 50
0.0
 51
0.0
 71
     0
 72
   100
 73
     1
 74
     1
 75
     0
 76
     0
 77
     0
 78
     0
281
     0
 65
     1
110
0.0
120
0.0
130
0.0
111
1.0
121
0.0
131
0.0
112
0.0
122
1.0
132
0.0
 79
     0
146
0.0
  0
ENDTAB
  0
TABLE
  2
LTYPE
  5
5
330
0
100
AcDbSymbolTable
 70
     2
  0
LTYPE
  5
12
330
5
100
AcDbSymbolTableRecord
100
AcDbLinetypeTableRecord
  2
BYBLOCK
 70
     0
  3

 72
    65
 73
     0
 40
0.0
  0
LTYPE
  5
13
330
5
100
AcDbSymbolTableRecord
100
AcDbLinetypeTableRecord
  2
BYLAYER
 70
     0
  3

 72
    65
 73
     0
 40
0.0
  0
LTYPE
  5
14
330
5
100
AcDbSymbolTableRecord
100
AcDbLinetypeTableRecord
  2
CONTINUOUS
 70
     0
  3
Solid line
 72
    65
 73
     0
 40
0.0
  0
LTYPE
  5
1F
330
5
100
AcDbSymbolTableRecord
100
AcDbLinetypeTableRecord
  2
AIGENLINE001
 70
     0
  3
generate AI->DXF Converter
 72
    65
 73
     4
 40
5.856144999999999
 49
3.5278
 74
     0
 49
-0.776115
 74
     0
 49
0.776115
 74
     0
 49
-0.776115
 74
     0
  0
ENDTAB
  0
TABLE
  2
LAYER
  5
2
330
0
100
AcDbSymbolTable
 70
     2
  0
LAYER
  5
E
330
2
100
AcDbSymbolTableRecord
100
AcDbLayerTableRecord
  2
0
 70
     0
 62
     7
  6
CONTINUOUS
370
    -3
390
2B6
  0
LAYER
  5
20
330
2
100
AcDbSymbolTableRecord
100
AcDbLayerTableRecord
  2
_________2
 70
     0
 62
     7
  6
CONTINUOUS
370
    -3
390
2B6
  0
ENDTAB
  0
TABLE
  2
STYLE
  5
3
330
0
100
AcDbSymbolTable
 70
     1
  0
STYLE
  5
F
330
3
100
AcDbSymbolTableRecord
100
AcDbTextStyleTableRecord
  2
STANDARD
 70
     0
 40
0.0
 41
0.0
 50
0.0
 71
     0
 42
0.0
  3
TXT
  4
BIGFONT
  0
ENDTAB
  0
TABLE
  2
VIEW
  5
6
330
0
100
AcDbSymbolTable
 70
     0
  0
ENDTAB
  0
TABLE
  2
UCS
  5
7
330
0
100
AcDbSymbolTable
 70
     0
  0
ENDTAB
  0
TABLE
  2
APPID
  5
9
330
0
100
AcDbSymbolTable
 70
     1
  0
APPID
  5
10
330
9
100
AcDbSymbolTableRecord
100
AcDbRegAppTableRecord
  2
ACAD
 70
     0
  0
ENDTAB
  0
TABLE
  2
DIMSTYLE
  5
A
330
0
100
AcDbSymbolTable
 70
     1
100
AcDbDimStyleTable
 71
     0
  0
DIMSTYLE
105
2B2
330
A
100
AcDbSymbolTableRecord
100
AcDbDimStyleTableRecord
  2
STANDARD
 70
     0
340
F
  0
ENDTAB
  0
TABLE
  2
BLOCK_RECORD
  5
1
330
0
100
AcDbSymbolTable
 70
     0
  0
BLOCK_RECORD
  5
18
330
1
100
AcDbSymbolTableRecord
100
AcDbBlockTableRecord
  2
*MODEL_SPACE
340
2B9
  0
BLOCK_RECORD
  5
15
330
1
100
AcDbSymbolTableRecord
100
AcDbBlockTableRecord
  2
*PAPER_SPACE
340
2BA
  0
ENDTAB
  0
ENDSEC
  0
SECTION
  2
BLOCKS
  0
BLOCK
  5
19
330
18
100
AcDbEntity
  8
0
100
AcDbBlockBegin
  2
*MODEL_SPACE
 70
     0
 10
0.0
 20
0.0
 30
0.0
  3
*MODEL_SPACE
  1

  0
ENDBLK
  5
1A
330
18
100
AcDbEntity
  8
0
100
AcDbBlockEnd
  0
BLOCK
  5
16
330
15
100
AcDbEntity
 67
     1
  8
0
100
AcDbBlockBegin
  2
*PAPER_SPACE
 70
     0
 10
0.0
 20
0.0
 30
0.0
  3
*PAPER_SPACE
  1

  0
ENDBLK
  5
17
330
15
100
AcDbEntity
 67
     1
  8
0
100
AcDbBlockEnd
  0
ENDSEC
  0
SECTION
  2
ENTITIES
  0
TEXT
  5
22
330
18
100
AcDbEntity
  8
0
100
AcDbText
 10
154.8503724999999
 20
200.0009999999999
 30
0.0
 40
3.09234
  1
90
 41
0.5
 72
     1
 11
156.01
 21
200.0009999999999
 31
0.0
100
AcDbText
  0
TEXT
  5
23
330
18
100
AcDbEntity
  8
0
100
AcDbText
 10
60.2458
 20
233.3699999999999
 30
0.0
 40
3.09234
  1
（%%c8×50樹脂プラグ付）
 41
0.5
100
AcDbText
  0
TEXT
  5
24
330
18
100
AcDbEntity
  8
0
100
AcDbText
 10
59.687
 20
238.714
 30
0.0
 40
3.09234
  1
十字穴付皿頭SUSタッピングねじ%%c6×70
 41
0.5
100
AcDbText
  0
TEXT
  5
25
330
18
100
AcDbEntity
  8
0
100
AcDbText
 10
80.876535
 20
53.1902
 30
0.0
 40
3.09234
  1
413
 41
0.5
 72
     1
 11
82.6804
 21
53.1902
 31
0.0
100
AcDbText
  0
TEXT
  5
26
330
18
100
AcDbEntity
  8
0
100
AcDbText
 10
118.991525
 20
59.7263
 30
0.0
 40
3.09234
  1
37
 41
0.5
 72
     1
 11
120.28
 21
59.7263
 31
0.0
100
AcDbText
  0
TEXT
  5
27
330
18
100
AcDbEntity
  8
0
100
AcDbText
 10
79.64798749999999
 20
59.5857
 30
0.0
 40
3.09234
  1
350
 41
0.5
 72
     1
 11
81.5807
 21
59.5857
 31
0.0
100
AcDbText
  0
TEXT
  5
28
330
18
100
AcDbEntity
  8
0
100
AcDbText
 10
105.317
 20
127.5642875
 30
0.0
 40
3.09234
  1
570
 50
90.0
 41
0.5
 72
     1
 11
105.317
 21
129.497
 31
0.0
100
AcDbText
  0
TEXT
  5
29
330
18
100
AcDbEntity
  8
0
100
AcDbText
 10
133.5229999999999
 20
130.03544
 30
0.0
 40
3.09234
  1
596
 50
90.0
 41
0.5
 72
     1
 11
133.5229999999999
 21
132.097
 31
0.0
100
AcDbText
  0
TEXT
  5
2A
330
18
100
AcDbEntity
  8
0
100
AcDbText
 10
113.8639999999999
 20
107.0389999999999
 30
0.0
 40
3.09234
  1
%%c25
 41
0.5
100
AcDbText
  0
TEXT
  5
2B
330
18
100
AcDbEntity
  8
0
100
AcDbText
 10
114.0349999999999
 20
147.621
 30
0.0
 40
3.09234
  1
%%c32
 41
0.5
100
AcDbText
  0
TEXT
  5
2C
330
18
100
AcDbEntity
  8
0
100
AcDbText
 10
25.89249999999999
 20
71.318725
 30
0.0
 40
3.09234
  1
59
 50
90.0
 41
0.5
 72
     1
 11
25.89249999999999
 21
72.6072
 31
0.0
100
AcDbText
  0
TEXT
  5
2D
330
18
100
AcDbEntity
  8
0
100
AcDbText
 10
31.693
 20
71.44757250000001
 30
0.0
 40
3.09234
  1
40
 50
90.0
 41
0.5
 72
     1
 11
31.693
 21
72.6072
 31
0.0
100
AcDbText
  0
TEXT
  5
2E
330
18
100
AcDbEntity
  8
0
100
AcDbText
 10
45.293425
 20
91.31730000000001
 30
0.0
 40
3.09234
  1
65
 41
0.5
 72
     1
 11
46.5819
 21
91.31730000000001
 31
0.0
100
AcDbText
  0
TEXT
  5
2F
330
18
100
AcDbEntity
  8
0
100
AcDbText
 10
45.293325
 20
85.42480000000001
 30
0.0
 40
3.09234
  1
36
 41
0.5
 72
     1
 11
46.5818
 21
85.42480000000001
 31
0.0
100
AcDbText
  0
LINE
  5
30
330
18
100
AcDbEntity
  8
0
  6
AIGENLINE001
100
AcDbLine
 10
166.203
 20
72.4963
 30
0.0
 11
144.8
 21
72.4963
 31
0.0
  0
LINE
  5
31
330
18
100
AcDbEntity
  8
0
100
AcDbLine
 10
162.456
 20
70.0964
 30
0.0
 11
149.8559999999999
 21
70.0964
 31
0.0
  0
LINE
  5
32
330
18
100
AcDbEntity
  8
0
100
AcDbLine
 10
162.456
 20
74.89619999999999
 30
0.0
 11
151.656
 21
74.89619999999999
 31
0.0
  0
ARC
  5
33
330
18
100
AcDbEntity
  8
0
100
AcDbCircle
 10
149.1783509999999
 20
72.488291
 30
0.0
 40
3.222868
100
AcDbArc
 50
141.526035
 51
179.8577399999999
  0
ARC
  5
34
330
18
100
AcDbEntity
  8
0
100
AcDbCircle
 10
149.155662
 20
72.495947
 30
0.0
 40
3.200168999999999
100
AcDbArc
 50
179.9938019999999
 51
269.9938519999999
  0
ARC
  5
35
330
18
100
AcDbEntity
  8
0
100
AcDbCircle
 10
149.143309
 20
72.52907399999999
 30
0.0
 40
3.233318999999999
100
AcDbArc
 50
270.212823
 51
311.166848
  0
ARC
  5
36
330
18
100
AcDbEntity
  8
0
100
AcDbCircle
 10
149.251805
 20
72.59206299999999
 30
0.0
 40
2.59803
100
AcDbArc
 50
182.1125959999999
 51
267.871644
  0
ARC
  5
37
330
18
100
AcDbEntity
  8
0
100
AcDbCircle
 10
149.1553179999999
 20
72.49629200000001
 30
0.0
 40
2.500466999999999
100
AcDbArc
 50
270.00002
 51
359.9999899999999
  0
LINE
  5
38
330
18
100
AcDbEntity
  8
0
  6
AIGENLINE001
100
AcDbLine
 10
149.1559999999999
 20
67.83129999999999
 30
0.0
 11
149.1559999999999
 21
194.414
 31
0.0
  0
LINE
  5
39
330
18
100
AcDbEntity
  8
0
100
AcDbLine
 10
175.262
 20
77.0962
 30
0.0
 11
175.754
 21
75.89629999999999
 31
0.0
  0
LINE
  5
3A
330
18
100
AcDbEntity
  8
0
100
AcDbLine
 10
174.46
 20
77.0962
 30
0.0
 11
174.9519999999999
 21
75.89629999999999
 31
0.0
  0
LINE
  5
3B
330
18
100
AcDbEntity
  8
0
100
AcDbLine
 10
173.659
 20
77.0962
 30
0.0
 11
174.1509999999999
 21
75.89629999999999
 31
0.0
  0
LINE
  5
3C
330
18
100
AcDbEntity
  8
0
100
AcDbLine
 10
172.858
 20
77.0962
 30
0.0
 11
173.35
 21
75.89629999999999
 31
0.0
  0
LINE
  5
3D
330
18
100
AcDbEntity
  8
0
100
AcDbLine
 10
172.0559999999999
 20
77.0962
 30
0.0
 11
172.549
 21
75.89629999999999
 31
0.0
  0
LINE
  5
3E
330
18
100
AcDbEntity
  8
0
100
AcDbLine
 10
171.255
 20
77.0962
 30
0.0
 11
171.747
 21
75.89629999999999
 31
0.0
  0
LINE
  5
3F
330
18
100
AcDbEntity
  8
0
100
AcDbLine
 10
170.454
 20
77.0962
 30
0.0
 11
170.9459999999999
 21
75.89629999999999
 31
0.0
  0
LINE
  5
40
330
18
100
AcDbEntity
  8
0
100
AcDbLine
 10
169.652
 20
77.0962
 30
0.0
 11
170.145
 21
75.89629999999999
 31
0.0
  0
LINE
  5
41
330
18
100
AcDbEntity
  8
0
100
AcDbLine
 10
168.8509999999999
 20
77.0962
 30
0.0
 11
169.343
 21
75.89629999999999
 31
0.0
  0
LINE
  5
42
330
18
100
AcDbEntity
  8
0
100
AcDbLine
 10
168.05
 20
77.0962
 30
0.0
 11
168.542
 21
75.89629999999999
 31
0.0
  0
LINE
  5
43
330
18
100
AcDbEntity
  8
0
100
AcDbLine
 10
167.249
 20
77.0962
 30
0.0
 11
167.74
 21
75.89629999999999
 31
0.0
  0
LINE
  5
44
330
18
100
AcDbEntity
  8
0
100
AcDbLine
 10
166.447
 20
77.0962
 30
0.0
 11
166.9399999999999
 21
75.89629999999999
 31
0.0
  0
LINE
  5
45
330
18
100
AcDbEntity
  8
0
100
AcDbLine
 10
165.6459999999999
 20
77.0962
 30
0.0
 11
166.138
 21
75.89629999999999
 31
0.0
  0
LINE
  5
46
330
18
100
AcDbEntity
  8
0
100
AcDbLine
 10
176.6559999999999
 20
76.4961
 30
0.0
 11
175.745
 21
76.1888
 31
0.0
  0
LINE
  5
47
330
18
100
AcDbEntity
  8
0
100
AcDbLine
 10
176.6559999999999
 20
76.4961
 30
0.0
 11
175.745
 21
76.80299999999999
 31
0.0
  0
LINE
  5
48
330
18
100
AcDbEntity
  8
0
100
AcDbLine
 10
164.6559999999999
 20
76.1888
 30
0.0
 11
175.745
 21
76.1888
 31
0.0
  0
LINE
  5
49
330
18
100
AcDbEntity
  8
0
100
AcDbLine
 10
164.6559999999999
 20
76.80299999999999
 30
0.0
 11
175.745
 21
76.80299999999999
 31
0.0
  0
LINE
  5
4A
330
18
100
AcDbEntity
  8
0
  6
AIGENLINE001
100
AcDbLine
 10
163.806
 20
76.4961
 30
0.0
 11
177.4729999999999
 21
76.4961
 31
0.0
  0
LINE
  5
4B
330
18
100
AcDbEntity
  8
0
100
AcDbLine
 10
164.8449999999999
 20
77.0962
 30
0.0
 11
165.3359999999999
 21
75.89629999999999
 31
0.0
  0
LINE
  5
4C
330
18
100
AcDbEntity
  8
0
100
AcDbLine
 10
164.6559999999999
 20
66.5962
 30
0.0
 11
162.456
 21
66.5962
 31
0.0
  0
LINE
  5
4D
330
18
100
AcDbEntity
  8
0
100
AcDbLine
 10
162.456
 20
78.3961
 30
0.0
 11
164.6559999999999
 21
78.3961
 31
0.0
  0
LINE
  5
4E
330
18
100
AcDbEntity
  8
0
100
AcDbLine
 10
162.456
 20
66.5962
 30
0.0
 11
162.456
 21
78.3961
 31
0.0
  0
LINE
  5
4F
330
18
100
AcDbEntity
  8
0
100
AcDbLine
 10
164.6559999999999
 20
66.5962
 30
0.0
 11
164.6559999999999
 21
78.3961
 31
0.0
  0
LINE
  5
50
330
18
100
AcDbEntity
  8
0
100
AcDbLine
 10
175.262
 20
69.09629999999999
 30
0.0
 11
175.754
 21
67.8964
 31
0.0
  0
LINE
  5
51
330
18
100
AcDbEntity
  8
0
100
AcDbLine
 10
174.46
 20
69.09629999999999
 30
0.0
 11
174.9519999999999
 21
67.8964
 31
0.0
  0
LINE
  5
52
330
18
100
AcDbEntity
  8
0
100
AcDbLine
 10
173.659
 20
69.09629999999999
 30
0.0
 11
174.1509999999999
 21
67.8964
 31
0.0
  0
LINE
  5
53
330
18
100
AcDbEntity
  8
0
100
AcDbLine
 10
172.858
 20
69.09629999999999
 30
0.0
 11
173.35
 21
67.8964
 31
0.0
  0
LINE
  5
54
330
18
100
AcDbEntity
  8
0
100
AcDbLine
 10
172.0559999999999
 20
69.09629999999999
 30
0.0
 11
172.549
 21
67.8964
 31
0.0
  0
LINE
  5
55
330
18
100
AcDbEntity
  8
0
100
AcDbLine
 10
171.255
 20
69.09629999999999
 30
0.0
 11
171.747
 21
67.8964
 31
0.0
  0
LINE
  5
56
330
18
100
AcDbEntity
  8
0
100
AcDbLine
 10
170.454
 20
69.09629999999999
 30
0.0
 11
170.9459999999999
 21
67.8964
 31
0.0
  0
LINE
  5
57
330
18
100
AcDbEntity
  8
0
100
AcDbLine
 10
169.652
 20
69.09629999999999
 30
0.0
 11
170.144
 21
67.8964
 31
0.0
  0
LINE
  5
58
330
18
100
AcDbEntity
  8
0
100
AcDbLine
 10
168.8509999999999
 20
69.09629999999999
 30
0.0
 11
169.343
 21
67.8964
 31
0.0
  0
LINE
  5
59
330
18
100
AcDbEntity
  8
0
100
AcDbLine
 10
168.05
 20
69.09629999999999
 30
0.0
 11
168.542
 21
67.8964
 31
0.0
  0
LINE
  5
5A
330
18
100
AcDbEntity
  8
0
100
AcDbLine
 10
167.249
 20
69.09629999999999
 30
0.0
 11
167.74
 21
67.8964
 31
0.0
  0
LINE
  5
5B
330
18
100
AcDbEntity
  8
0
100
AcDbLine
 10
166.447
 20
69.09629999999999
 30
0.0
 11
166.939
 21
67.8964
 31
0.0
  0
LINE
  5
5C
330
18
100
AcDbEntity
  8
0
100
AcDbLine
 10
165.6459999999999
 20
69.09629999999999
 30
0.0
 11
166.138
 21
67.8964
 31
0.0
  0
LINE
  5
5D
330
18
100
AcDbEntity
  8
0
100
AcDbLine
 10
176.6559999999999
 20
68.4962
 30
0.0
 11
175.745
 21
68.1892
 31
0.0
  0
LINE
  5
5E
330
18
100
AcDbEntity
  8
0
100
AcDbLine
 10
176.6559999999999
 20
68.4962
 30
0.0
 11
175.745
 21
68.8031
 31
0.0
  0
LINE
  5
5F
330
18
100
AcDbEntity
  8
0
100
AcDbLine
 10
164.6559999999999
 20
68.1892
 30
0.0
 11
175.745
 21
68.1892
 31
0.0
  0
LINE
  5
60
330
18
100
AcDbEntity
  8
0
100
AcDbLine
 10
164.6559999999999
 20
68.8031
 30
0.0
 11
175.745
 21
68.8031
 31
0.0
  0
LINE
  5
61
330
18
100
AcDbEntity
  8
0
  6
AIGENLINE001
100
AcDbLine
 10
163.806
 20
68.4962
 30
0.0
 11
177.4729999999999
 21
68.4962
 31
0.0
  0
LINE
  5
62
330
18
100
AcDbEntity
  8
0
100
AcDbLine
 10
164.844
 20
69.09629999999999
 30
0.0
 11
165.3359999999999
 21
67.8964
 31
0.0
  0
LINE
  5
63
330
18
100
AcDbEntity
  8
0
100
AcDbLine
 10
146.656
 20
192.257
 30
0.0
 11
146.656
 21
199.877
 31
0.0
  0
LINE
  5
64
330
18
100
AcDbEntity
  8
0
100
AcDbLine
 10
148.868
 20
199.9029999999999
 30
0.0
 11
146.656
 21
199.31
 31
0.0
  0
LINE
  5
65
330
18
100
AcDbEntity
  8
0
100
AcDbLine
 10
146.656
 20
199.31
 30
0.0
 11
148.868
 21
198.717
 31
0.0
  0
LINE
  5
66
330
18
100
AcDbEntity
  8
0
100
AcDbLine
 10
148.868
 20
198.717
 30
0.0
 11
148.868
 21
199.9029999999999
 31
0.0
  0
LINE
  5
67
330
18
100
AcDbEntity
  8
0
100
AcDbLine
 10
162.4439999999999
 20
198.732
 30
0.0
 11
164.6559999999999
 21
199.324
 31
0.0
  0
LINE
  5
68
330
18
100
AcDbEntity
  8
0
100
AcDbLine
 10
164.6559999999999
 20
199.324
 30
0.0
 11
162.4439999999999
 21
199.917
 31
0.0
  0
LINE
  5
69
330
18
100
AcDbEntity
  8
0
100
AcDbLine
 10
162.4439999999999
 20
199.917
 30
0.0
 11
162.4439999999999
 21
198.732
 31
0.0
  0
LINE
  5
6A
330
18
100
AcDbEntity
  8
0
100
AcDbLine
 10
146.656
 20
199.317
 30
0.0
 11
164.6559999999999
 21
199.317
 31
0.0
  0
LINE
  5
6B
330
18
100
AcDbEntity
  8
0
100
AcDbLine
 10
164.6559999999999
 20
193.557
 30
0.0
 11
164.6559999999999
 21
199.877
 31
0.0
  0
ARC
  5
6C
330
18
100
AcDbEntity
  8
0
100
AcDbCircle
 10
149.6652579999999
 20
137.996928
 30
0.0
 40
3.080454999999999
100
AcDbArc
 50
330.8601959999999
 51
29.139804
  0
LINE
  5
6D
330
18
100
AcDbEntity
  8
0
100
AcDbLine
 10
149.556
 20
137.997
 30
0.0
 11
152.066
 21
136.652
 31
0.0
  0
LINE
  5
6E
330
18
100
AcDbEntity
  8
0
100
AcDbLine
 10
149.556
 20
137.997
 30
0.0
 11
152.066
 21
139.342
 31
0.0
  0
ARC
  5
6F
330
18
100
AcDbEntity
  8
0
100
AcDbCircle
 10
149.6651019999999
 20
132.996943
 30
0.0
 40
3.080633
100
AcDbArc
 50
330.8602089999999
 51
29.139791
  0
LINE
  5
70
330
18
100
AcDbEntity
  8
0
100
AcDbLine
 10
149.556
 20
132.997
 30
0.0
 11
152.066
 21
131.652
 31
0.0
  0
LINE
  5
71
330
18
100
AcDbEntity
  8
0
100
AcDbLine
 10
149.556
 20
132.997
 30
0.0
 11
152.066
 21
134.342
 31
0.0
  0
ARC
  5
72
330
18
100
AcDbEntity
  8
0
100
AcDbCircle
 10
149.6663489999999
 20
127.997561
 30
0.0
 40
3.079208
100
AcDbArc
 50
330.860106
 51
29.139894
  0
LINE
  5
73
330
18
100
AcDbEntity
  8
0
100
AcDbLine
 10
149.556
 20
127.9989999999999
 30
0.0
 11
152.066
 21
126.6539999999999
 31
0.0
  0
LINE
  5
74
330
18
100
AcDbEntity
  8
0
100
AcDbLine
 10
149.556
 20
127.9989999999999
 30
0.0
 11
152.066
 21
129.342
 31
0.0
  0
ARC
  5
75
330
18
100
AcDbEntity
  8
0
100
AcDbCircle
 10
149.6649459999999
 20
122.9980929999999
 30
0.0
 40
3.080811
100
AcDbArc
 50
330.860222
 51
29.13977800000001
  0
LINE
  5
76
330
18
100
AcDbEntity
  8
0
100
AcDbLine
 10
149.556
 20
122.9979999999999
 30
0.0
 11
152.066
 21
121.6529999999999
 31
0.0
  0
LINE
  5
77
330
18
100
AcDbEntity
  8
0
100
AcDbLine
 10
149.556
 20
122.9979999999999
 30
0.0
 11
152.066
 21
124.3429999999999
 31
0.0
  0
LINE
  5
78
330
18
100
AcDbEntity
  8
0
100
AcDbLine
 10
145.955
 20
120.652
 30
0.0
 11
145.955
 21
140.497
 31
0.0
  0
LINE
  5
79
330
18
100
AcDbEntity
  8
0
100
AcDbLine
 10
151.656
 20
119.6979999999999
 30
0.0
 11
146.656
 21
119.6979999999999
 31
0.0
  0
ARC
  5
7A
330
18
100
AcDbEntity
  8
0
100
AcDbCircle
 10
146.984108
 20
120.6731329999999
 30
0.0
 40
1.028821999999999
100
AcDbArc
 50
181.149982
 51
251.375658
  0
LINE
  5
7B
330
18
100
AcDbEntity
  8
0
100
AcDbLine
 10
152.3559999999999
 20
139.496
 30
0.0
 11
152.3559999999999
 21
140.497
 31
0.0
  0
LINE
  5
7C
330
18
100
AcDbEntity
  8
0
100
AcDbLine
 10
152.3559999999999
 20
134.497
 30
0.0
 11
152.3559999999999
 21
136.497
 31
0.0
  0
LINE
  5
7D
330
18
100
AcDbEntity
  8
0
100
AcDbLine
 10
152.3559999999999
 20
129.497
 30
0.0
 11
152.3559999999999
 21
131.497
 31
0.0
  0
LINE
  5
7E
330
18
100
AcDbEntity
  8
0
100
AcDbLine
 10
152.3559999999999
 20
124.4979999999999
 30
0.0
 11
152.3559999999999
 21
126.499
 31
0.0
  0
LINE
  5
7F
330
18
100
AcDbEntity
  8
0
100
AcDbLine
 10
152.3559999999999
 20
120.652
 30
0.0
 11
152.3559999999999
 21
121.4979999999999
 31
0.0
  0
ARC
  5
80
330
18
100
AcDbEntity
  8
0
100
AcDbCircle
 10
151.328287
 20
120.6723489999999
 30
0.0
 40
1.027737
100
AcDbArc
 50
288.58184
 51
358.89256
  0
LINE
  5
81
330
18
100
AcDbEntity
  8
0
100
AcDbLine
 10
151.656
 20
72.4963
 30
0.0
 11
151.656
 21
119.6979999999999
 31
0.0
  0
LINE
  5
82
330
18
100
AcDbEntity
  8
0
100
AcDbLine
 10
146.656
 20
72.4963
 30
0.0
 11
146.656
 21
119.6979999999999
 31
0.0
  0
LINE
  5
83
330
18
100
AcDbEntity
  8
0
100
AcDbLine
 10
175.2609999999999
 20
190.697
 30
0.0
 11
175.7529999999999
 21
189.497
 31
0.0
  0
LINE
  5
84
330
18
100
AcDbEntity
  8
0
100
AcDbLine
 10
174.46
 20
190.697
 30
0.0
 11
174.9519999999999
 21
189.497
 31
0.0
  0
LINE
  5
85
330
18
100
AcDbEntity
  8
0
100
AcDbLine
 10
173.658
 20
190.697
 30
0.0
 11
174.15
 21
189.497
 31
0.0
  0
LINE
  5
86
330
18
100
AcDbEntity
  8
0
100
AcDbLine
 10
172.8569999999999
 20
190.697
 30
0.0
 11
173.349
 21
189.497
 31
0.0
  0
LINE
  5
87
330
18
100
AcDbEntity
  8
0
100
AcDbLine
 10
172.0559999999999
 20
190.697
 30
0.0
 11
172.548
 21
189.497
 31
0.0
  0
LINE
  5
88
330
18
100
AcDbEntity
  8
0
100
AcDbLine
 10
171.255
 20
190.697
 30
0.0
 11
171.747
 21
189.497
 31
0.0
  0
LINE
  5
89
330
18
100
AcDbEntity
  8
0
100
AcDbLine
 10
170.454
 20
190.697
 30
0.0
 11
170.9459999999999
 21
189.497
 31
0.0
  0
LINE
  5
8A
330
18
100
AcDbEntity
  8
0
100
AcDbLine
 10
169.652
 20
190.697
 30
0.0
 11
170.144
 21
189.497
 31
0.0
  0
LINE
  5
8B
330
18
100
AcDbEntity
  8
0
100
AcDbLine
 10
168.8509999999999
 20
190.697
 30
0.0
 11
169.343
 21
189.497
 31
0.0
  0
LINE
  5
8C
330
18
100
AcDbEntity
  8
0
100
AcDbLine
 10
168.0489999999999
 20
190.697
 30
0.0
 11
168.541
 21
189.497
 31
0.0
  0
LINE
  5
8D
330
18
100
AcDbEntity
  8
0
100
AcDbLine
 10
167.248
 20
190.697
 30
0.0
 11
167.74
 21
189.497
 31
0.0
  0
LINE
  5
8E
330
18
100
AcDbEntity
  8
0
100
AcDbLine
 10
166.447
 20
190.697
 30
0.0
 11
166.939
 21
189.497
 31
0.0
  0
LINE
  5
8F
330
18
100
AcDbEntity
  8
0
100
AcDbLine
 10
165.6459999999999
 20
190.697
 30
0.0
 11
166.138
 21
189.497
 31
0.0
  0
LINE
  5
90
330
18
100
AcDbEntity
  8
0
100
AcDbLine
 10
176.6559999999999
 20
190.097
 30
0.0
 11
175.744
 21
189.7899999999999
 31
0.0
  0
LINE
  5
91
330
18
100
AcDbEntity
  8
0
100
AcDbLine
 10
176.6559999999999
 20
190.097
 30
0.0
 11
175.744
 21
190.404
 31
0.0
  0
LINE
  5
92
330
18
100
AcDbEntity
  8
0
100
AcDbLine
 10
164.6559999999999
 20
189.7899999999999
 30
0.0
 11
175.744
 21
189.7899999999999
 31
0.0
  0
LINE
  5
93
330
18
100
AcDbEntity
  8
0
100
AcDbLine
 10
164.6559999999999
 20
190.404
 30
0.0
 11
175.744
 21
190.404
 31
0.0
  0
LINE
  5
94
330
18
100
AcDbEntity
  8
0
  6
AIGENLINE001
100
AcDbLine
 10
163.8049999999999
 20
190.097
 30
0.0
 11
177.4729999999999
 21
190.097
 31
0.0
  0
LINE
  5
95
330
18
100
AcDbEntity
  8
0
100
AcDbLine
 10
164.844
 20
190.697
 30
0.0
 11
165.3359999999999
 21
189.497
 31
0.0
  0
LINE
  5
96
330
18
100
AcDbEntity
  8
0
100
AcDbLine
 10
175.2609999999999
 20
187.0969999999999
 30
0.0
 11
175.7529999999999
 21
185.897
 31
0.0
  0
LINE
  5
97
330
18
100
AcDbEntity
  8
0
100
AcDbLine
 10
174.46
 20
187.0969999999999
 30
0.0
 11
174.9519999999999
 21
185.897
 31
0.0
  0
LINE
  5
98
330
18
100
AcDbEntity
  8
0
100
AcDbLine
 10
173.658
 20
187.0969999999999
 30
0.0
 11
174.15
 21
185.897
 31
0.0
  0
LINE
  5
99
330
18
100
AcDbEntity
  8
0
100
AcDbLine
 10
172.8569999999999
 20
187.0969999999999
 30
0.0
 11
173.349
 21
185.897
 31
0.0
  0
LINE
  5
9A
330
18
100
AcDbEntity
  8
0
100
AcDbLine
 10
172.0559999999999
 20
187.0969999999999
 30
0.0
 11
172.548
 21
185.897
 31
0.0
  0
LINE
  5
9B
330
18
100
AcDbEntity
  8
0
100
AcDbLine
 10
171.255
 20
187.0969999999999
 30
0.0
 11
171.747
 21
185.897
 31
0.0
  0
LINE
  5
9C
330
18
100
AcDbEntity
  8
0
100
AcDbLine
 10
170.454
 20
187.0969999999999
 30
0.0
 11
170.9459999999999
 21
185.897
 31
0.0
  0
LINE
  5
9D
330
18
100
AcDbEntity
  8
0
100
AcDbLine
 10
169.652
 20
187.0969999999999
 30
0.0
 11
170.144
 21
185.897
 31
0.0
  0
LINE
  5
9E
330
18
100
AcDbEntity
  8
0
100
AcDbLine
 10
168.8509999999999
 20
187.0969999999999
 30
0.0
 11
169.343
 21
185.897
 31
0.0
  0
LINE
  5
9F
330
18
100
AcDbEntity
  8
0
100
AcDbLine
 10
168.0489999999999
 20
187.0969999999999
 30
0.0
 11
168.541
 21
185.897
 31
0.0
  0
LINE
  5
A0
330
18
100
AcDbEntity
  8
0
100
AcDbLine
 10
167.248
 20
187.0969999999999
 30
0.0
 11
167.74
 21
185.897
 31
0.0
  0
LINE
  5
A1
330
18
100
AcDbEntity
  8
0
100
AcDbLine
 10
166.447
 20
187.0969999999999
 30
0.0
 11
166.939
 21
185.897
 31
0.0
  0
LINE
  5
A2
330
18
100
AcDbEntity
  8
0
100
AcDbLine
 10
165.6459999999999
 20
187.0969999999999
 30
0.0
 11
166.138
 21
185.897
 31
0.0
  0
LINE
  5
A3
330
18
100
AcDbEntity
  8
0
100
AcDbLine
 10
176.6559999999999
 20
186.497
 30
0.0
 11
175.744
 21
186.19
 31
0.0
  0
LINE
  5
A4
330
18
100
AcDbEntity
  8
0
100
AcDbLine
 10
176.6559999999999
 20
186.497
 30
0.0
 11
175.744
 21
186.804
 31
0.0
  0
LINE
  5
A5
330
18
100
AcDbEntity
  8
0
100
AcDbLine
 10
164.6559999999999
 20
186.19
 30
0.0
 11
175.744
 21
186.19
 31
0.0
  0
LINE
  5
A6
330
18
100
AcDbEntity
  8
0
100
AcDbLine
 10
164.6559999999999
 20
186.804
 30
0.0
 11
175.744
 21
186.804
 31
0.0
  0
LINE
  5
A7
330
18
100
AcDbEntity
  8
0
  6
AIGENLINE001
100
AcDbLine
 10
163.8049999999999
 20
186.497
 30
0.0
 11
177.4729999999999
 21
186.497
 31
0.0
  0
LINE
  5
A8
330
18
100
AcDbEntity
  8
0
100
AcDbLine
 10
164.844
 20
187.0969999999999
 30
0.0
 11
165.3359999999999
 21
185.897
 31
0.0
  0
LINE
  5
A9
330
18
100
AcDbEntity
  8
0
100
AcDbLine
 10
175.2609999999999
 20
183.497
 30
0.0
 11
175.7529999999999
 21
182.2969999999999
 31
0.0
  0
LINE
  5
AA
330
18
100
AcDbEntity
  8
0
100
AcDbLine
 10
174.46
 20
183.497
 30
0.0
 11
174.9519999999999
 21
182.2969999999999
 31
0.0
  0
LINE
  5
AB
330
18
100
AcDbEntity
  8
0
100
AcDbLine
 10
173.658
 20
183.497
 30
0.0
 11
174.15
 21
182.2969999999999
 31
0.0
  0
LINE
  5
AC
330
18
100
AcDbEntity
  8
0
100
AcDbLine
 10
172.8569999999999
 20
183.497
 30
0.0
 11
173.349
 21
182.2969999999999
 31
0.0
  0
LINE
  5
AD
330
18
100
AcDbEntity
  8
0
100
AcDbLine
 10
172.0559999999999
 20
183.497
 30
0.0
 11
172.548
 21
182.2969999999999
 31
0.0
  0
LINE
  5
AE
330
18
100
AcDbEntity
  8
0
100
AcDbLine
 10
171.255
 20
183.497
 30
0.0
 11
171.747
 21
182.2969999999999
 31
0.0
  0
LINE
  5
AF
330
18
100
AcDbEntity
  8
0
100
AcDbLine
 10
170.454
 20
183.497
 30
0.0
 11
170.9459999999999
 21
182.2969999999999
 31
0.0
  0
LINE
  5
B0
330
18
100
AcDbEntity
  8
0
100
AcDbLine
 10
169.652
 20
183.497
 30
0.0
 11
170.144
 21
182.2969999999999
 31
0.0
  0
LINE
  5
B1
330
18
100
AcDbEntity
  8
0
100
AcDbLine
 10
168.8509999999999
 20
183.497
 30
0.0
 11
169.343
 21
182.2969999999999
 31
0.0
  0
LINE
  5
B2
330
18
100
AcDbEntity
  8
0
100
AcDbLine
 10
168.0489999999999
 20
183.497
 30
0.0
 11
168.541
 21
182.2969999999999
 31
0.0
  0
LINE
  5
B3
330
18
100
AcDbEntity
  8
0
100
AcDbLine
 10
167.248
 20
183.497
 30
0.0
 11
167.74
 21
182.2969999999999
 31
0.0
  0
LINE
  5
B4
330
18
100
AcDbEntity
  8
0
100
AcDbLine
 10
166.447
 20
183.497
 30
0.0
 11
166.939
 21
182.2969999999999
 31
0.0
  0
LINE
  5
B5
330
18
100
AcDbEntity
  8
0
100
AcDbLine
 10
165.6459999999999
 20
183.497
 30
0.0
 11
166.138
 21
182.2969999999999
 31
0.0
  0
LINE
  5
B6
330
18
100
AcDbEntity
  8
0
100
AcDbLine
 10
176.6559999999999
 20
182.897
 30
0.0
 11
175.744
 21
182.59
 31
0.0
  0
LINE
  5
B7
330
18
100
AcDbEntity
  8
0
100
AcDbLine
 10
176.6559999999999
 20
182.897
 30
0.0
 11
175.744
 21
183.204
 31
0.0
  0
LINE
  5
B8
330
18
100
AcDbEntity
  8
0
100
AcDbLine
 10
164.6559999999999
 20
182.59
 30
0.0
 11
175.744
 21
182.59
 31
0.0
  0
LINE
  5
B9
330
18
100
AcDbEntity
  8
0
100
AcDbLine
 10
164.6559999999999
 20
183.204
 30
0.0
 11
175.744
 21
183.204
 31
0.0
  0
LINE
  5
BA
330
18
100
AcDbEntity
  8
0
  6
AIGENLINE001
100
AcDbLine
 10
163.8049999999999
 20
182.897
 30
0.0
 11
177.4729999999999
 21
182.897
 31
0.0
  0
LINE
  5
BB
330
18
100
AcDbEntity
  8
0
100
AcDbLine
 10
164.844
 20
183.497
 30
0.0
 11
165.3359999999999
 21
182.2969999999999
 31
0.0
  0
ARC
  5
BC
330
18
100
AcDbEntity
  8
0
100
AcDbCircle
 10
149.6649459999999
 20
142.996482
 30
0.0
 40
3.080811
100
AcDbArc
 50
330.860222
 51
29.13977800000001
  0
LINE
  5
BD
330
18
100
AcDbEntity
  8
0
100
AcDbLine
 10
149.556
 20
142.996
 30
0.0
 11
152.066
 21
144.341
 31
0.0
  0
LINE
  5
BE
330
18
100
AcDbEntity
  8
0
100
AcDbLine
 10
149.556
 20
142.996
 30
0.0
 11
152.066
 21
141.652
 31
0.0
  0
ARC
  5
BF
330
18
100
AcDbEntity
  8
0
100
AcDbCircle
 10
149.6649459999999
 20
147.996553
 30
0.0
 40
3.080811
100
AcDbArc
 50
330.860222
 51
29.13977800000001
  0
LINE
  5
C0
330
18
100
AcDbEntity
  8
0
100
AcDbLine
 10
149.556
 20
147.997
 30
0.0
 11
152.066
 21
149.341
 31
0.0
  0
LINE
  5
C1
330
18
100
AcDbEntity
  8
0
100
AcDbLine
 10
149.556
 20
147.997
 30
0.0
 11
152.066
 21
146.652
 31
0.0
  0
ARC
  5
C2
330
18
100
AcDbEntity
  8
0
100
AcDbCircle
 10
149.6651019999999
 20
152.99671
 30
0.0
 40
3.080633
100
AcDbArc
 50
330.8602089999999
 51
29.139791
  0
LINE
  5
C3
330
18
100
AcDbEntity
  8
0
100
AcDbLine
 10
149.556
 20
152.997
 30
0.0
 11
152.066
 21
154.341
 31
0.0
  0
LINE
  5
C4
330
18
100
AcDbEntity
  8
0
100
AcDbLine
 10
149.556
 20
152.997
 30
0.0
 11
152.066
 21
151.652
 31
0.0
  0
ARC
  5
C5
330
18
100
AcDbEntity
  8
0
100
AcDbCircle
 10
149.666512
 20
157.996695
 30
0.0
 40
3.079359999999999
100
AcDbArc
 50
330.848834
 51
29.151166
  0
LINE
  5
C6
330
18
100
AcDbEntity
  8
0
100
AcDbLine
 10
149.556
 20
157.997
 30
0.0
 11
152.066
 21
159.341
 31
0.0
  0
LINE
  5
C7
330
18
100
AcDbEntity
  8
0
100
AcDbLine
 10
149.556
 20
157.997
 30
0.0
 11
152.066
 21
156.652
 31
0.0
  0
LINE
  5
C8
330
18
100
AcDbEntity
  8
0
100
AcDbLine
 10
145.955
 20
160.3429999999999
 30
0.0
 11
145.955
 21
140.497
 31
0.0
  0
LINE
  5
C9
330
18
100
AcDbEntity
  8
0
100
AcDbLine
 10
151.656
 20
161.2969999999999
 30
0.0
 11
146.656
 21
161.2969999999999
 31
0.0
  0
ARC
  5
CA
330
18
100
AcDbEntity
  8
0
100
AcDbCircle
 10
146.9843309999999
 20
160.32148
 30
0.0
 40
1.029058999999999
100
AcDbArc
 50
108.633005
 51
178.811751
  0
LINE
  5
CB
330
18
100
AcDbEntity
  8
0
100
AcDbLine
 10
152.3559999999999
 20
141.497
 30
0.0
 11
152.3559999999999
 21
140.497
 31
0.0
  0
LINE
  5
CC
330
18
100
AcDbEntity
  8
0
100
AcDbLine
 10
152.3559999999999
 20
146.497
 30
0.0
 11
152.3559999999999
 21
144.497
 31
0.0
  0
LINE
  5
CD
330
18
100
AcDbEntity
  8
0
100
AcDbLine
 10
152.3559999999999
 20
151.497
 30
0.0
 11
152.3559999999999
 21
149.497
 31
0.0
  0
LINE
  5
CE
330
18
100
AcDbEntity
  8
0
100
AcDbLine
 10
152.3559999999999
 20
156.496
 30
0.0
 11
152.3559999999999
 21
154.496
 31
0.0
  0
LINE
  5
CF
330
18
100
AcDbEntity
  8
0
100
AcDbLine
 10
152.3559999999999
 20
160.3429999999999
 30
0.0
 11
152.3559999999999
 21
159.497
 31
0.0
  0
ARC
  5
D0
330
18
100
AcDbEntity
  8
0
100
AcDbCircle
 10
151.3278999999999
 20
160.322145
 30
0.0
 40
1.028140999999999
100
AcDbArc
 50
1.152266
 51
71.402939
  0
LINE
  5
D1
330
18
100
AcDbEntity
  8
0
100
AcDbLine
 10
150.256
 20
190.697
 30
0.0
 11
162.456
 21
190.697
 31
0.0
  0
LINE
  5
D2
330
18
100
AcDbEntity
  8
0
100
AcDbLine
 10
150.256
 20
190.697
 30
0.0
 11
150.256
 21
182.2969999999999
 31
0.0
  0
LINE
  5
D3
330
18
100
AcDbEntity
  8
0
100
AcDbLine
 10
162.456
 20
179.997
 30
0.0
 11
164.6559999999999
 21
179.997
 31
0.0
  0
LINE
  5
D4
330
18
100
AcDbEntity
  8
0
100
AcDbLine
 10
162.456
 20
192.997
 30
0.0
 11
164.6559999999999
 21
192.997
 31
0.0
  0
LINE
  5
D5
330
18
100
AcDbEntity
  8
0
100
AcDbLine
 10
162.456
 20
192.997
 30
0.0
 11
162.456
 21
179.997
 31
0.0
  0
LINE
  5
D6
330
18
100
AcDbEntity
  8
0
100
AcDbLine
 10
164.6559999999999
 20
192.997
 30
0.0
 11
164.6559999999999
 21
179.997
 31
0.0
  0
LINE
  5
D7
330
18
100
AcDbEntity
  8
0
100
AcDbLine
 10
150.256
 20
182.2969999999999
 30
0.0
 11
162.456
 21
182.2969999999999
 31
0.0
  0
LINE
  5
D8
330
18
100
AcDbEntity
  8
0
100
AcDbLine
 10
151.656
 20
191.097
 30
0.0
 11
146.656
 21
191.097
 31
0.0
  0
LINE
  5
D9
330
18
100
AcDbEntity
  8
0
100
AcDbLine
 10
151.656
 20
191.697
 30
0.0
 11
146.656
 21
191.697
 31
0.0
  0
LINE
  5
DA
330
18
100
AcDbEntity
  8
0
100
AcDbLine
 10
151.656
 20
182.2969999999999
 30
0.0
 11
151.656
 21
161.2969999999999
 31
0.0
  0
LINE
  5
DB
330
18
100
AcDbEntity
  8
0
100
AcDbLine
 10
151.656
 20
191.697
 30
0.0
 11
151.656
 21
190.697
 31
0.0
  0
LINE
  5
DC
330
18
100
AcDbEntity
  8
0
100
AcDbLine
 10
146.656
 20
191.697
 30
0.0
 11
146.656
 21
161.2969999999999
 31
0.0
  0
LINE
  5
DD
330
18
100
AcDbEntity
  8
0
100
AcDbLine
 10
120.4879999999999
 20
239.09
 30
0.0
 11
120.781
 21
239.21
 31
0.0
  0
LINE
  5
DE
330
18
100
AcDbEntity
  8
0
100
AcDbLine
 10
120.4879999999999
 20
238.289
 30
0.0
 11
120.781
 21
238.409
 31
0.0
  0
LINE
  5
DF
330
18
100
AcDbEntity
  8
0
100
AcDbLine
 10
120.4879999999999
 20
237.487
 30
0.0
 11
120.781
 21
237.6079999999999
 31
0.0
  0
LINE
  5
E0
330
18
100
AcDbEntity
  8
0
100
AcDbLine
 10
120.4879999999999
 20
236.6859999999999
 30
0.0
 11
120.781
 21
236.8059999999999
 31
0.0
  0
LINE
  5
E1
330
18
100
AcDbEntity
  8
0
100
AcDbLine
 10
120.4879999999999
 20
235.884
 30
0.0
 11
120.781
 21
236.005
 31
0.0
  0
LINE
  5
E2
330
18
100
AcDbEntity
  8
0
100
AcDbLine
 10
120.4879999999999
 20
235.083
 30
0.0
 11
120.781
 21
235.203
 31
0.0
  0
LINE
  5
E3
330
18
100
AcDbEntity
  8
0
100
AcDbLine
 10
120.4879999999999
 20
234.282
 30
0.0
 11
120.781
 21
234.4019999999999
 31
0.0
  0
LINE
  5
E4
330
18
100
AcDbEntity
  8
0
100
AcDbLine
 10
120.4879999999999
 20
233.481
 30
0.0
 11
120.781
 21
233.6009999999999
 31
0.0
  0
LINE
  5
E5
330
18
100
AcDbEntity
  8
0
100
AcDbLine
 10
120.4879999999999
 20
232.6789999999999
 30
0.0
 11
120.781
 21
232.8
 31
0.0
  0
LINE
  5
E6
330
18
100
AcDbEntity
  8
0
100
AcDbLine
 10
120.4879999999999
 20
231.8779999999999
 30
0.0
 11
120.781
 21
231.998
 31
0.0
  0
LINE
  5
E7
330
18
100
AcDbEntity
  8
0
100
AcDbLine
 10
120.4879999999999
 20
231.077
 30
0.0
 11
120.781
 21
231.197
 31
0.0
  0
LINE
  5
E8
330
18
100
AcDbEntity
  8
0
100
AcDbLine
 10
120.4879999999999
 20
230.275
 30
0.0
 11
120.781
 21
230.396
 31
0.0
  0
LINE
  5
E9
330
18
100
AcDbEntity
  8
0
100
AcDbLine
 10
120.4879999999999
 20
229.474
 30
0.0
 11
120.781
 21
229.594
 31
0.0
  0
LINE
  5
EA
330
18
100
AcDbEntity
  8
0
100
AcDbLine
 10
120.181
 20
240.113
 30
0.0
 11
120.4879999999999
 21
239.2009999999999
 31
0.0
  0
LINE
  5
EB
330
18
100
AcDbEntity
  8
0
100
AcDbLine
 10
120.181
 20
240.113
 30
0.0
 11
120.081
 21
239.815
 31
0.0
  0
LINE
  5
EC
330
18
100
AcDbEntity
  8
0
100
AcDbLine
 10
120.4879999999999
 20
228.112
 30
0.0
 11
120.4879999999999
 21
239.2009999999999
 31
0.0
  0
LINE
  5
ED
330
18
100
AcDbEntity
  8
0
  6
AIGENLINE001
100
AcDbLine
 10
120.181
 20
227.2619999999999
 30
0.0
 11
120.181
 21
240.9289999999999
 31
0.0
  0
LINE
  5
EE
330
18
100
AcDbEntity
  8
0
100
AcDbLine
 10
120.4879999999999
 20
228.6729999999999
 30
0.0
 11
120.781
 21
228.793
 31
0.0
  0
LINE
  5
EF
330
18
100
AcDbEntity
  8
0
100
AcDbLine
 10
119.381
 20
238.7179999999999
 30
0.0
 11
120.581
 21
239.21
 31
0.0
  0
LINE
  5
F0
330
18
100
AcDbEntity
  8
0
100
AcDbLine
 10
119.381
 20
237.917
 30
0.0
 11
120.581
 21
238.409
 31
0.0
  0
LINE
  5
F1
330
18
100
AcDbEntity
  8
0
100
AcDbLine
 10
119.381
 20
237.115
 30
0.0
 11
120.581
 21
237.6079999999999
 31
0.0
  0
LINE
  5
F2
330
18
100
AcDbEntity
  8
0
100
AcDbLine
 10
119.381
 20
236.314
 30
0.0
 11
120.581
 21
236.8059999999999
 31
0.0
  0
LINE
  5
F3
330
18
100
AcDbEntity
  8
0
100
AcDbLine
 10
119.381
 20
235.5129999999999
 30
0.0
 11
120.581
 21
236.005
 31
0.0
  0
LINE
  5
F4
330
18
100
AcDbEntity
  8
0
100
AcDbLine
 10
119.381
 20
234.712
 30
0.0
 11
120.581
 21
235.203
 31
0.0
  0
LINE
  5
F5
330
18
100
AcDbEntity
  8
0
100
AcDbLine
 10
119.381
 20
233.91
 30
0.0
 11
120.581
 21
234.4019999999999
 31
0.0
  0
LINE
  5
F6
330
18
100
AcDbEntity
  8
0
100
AcDbLine
 10
119.381
 20
233.109
 30
0.0
 11
120.581
 21
233.6009999999999
 31
0.0
  0
LINE
  5
F7
330
18
100
AcDbEntity
  8
0
100
AcDbLine
 10
119.381
 20
232.308
 30
0.0
 11
120.581
 21
232.8
 31
0.0
  0
LINE
  5
F8
330
18
100
AcDbEntity
  8
0
100
AcDbLine
 10
119.381
 20
231.5059999999999
 30
0.0
 11
120.581
 21
231.998
 31
0.0
  0
LINE
  5
F9
330
18
100
AcDbEntity
  8
0
100
AcDbLine
 10
119.381
 20
230.705
 30
0.0
 11
120.581
 21
231.197
 31
0.0
  0
LINE
  5
FA
330
18
100
AcDbEntity
  8
0
100
AcDbLine
 10
119.381
 20
229.904
 30
0.0
 11
120.581
 21
230.396
 31
0.0
  0
LINE
  5
FB
330
18
100
AcDbEntity
  8
0
100
AcDbLine
 10
119.381
 20
229.102
 30
0.0
 11
120.581
 21
229.594
 31
0.0
  0
LINE
  5
FC
330
18
100
AcDbEntity
  8
0
100
AcDbLine
 10
119.981
 20
240.113
 30
0.0
 11
120.287
 21
239.2009999999999
 31
0.0
  0
LINE
  5
FD
330
18
100
AcDbEntity
  8
0
100
AcDbLine
 10
119.981
 20
240.113
 30
0.0
 11
119.6729999999999
 21
239.2009999999999
 31
0.0
  0
LINE
  5
FE
330
18
100
AcDbEntity
  8
0
100
AcDbLine
 10
120.287
 20
228.112
 30
0.0
 11
120.287
 21
239.2009999999999
 31
0.0
  0
LINE
  5
FF
330
18
100
AcDbEntity
  8
0
100
AcDbLine
 10
119.6729999999999
 20
228.112
 30
0.0
 11
119.6729999999999
 21
239.2009999999999
 31
0.0
  0
LINE
  5
100
330
18
100
AcDbEntity
  8
0
  6
AIGENLINE001
100
AcDbLine
 10
119.981
 20
227.2619999999999
 30
0.0
 11
119.981
 21
240.9289999999999
 31
0.0
  0
LINE
  5
101
330
18
100
AcDbEntity
  8
0
100
AcDbLine
 10
119.381
 20
228.3009999999999
 30
0.0
 11
120.581
 21
228.793
 31
0.0
  0
LINE
  5
102
330
18
100
AcDbEntity
  8
0
100
AcDbLine
 10
127.38
 20
238.7179999999999
 30
0.0
 11
128.58
 21
239.21
 31
0.0
  0
LINE
  5
103
330
18
100
AcDbEntity
  8
0
100
AcDbLine
 10
127.38
 20
237.917
 30
0.0
 11
128.58
 21
238.409
 31
0.0
  0
LINE
  5
104
330
18
100
AcDbEntity
  8
0
100
AcDbLine
 10
127.38
 20
237.115
 30
0.0
 11
128.58
 21
237.6079999999999
 31
0.0
  0
LINE
  5
105
330
18
100
AcDbEntity
  8
0
100
AcDbLine
 10
127.38
 20
236.314
 30
0.0
 11
128.58
 21
236.8059999999999
 31
0.0
  0
LINE
  5
106
330
18
100
AcDbEntity
  8
0
100
AcDbLine
 10
127.38
 20
235.5129999999999
 30
0.0
 11
128.58
 21
236.005
 31
0.0
  0
LINE
  5
107
330
18
100
AcDbEntity
  8
0
100
AcDbLine
 10
127.38
 20
234.712
 30
0.0
 11
128.58
 21
235.203
 31
0.0
  0
LINE
  5
108
330
18
100
AcDbEntity
  8
0
100
AcDbLine
 10
127.38
 20
233.91
 30
0.0
 11
128.58
 21
234.4019999999999
 31
0.0
  0
LINE
  5
109
330
18
100
AcDbEntity
  8
0
100
AcDbLine
 10
127.38
 20
233.109
 30
0.0
 11
128.58
 21
233.6009999999999
 31
0.0
  0
LINE
  5
10A
330
18
100
AcDbEntity
  8
0
100
AcDbLine
 10
127.38
 20
232.308
 30
0.0
 11
128.58
 21
232.8
 31
0.0
  0
LINE
  5
10B
330
18
100
AcDbEntity
  8
0
100
AcDbLine
 10
127.38
 20
231.5059999999999
 30
0.0
 11
128.58
 21
231.998
 31
0.0
  0
LINE
  5
10C
330
18
100
AcDbEntity
  8
0
100
AcDbLine
 10
127.38
 20
230.705
 30
0.0
 11
128.58
 21
231.197
 31
0.0
  0
LINE
  5
10D
330
18
100
AcDbEntity
  8
0
100
AcDbLine
 10
127.38
 20
229.904
 30
0.0
 11
128.58
 21
230.396
 31
0.0
  0
LINE
  5
10E
330
18
100
AcDbEntity
  8
0
100
AcDbLine
 10
127.38
 20
229.102
 30
0.0
 11
128.58
 21
229.594
 31
0.0
  0
LINE
  5
10F
330
18
100
AcDbEntity
  8
0
100
AcDbLine
 10
127.98
 20
240.113
 30
0.0
 11
128.287
 21
239.2009999999999
 31
0.0
  0
LINE
  5
110
330
18
100
AcDbEntity
  8
0
100
AcDbLine
 10
127.98
 20
240.113
 30
0.0
 11
127.6729999999999
 21
239.2009999999999
 31
0.0
  0
LINE
  5
111
330
18
100
AcDbEntity
  8
0
100
AcDbLine
 10
128.287
 20
228.112
 30
0.0
 11
128.287
 21
239.2009999999999
 31
0.0
  0
LINE
  5
112
330
18
100
AcDbEntity
  8
0
100
AcDbLine
 10
127.6729999999999
 20
228.112
 30
0.0
 11
127.6729999999999
 21
239.2009999999999
 31
0.0
  0
LINE
  5
113
330
18
100
AcDbEntity
  8
0
  6
AIGENLINE001
100
AcDbLine
 10
127.98
 20
227.2619999999999
 30
0.0
 11
127.98
 21
240.9289999999999
 31
0.0
  0
LINE
  5
114
330
18
100
AcDbEntity
  8
0
100
AcDbLine
 10
127.38
 20
228.3009999999999
 30
0.0
 11
128.58
 21
228.793
 31
0.0
  0
LINE
  5
115
330
18
100
AcDbEntity
  8
0
100
AcDbLine
 10
115.981
 20
238.7179999999999
 30
0.0
 11
117.181
 21
239.21
 31
0.0
  0
LINE
  5
116
330
18
100
AcDbEntity
  8
0
100
AcDbLine
 10
115.981
 20
237.917
 30
0.0
 11
117.181
 21
238.409
 31
0.0
  0
LINE
  5
117
330
18
100
AcDbEntity
  8
0
100
AcDbLine
 10
115.981
 20
237.115
 30
0.0
 11
117.181
 21
237.6079999999999
 31
0.0
  0
LINE
  5
118
330
18
100
AcDbEntity
  8
0
100
AcDbLine
 10
115.981
 20
236.314
 30
0.0
 11
117.181
 21
236.8059999999999
 31
0.0
  0
LINE
  5
119
330
18
100
AcDbEntity
  8
0
100
AcDbLine
 10
115.981
 20
235.5129999999999
 30
0.0
 11
117.181
 21
236.005
 31
0.0
  0
LINE
  5
11A
330
18
100
AcDbEntity
  8
0
100
AcDbLine
 10
115.981
 20
234.712
 30
0.0
 11
117.181
 21
235.203
 31
0.0
  0
LINE
  5
11B
330
18
100
AcDbEntity
  8
0
100
AcDbLine
 10
115.981
 20
233.91
 30
0.0
 11
117.181
 21
234.4019999999999
 31
0.0
  0
LINE
  5
11C
330
18
100
AcDbEntity
  8
0
100
AcDbLine
 10
115.981
 20
233.109
 30
0.0
 11
117.181
 21
233.6009999999999
 31
0.0
  0
LINE
  5
11D
330
18
100
AcDbEntity
  8
0
100
AcDbLine
 10
115.981
 20
232.308
 30
0.0
 11
117.181
 21
232.8
 31
0.0
  0
LINE
  5
11E
330
18
100
AcDbEntity
  8
0
100
AcDbLine
 10
115.981
 20
231.5059999999999
 30
0.0
 11
117.181
 21
231.998
 31
0.0
  0
LINE
  5
11F
330
18
100
AcDbEntity
  8
0
100
AcDbLine
 10
115.981
 20
230.705
 30
0.0
 11
117.181
 21
231.197
 31
0.0
  0
LINE
  5
120
330
18
100
AcDbEntity
  8
0
100
AcDbLine
 10
115.981
 20
229.904
 30
0.0
 11
117.181
 21
230.396
 31
0.0
  0
LINE
  5
121
330
18
100
AcDbEntity
  8
0
100
AcDbLine
 10
115.981
 20
229.102
 30
0.0
 11
117.181
 21
229.594
 31
0.0
  0
LINE
  5
122
330
18
100
AcDbEntity
  8
0
100
AcDbLine
 10
116.581
 20
240.113
 30
0.0
 11
116.8879999999999
 21
239.2009999999999
 31
0.0
  0
LINE
  5
123
330
18
100
AcDbEntity
  8
0
100
AcDbLine
 10
116.581
 20
240.113
 30
0.0
 11
116.274
 21
239.2009999999999
 31
0.0
  0
LINE
  5
124
330
18
100
AcDbEntity
  8
0
100
AcDbLine
 10
116.8879999999999
 20
228.112
 30
0.0
 11
116.8879999999999
 21
239.2009999999999
 31
0.0
  0
LINE
  5
125
330
18
100
AcDbEntity
  8
0
100
AcDbLine
 10
116.274
 20
228.112
 30
0.0
 11
116.274
 21
239.2009999999999
 31
0.0
  0
LINE
  5
126
330
18
100
AcDbEntity
  8
0
  6
AIGENLINE001
100
AcDbLine
 10
116.581
 20
227.2619999999999
 30
0.0
 11
116.581
 21
240.9289999999999
 31
0.0
  0
LINE
  5
127
330
18
100
AcDbEntity
  8
0
100
AcDbLine
 10
115.981
 20
228.3009999999999
 30
0.0
 11
117.181
 21
228.793
 31
0.0
  0
LINE
  5
128
330
18
100
AcDbEntity
  8
0
100
AcDbLine
 10
112.3809999999999
 20
238.7179999999999
 30
0.0
 11
113.5809999999999
 21
239.21
 31
0.0
  0
LINE
  5
129
330
18
100
AcDbEntity
  8
0
100
AcDbLine
 10
112.3809999999999
 20
237.917
 30
0.0
 11
113.5809999999999
 21
238.409
 31
0.0
  0
LINE
  5
12A
330
18
100
AcDbEntity
  8
0
100
AcDbLine
 10
112.3809999999999
 20
237.115
 30
0.0
 11
113.5809999999999
 21
237.6079999999999
 31
0.0
  0
LINE
  5
12B
330
18
100
AcDbEntity
  8
0
100
AcDbLine
 10
112.3809999999999
 20
236.314
 30
0.0
 11
113.5809999999999
 21
236.8059999999999
 31
0.0
  0
LINE
  5
12C
330
18
100
AcDbEntity
  8
0
100
AcDbLine
 10
112.3809999999999
 20
235.5129999999999
 30
0.0
 11
113.5809999999999
 21
236.005
 31
0.0
  0
LINE
  5
12D
330
18
100
AcDbEntity
  8
0
100
AcDbLine
 10
112.3809999999999
 20
234.712
 30
0.0
 11
113.5809999999999
 21
235.203
 31
0.0
  0
LINE
  5
12E
330
18
100
AcDbEntity
  8
0
100
AcDbLine
 10
112.3809999999999
 20
233.91
 30
0.0
 11
113.5809999999999
 21
234.4019999999999
 31
0.0
  0
LINE
  5
12F
330
18
100
AcDbEntity
  8
0
100
AcDbLine
 10
112.3809999999999
 20
233.109
 30
0.0
 11
113.5809999999999
 21
233.6009999999999
 31
0.0
  0
LINE
  5
130
330
18
100
AcDbEntity
  8
0
100
AcDbLine
 10
112.3809999999999
 20
232.308
 30
0.0
 11
113.5809999999999
 21
232.8
 31
0.0
  0
LINE
  5
131
330
18
100
AcDbEntity
  8
0
100
AcDbLine
 10
112.3809999999999
 20
231.5059999999999
 30
0.0
 11
113.5809999999999
 21
231.998
 31
0.0
  0
LINE
  5
132
330
18
100
AcDbEntity
  8
0
100
AcDbLine
 10
112.3809999999999
 20
230.705
 30
0.0
 11
113.5809999999999
 21
231.197
 31
0.0
  0
LINE
  5
133
330
18
100
AcDbEntity
  8
0
100
AcDbLine
 10
112.3809999999999
 20
229.904
 30
0.0
 11
113.5809999999999
 21
230.396
 31
0.0
  0
LINE
  5
134
330
18
100
AcDbEntity
  8
0
100
AcDbLine
 10
112.3809999999999
 20
229.102
 30
0.0
 11
113.5809999999999
 21
229.594
 31
0.0
  0
LINE
  5
135
330
18
100
AcDbEntity
  8
0
100
AcDbLine
 10
112.981
 20
240.113
 30
0.0
 11
113.2879999999999
 21
239.2009999999999
 31
0.0
  0
LINE
  5
136
330
18
100
AcDbEntity
  8
0
100
AcDbLine
 10
112.981
 20
240.113
 30
0.0
 11
112.6739999999999
 21
239.2009999999999
 31
0.0
  0
LINE
  5
137
330
18
100
AcDbEntity
  8
0
100
AcDbLine
 10
113.2879999999999
 20
228.112
 30
0.0
 11
113.2879999999999
 21
239.2009999999999
 31
0.0
  0
LINE
  5
138
330
18
100
AcDbEntity
  8
0
100
AcDbLine
 10
112.6739999999999
 20
228.112
 30
0.0
 11
112.6739999999999
 21
239.2009999999999
 31
0.0
  0
LINE
  5
139
330
18
100
AcDbEntity
  8
0
  6
AIGENLINE001
100
AcDbLine
 10
112.981
 20
227.2619999999999
 30
0.0
 11
112.981
 21
240.9289999999999
 31
0.0
  0
LINE
  5
13A
330
18
100
AcDbEntity
  8
0
100
AcDbLine
 10
112.3809999999999
 20
228.3009999999999
 30
0.0
 11
113.5809999999999
 21
228.793
 31
0.0
  0
LINE
  5
13B
330
18
100
AcDbEntity
  8
0
100
AcDbLine
 10
111.187
 20
233.231
 30
0.0
 11
112.6739999999999
 21
231.49
 31
0.0
  0
LINE
  5
13C
330
18
100
AcDbEntity
  8
0
100
AcDbLine
 10
112.6739999999999
 20
231.49
 30
0.0
 11
110.516
 21
232.254
 31
0.0
  0
LINE
  5
13D
330
18
100
AcDbEntity
  8
0
100
AcDbLine
 10
110.516
 20
232.254
 30
0.0
 11
111.187
 21
233.231
 31
0.0
  0
LINE
  5
13E
330
18
100
AcDbEntity
  8
0
100
AcDbLine
 10
112.6829999999999
 20
231.502
 30
0.0
 11
104.007
 21
237.464
 31
0.0
  0
LINE
  5
13F
330
18
100
AcDbEntity
  8
0
100
AcDbLine
 10
59.687
 20
237.464
 30
0.0
 11
104.007
 21
237.464
 31
0.0
  0
LINE
  5
140
330
18
100
AcDbEntity
  8
0
  6
AIGENLINE001
100
AcDbLine
 10
123.981
 20
229.66
 30
0.0
 11
123.981
 21
208.2559999999999
 31
0.0
  0
LINE
  5
141
330
18
100
AcDbEntity
  8
0
100
AcDbLine
 10
121.581
 20
225.912
 30
0.0
 11
121.581
 21
214.7279999999999
 31
0.0
  0
LINE
  5
142
330
18
100
AcDbEntity
  8
0
100
AcDbLine
 10
126.381
 20
225.912
 30
0.0
 11
126.381
 21
214.7279999999999
 31
0.0
  0
ARC
  5
143
330
18
100
AcDbEntity
  8
0
100
AcDbCircle
 10
123.9804679999999
 20
212.6123109999999
 30
0.0
 40
3.200169999999999
100
AcDbArc
 50
359.9938419999999
 51
89.993812
  0
ARC
  5
144
330
18
100
AcDbEntity
  8
0
100
AcDbCircle
 10
123.980812
 20
212.611967
 30
0.0
 40
3.199825
100
AcDbArc
 50
270.00002
 51
359.9999899999999
  0
ARC
  5
145
330
18
100
AcDbEntity
  8
0
100
AcDbCircle
 10
124.1031779999999
 20
212.734689
 30
0.0
 40
3.3248
100
AcDbArc
 50
182.1153549999999
 51
267.890843
  0
ARC
  5
146
330
18
100
AcDbEntity
  8
0
100
AcDbCircle
 10
124.103541
 20
212.489597
 30
0.0
 40
3.325148999999999
100
AcDbArc
 50
92.11519399999998
 51
177.8909439999999
  0
ARC
  5
147
330
18
100
AcDbEntity
  8
0
100
AcDbCircle
 10
123.9804679999999
 20
212.6123109999999
 30
0.0
 40
2.500122
100
AcDbArc
 50
359.992115
 51
89.99208499999999
  0
ARC
  5
148
330
18
100
AcDbEntity
  8
0
100
AcDbCircle
 10
123.885008
 20
212.707772
 30
0.0
 40
2.59735
100
AcDbArc
 50
272.113889
 51
357.886121
  0
ARC
  5
149
330
18
100
AcDbEntity
  8
0
100
AcDbCircle
 10
124.0773729999999
 20
212.708885
 30
0.0
 40
2.598489999999999
100
AcDbArc
 50
182.1375279999999
 51
267.870398
  0
ARC
  5
14A
330
18
100
AcDbEntity
  8
0
100
AcDbCircle
 10
123.980986
 20
212.612139
 30
0.0
 40
2.500293999999999
100
AcDbArc
 50
90.00394699999999
 51
180.003957
  0
LINE
  5
14B
330
18
100
AcDbEntity
  8
0
  6
AIGENLINE001
100
AcDbLine
 10
39.2423
 20
212.6129999999999
 30
0.0
 11
128.6299999999999
 21
212.6129999999999
 31
0.0
  0
LINE
  5
14C
330
18
100
AcDbEntity
  8
0
100
AcDbLine
 10
118.08
 20
228.112
 30
0.0
 11
118.08
 21
225.912
 31
0.0
  0
LINE
  5
14D
330
18
100
AcDbEntity
  8
0
100
AcDbLine
 10
129.881
 20
225.912
 30
0.0
 11
129.881
 21
228.112
 31
0.0
  0
LINE
  5
14E
330
18
100
AcDbEntity
  8
0
100
AcDbLine
 10
118.08
 20
225.912
 30
0.0
 11
129.881
 21
225.912
 31
0.0
  0
LINE
  5
14F
330
18
100
AcDbEntity
  8
0
100
AcDbLine
 10
118.08
 20
228.112
 30
0.0
 11
129.881
 21
228.112
 31
0.0
  0
LINE
  5
150
330
18
100
AcDbEntity
  8
0
100
AcDbLine
 10
121.7689999999999
 20
53.0183
 30
0.0
 11
123.98
 21
52.4257
 31
0.0
  0
LINE
  5
151
330
18
100
AcDbEntity
  8
0
100
AcDbLine
 10
123.98
 20
52.4257
 30
0.0
 11
121.7689999999999
 21
51.8332
 31
0.0
  0
LINE
  5
152
330
18
100
AcDbEntity
  8
0
100
AcDbLine
 10
121.7689999999999
 20
51.8332
 30
0.0
 11
121.7689999999999
 21
53.0183
 31
0.0
  0
LINE
  5
153
330
18
100
AcDbEntity
  8
0
100
AcDbLine
 10
123.98
 20
52.4257
 30
0.0
 11
41.38029999999999
 21
52.4257
 31
0.0
  0
LINE
  5
154
330
18
100
AcDbEntity
  8
0
100
AcDbLine
 10
41.38029999999999
 20
66.036
 30
0.0
 11
41.38029999999999
 21
51.8656
 31
0.0
  0
LINE
  5
155
330
18
100
AcDbEntity
  8
0
100
AcDbLine
 10
123.98
 20
73.54600000000001
 30
0.0
 11
123.98
 21
51.8656
 31
0.0
  0
LINE
  5
156
330
18
100
AcDbEntity
  8
0
100
AcDbLine
 10
121.7689999999999
 20
59.4362
 30
0.0
 11
123.98
 21
58.8436
 31
0.0
  0
LINE
  5
157
330
18
100
AcDbEntity
  8
0
100
AcDbLine
 10
123.98
 20
58.8436
 30
0.0
 11
121.7689999999999
 21
58.2511
 31
0.0
  0
LINE
  5
158
330
18
100
AcDbEntity
  8
0
100
AcDbLine
 10
121.7689999999999
 20
58.2511
 30
0.0
 11
121.7689999999999
 21
59.4362
 31
0.0
  0
LINE
  5
159
330
18
100
AcDbEntity
  8
0
100
AcDbLine
 10
118.792
 20
58.25829999999999
 30
0.0
 11
116.5799999999999
 21
58.8509
 31
0.0
  0
LINE
  5
15A
330
18
100
AcDbEntity
  8
0
100
AcDbLine
 10
116.5799999999999
 20
58.8509
 30
0.0
 11
118.792
 21
59.4434
 31
0.0
  0
LINE
  5
15B
330
18
100
AcDbEntity
  8
0
100
AcDbLine
 10
118.792
 20
59.4434
 30
0.0
 11
118.792
 21
58.25829999999999
 31
0.0
  0
LINE
  5
15C
330
18
100
AcDbEntity
  8
0
100
AcDbLine
 10
123.98
 20
58.8436
 30
0.0
 11
116.5799999999999
 21
58.8436
 31
0.0
  0
LINE
  5
15D
330
18
100
AcDbEntity
  8
0
100
AcDbLine
 10
114.369
 20
59.44069999999999
 30
0.0
 11
116.5799999999999
 21
58.8481
 31
0.0
  0
LINE
  5
15E
330
18
100
AcDbEntity
  8
0
100
AcDbLine
 10
116.5799999999999
 20
58.8481
 30
0.0
 11
114.369
 21
58.2556
 31
0.0
  0
LINE
  5
15F
330
18
100
AcDbEntity
  8
0
100
AcDbLine
 10
114.369
 20
58.2556
 30
0.0
 11
114.369
 21
59.44069999999999
 31
0.0
  0
LINE
  5
160
330
18
100
AcDbEntity
  8
0
100
AcDbLine
 10
43.5921
 20
51.8332
 30
0.0
 11
41.38029999999999
 21
52.4257
 31
0.0
  0
LINE
  5
161
330
18
100
AcDbEntity
  8
0
100
AcDbLine
 10
41.38029999999999
 20
52.4257
 30
0.0
 11
43.5921
 21
53.0183
 31
0.0
  0
LINE
  5
162
330
18
100
AcDbEntity
  8
0
100
AcDbLine
 10
43.5921
 20
53.0183
 30
0.0
 11
43.5921
 21
51.8332
 31
0.0
  0
LINE
  5
163
330
18
100
AcDbEntity
  8
0
100
AcDbLine
 10
48.79290000000001
 20
58.27729999999999
 30
0.0
 11
46.58109999999999
 21
58.8698
 31
0.0
  0
LINE
  5
164
330
18
100
AcDbEntity
  8
0
100
AcDbLine
 10
46.58109999999999
 20
58.8698
 30
0.0
 11
48.79290000000001
 21
59.4624
 31
0.0
  0
LINE
  5
165
330
18
100
AcDbEntity
  8
0
100
AcDbLine
 10
48.79290000000001
 20
59.4624
 30
0.0
 11
48.79290000000001
 21
58.27729999999999
 31
0.0
  0
LINE
  5
166
330
18
100
AcDbEntity
  8
0
100
AcDbLine
 10
116.5799999999999
 20
58.8553
 30
0.0
 11
46.58109999999999
 21
58.8553
 31
0.0
  0
LINE
  5
167
330
18
100
AcDbEntity
  8
0
100
AcDbLine
 10
46.58109999999999
 20
67.2191
 30
0.0
 11
46.58109999999999
 21
58.2952
 31
0.0
  0
LINE
  5
168
330
18
100
AcDbEntity
  8
0
100
AcDbLine
 10
116.5799999999999
 20
67.2191
 30
0.0
 11
116.5799999999999
 21
58.2952
 31
0.0
  0
ARC
  5
169
330
18
100
AcDbEntity
  8
0
100
AcDbCircle
 10
120.961334
 20
75.51473699999999
 30
0.0
 40
0.519008
100
AcDbArc
 50
272.073837
 51
357.926173
  0
ARC
  5
16A
330
18
100
AcDbEntity
  8
0
100
AcDbCircle
 10
120.9801149999999
 20
75.495956
 30
0.0
 40
5.500130999999999
100
AcDbArc
 50
270.00002
 51
359.9999899999999
  0
ARC
  5
16B
330
18
100
AcDbEntity
  8
0
  6
AIGENLINE001
100
AcDbCircle
 10
120.9801149999999
 20
75.496645
 30
0.0
 40
3.000008999999999
100
AcDbArc
 50
270.00002
 51
359.9999899999999
  0
LINE
  5
172
330
18
100
AcDbEntity
  8
0
100
AcDbLine
 10
118.08
 20
192.597
 30
0.0
 11
118.08
 21
180.397
 31
0.0
  0
LINE
  5
173
330
18
100
AcDbEntity
  8
0
100
AcDbLine
 10
129.4799999999999
 20
192.997
 30
0.0
 11
118.48
 21
192.997
 31
0.0
  0
ARC
  5
174
330
18
100
AcDbEntity
  8
0
100
AcDbCircle
 10
118.4948169999999
 20
192.582034
 30
0.0
 40
0.415078
100
AcDbArc
 50
92.046434
 51
177.9041649999999
  0
LINE
  5
175
330
18
100
AcDbEntity
  8
0
100
AcDbLine
 10
121.48
 20
179.997
 30
0.0
 11
118.48
 21
179.997
 31
0.0
  0
LINE
  5
176
330
18
100
AcDbEntity
  8
0
100
AcDbLine
 10
129.4799999999999
 20
179.997
 30
0.0
 11
126.48
 21
179.997
 31
0.0
  0
ARC
  5
177
330
18
100
AcDbEntity
  8
0
100
AcDbCircle
 10
118.495181
 20
180.412028
 30
0.0
 40
0.415436
100
AcDbArc
 50
182.070355
 51
267.9050049999999
  0
LINE
  5
178
330
18
100
AcDbEntity
  8
0
100
AcDbLine
 10
129.8799999999999
 20
192.597
 30
0.0
 11
129.8799999999999
 21
180.397
 31
0.0
  0
ARC
  5
179
330
18
100
AcDbEntity
  8
0
100
AcDbCircle
 10
129.464579
 20
180.412158
 30
0.0
 40
0.4155840000000001
100
AcDbArc
 50
272.1615529999999
 51
357.912499
  0
ARC
  5
17A
330
18
100
AcDbEntity
  8
0
100
AcDbCircle
 10
129.46528
 20
192.5822399999999
 30
0.0
 40
0.414878
100
AcDbArc
 50
2.068386999999999
 51
87.93160300000002
  0
LINE
  5
17B
330
18
100
AcDbEntity
  8
0
100
AcDbLine
 10
126.48
 20
191.097
 30
0.0
 11
121.48
 21
191.097
 31
0.0
  0
LINE
  5
17C
330
18
100
AcDbEntity
  8
0
100
AcDbLine
 10
126.48
 20
191.697
 30
0.0
 11
121.48
 21
191.697
 31
0.0
  0
LINE
  5
17D
330
18
100
AcDbEntity
  8
0
100
AcDbLine
 10
126.48
 20
161.2969999999999
 30
0.0
 11
121.48
 21
161.2969999999999
 31
0.0
  0
ARC
  5
17E
330
18
100
AcDbEntity
  8
0
100
AcDbCircle
 10
121.8092949999999
 20
160.3218629999999
 30
0.0
 40
1.028856999999999
100
AcDbArc
 50
108.6663069999999
 51
178.852
  0
ARC
  5
17F
330
18
100
AcDbEntity
  8
0
100
AcDbCircle
 10
126.15262
 20
160.3219709999999
 30
0.0
 40
1.028222999999999
100
AcDbArc
 50
1.142654999999999
 51
71.41970400000001
  0
LINE
  5
180
330
18
100
AcDbEntity
  8
0
100
AcDbLine
 10
126.48
 20
191.697
 30
0.0
 11
126.48
 21
161.2969999999999
 31
0.0
  0
LINE
  5
181
330
18
100
AcDbEntity
  8
0
100
AcDbLine
 10
121.48
 20
191.697
 30
0.0
 11
121.48
 21
161.2969999999999
 31
0.0
  0
LINE
  5
182
330
18
100
AcDbEntity
  8
0
  6
AIGENLINE001
100
AcDbLine
 10
123.98
 20
75.4966
 30
0.0
 11
123.98
 21
194.415
 31
0.0
  0
LINE
  5
183
330
18
100
AcDbEntity
  8
0
100
AcDbLine
 10
120.781
 20
120.651
 30
0.0
 11
120.781
 21
160.342
 31
0.0
  0
LINE
  5
184
330
18
100
AcDbEntity
  8
0
100
AcDbLine
 10
126.48
 20
119.697
 30
0.0
 11
121.48
 21
119.697
 31
0.0
  0
ARC
  5
185
330
18
100
AcDbEntity
  8
0
100
AcDbCircle
 10
121.808524
 20
120.670986
 30
0.0
 40
1.028079
100
AcDbArc
 50
181.127177
 51
251.364381
  0
LINE
  5
186
330
18
100
AcDbEntity
  8
0
100
AcDbLine
 10
127.181
 20
120.651
 30
0.0
 11
127.181
 21
160.342
 31
0.0
  0
ARC
  5
187
330
18
100
AcDbEntity
  8
0
100
AcDbCircle
 10
126.1526039999999
 20
120.6714539999999
 30
0.0
 40
1.028242
100
AcDbArc
 50
288.580837
 51
358.846935
  0
LINE
  5
188
330
18
100
AcDbEntity
  8
0
100
AcDbLine
 10
126.48
 20
75.49600000000001
 30
0.0
 11
126.48
 21
119.696
 31
0.0
  0
LINE
  5
189
330
18
100
AcDbEntity
  8
0
100
AcDbLine
 10
121.48
 20
75.49600000000001
 30
0.0
 11
121.48
 21
119.697
 31
0.0
  0
LINE
  5
18A
330
18
100
AcDbEntity
  8
0
100
AcDbLine
 10
45.8645
 20
68.4962
 30
0.0
 11
47.29899999999999
 21
68.4962
 31
0.0
  0
LINE
  5
18B
330
18
100
AcDbEntity
  8
0
100
AcDbLine
 10
46.5818
 20
69.2131
 30
0.0
 11
46.5818
 21
67.77889999999999
 31
0.0
  0
LINE
  5
18C
330
18
100
AcDbEntity
  8
0
100
AcDbLine
 10
49.4646
 20
76.4961
 30
0.0
 11
50.8992
 21
76.4961
 31
0.0
  0
LINE
  5
18D
330
18
100
AcDbEntity
  8
0
100
AcDbLine
 10
50.1819
 20
77.2137
 30
0.0
 11
50.1819
 21
75.7788
 31
0.0
  0
LINE
  5
18E
330
18
100
AcDbEntity
  8
0
100
AcDbLine
 10
42.2644
 20
76.4961
 30
0.0
 11
43.6989
 21
76.4961
 31
0.0
  0
LINE
  5
18F
330
18
100
AcDbEntity
  8
0
100
AcDbLine
 10
42.9816
 20
77.2137
 30
0.0
 11
42.9816
 21
75.7788
 31
0.0
  0
LINE
  5
190
330
18
100
AcDbEntity
  8
0
100
AcDbLine
 10
40.48149999999999
 20
66.5962
 30
0.0
 11
52.6817
 21
66.5962
 31
0.0
  0
ARC
  5
191
330
18
100
AcDbEntity
  8
0
100
AcDbCircle
 10
40.49682299999999
 20
67.011122
 30
0.0
 40
0.4152210000000001
100
AcDbArc
 50
182.0647489999999
 51
267.8859089999999
  0
LINE
  5
192
330
18
100
AcDbEntity
  8
0
100
AcDbLine
 10
53.082
 20
69.9958
 30
0.0
 11
53.082
 21
66.9962
 31
0.0
  0
LINE
  5
193
330
18
100
AcDbEntity
  8
0
100
AcDbLine
 10
53.082
 20
77.9964
 30
0.0
 11
53.082
 21
74.9961
 31
0.0
  0
ARC
  5
194
330
18
100
AcDbEntity
  8
0
100
AcDbCircle
 10
52.66671999999999
 20
67.011499
 30
0.0
 40
0.415585
100
AcDbArc
 50
272.065639
 51
357.885041
  0
LINE
  5
195
330
18
100
AcDbEntity
  8
0
100
AcDbLine
 10
40.48149999999999
 20
78.3961
 30
0.0
 11
52.6817
 21
78.3961
 31
0.0
  0
ARC
  5
196
330
18
100
AcDbEntity
  8
0
100
AcDbCircle
 10
52.666835
 20
77.980841
 30
0.0
 40
0.41548
100
AcDbArc
 50
2.149019
 51
87.949672
  0
ARC
  5
197
330
18
100
AcDbEntity
  8
0
100
AcDbCircle
 10
40.496819
 20
77.98110799999999
 30
0.0
 40
0.4152300000000001
100
AcDbArc
 50
92.11350600000001
 51
177.8864649999999
  0
LINE
  5
198
330
18
100
AcDbEntity
  8
0
100
AcDbLine
 10
41.9798
 20
74.9961
 30
0.0
 11
41.9798
 21
69.9958
 31
0.0
  0
LINE
  5
199
330
18
100
AcDbEntity
  8
0
100
AcDbLine
 10
41.38029999999999
 20
74.9961
 30
0.0
 11
41.38029999999999
 21
69.9958
 31
0.0
  0
LINE
  5
19A
330
18
100
AcDbEntity
  8
0
100
AcDbLine
 10
117.2979999999999
 20
68.4962
 30
0.0
 11
115.863
 21
68.4962
 31
0.0
  0
LINE
  5
19B
330
18
100
AcDbEntity
  8
0
100
AcDbLine
 10
116.5799999999999
 20
69.2131
 30
0.0
 11
116.5799999999999
 21
67.77889999999999
 31
0.0
  0
LINE
  5
19C
330
18
100
AcDbEntity
  8
0
100
AcDbLine
 10
113.6979999999999
 20
76.4961
 30
0.0
 11
112.264
 21
76.4961
 31
0.0
  0
LINE
  5
19D
330
18
100
AcDbEntity
  8
0
100
AcDbLine
 10
112.981
 20
77.2137
 30
0.0
 11
112.981
 21
75.7788
 31
0.0
  0
LINE
  5
19E
330
18
100
AcDbEntity
  8
0
100
AcDbLine
 10
120.8979999999999
 20
76.4961
 30
0.0
 11
119.4629999999999
 21
76.4961
 31
0.0
  0
LINE
  5
19F
330
18
100
AcDbEntity
  8
0
100
AcDbLine
 10
120.181
 20
77.2137
 30
0.0
 11
120.181
 21
75.7788
 31
0.0
  0
LINE
  5
1A0
330
18
100
AcDbEntity
  8
0
100
AcDbLine
 10
122.6809999999999
 20
66.5962
 30
0.0
 11
110.481
 21
66.5962
 31
0.0
  0
LINE
  5
1A1
330
18
100
AcDbEntity
  8
0
100
AcDbLine
 10
123.0809999999999
 20
70.41199999999999
 30
0.0
 11
123.0809999999999
 21
66.9962
 31
0.0
  0
ARC
  5
1A2
330
18
100
AcDbEntity
  8
0
100
AcDbCircle
 10
122.665446
 20
67.011342
 30
0.0
 40
0.4154350000000001
100
AcDbArc
 50
272.094054
 51
357.905956
  0
LINE
  5
1A3
330
18
100
AcDbEntity
  8
0
100
AcDbLine
 10
110.081
 20
69.9958
 30
0.0
 11
110.081
 21
66.9962
 31
0.0
  0
LINE
  5
1A4
330
18
100
AcDbEntity
  8
0
100
AcDbLine
 10
110.081
 20
77.9964
 30
0.0
 11
110.081
 21
74.9961
 31
0.0
  0
ARC
  5
1A5
330
18
100
AcDbEntity
  8
0
100
AcDbCircle
 10
110.496084
 20
67.01146899999999
 30
0.0
 40
0.4155680000000001
100
AcDbArc
 50
182.110984
 51
267.889045
  0
LINE
  5
1A6
330
18
100
AcDbEntity
  8
0
100
AcDbLine
 10
121.48
 20
78.3961
 30
0.0
 11
110.481
 21
78.3961
 31
0.0
  0
ARC
  5
1A7
330
18
100
AcDbEntity
  8
0
100
AcDbCircle
 10
110.4956239999999
 20
77.981216
 30
0.0
 40
0.415104
100
AcDbArc
 50
92.04979699999999
 51
177.900801
  0
LINE
  5
1A8
330
18
100
AcDbEntity
  8
0
100
AcDbLine
 10
60.7819
 20
74.9961
 30
0.0
 11
60.7819
 21
69.9958
 31
0.0
  0
ARC
  5
1A9
330
18
100
AcDbEntity
  8
0
100
AcDbCircle
 10
61.75676800000001
 20
70.325355
 30
0.0
 40
1.029093999999999
100
AcDbArc
 50
198.675815
 51
268.852415
  0
ARC
  5
1AA
330
18
100
AcDbEntity
  8
0
100
AcDbCircle
 10
61.756166
 20
74.66938299999999
 30
0.0
 40
1.027617
100
AcDbArc
 50
91.11568899999999
 51
161.463664
  0
LINE
  5
1AB
330
18
100
AcDbEntity
  8
0
100
AcDbLine
 10
41.38029999999999
 20
74.9961
 30
0.0
 11
60.7819
 21
74.9961
 31
0.0
  0
LINE
  5
1AC
330
18
100
AcDbEntity
  8
0
100
AcDbLine
 10
41.38029999999999
 20
69.9958
 30
0.0
 11
60.7819
 21
69.9958
 31
0.0
  0
LINE
  5
1AD
330
18
100
AcDbEntity
  8
0
  6
AIGENLINE001
100
AcDbLine
 10
120.9799999999999
 20
72.4966
 30
0.0
 11
38.1133
 21
72.4966
 31
0.0
  0
LINE
  5
1AE
330
18
100
AcDbEntity
  8
0
100
AcDbLine
 10
101.427
 20
69.29649999999999
 30
0.0
 11
61.73619999999999
 21
69.29649999999999
 31
0.0
  0
LINE
  5
1AF
330
18
100
AcDbEntity
  8
0
100
AcDbLine
 10
102.381
 20
74.9961
 30
0.0
 11
102.381
 21
69.9958
 31
0.0
  0
ARC
  5
1B0
330
18
100
AcDbEntity
  8
0
100
AcDbCircle
 10
101.4062819999999
 20
70.32456299999999
 30
0.0
 40
1.028297999999999
100
AcDbArc
 50
271.135762
 51
341.355777
  0
LINE
  5
1B1
330
18
100
AcDbEntity
  8
0
100
AcDbLine
 10
101.427
 20
75.69679999999999
 30
0.0
 11
61.73619999999999
 21
75.69679999999999
 31
0.0
  0
ARC
  5
1B2
330
18
100
AcDbEntity
  8
0
100
AcDbCircle
 10
101.4059639999999
 20
74.668922
 30
0.0
 40
1.028092
100
AcDbArc
 50
18.554555
 51
88.846313
  0
LINE
  5
1B3
330
18
100
AcDbEntity
  8
0
100
AcDbLine
 10
146.656
 20
75.49600000000001
 30
0.0
 11
151.656
 21
75.49600000000001
 31
0.0
  0
LINE
  5
1B4
330
18
100
AcDbEntity
  8
0
100
AcDbLine
 10
121.48
 20
75.49600000000001
 30
0.0
 11
126.48
 21
75.49600000000001
 31
0.0
  0
LINE
  5
1B5
330
18
100
AcDbEntity
  8
0
100
AcDbLine
 10
120.9799999999999
 20
74.9961
 30
0.0
 11
120.9799999999999
 21
69.9958
 31
0.0
  0
LINE
  5
1B6
330
18
100
AcDbEntity
  8
0
100
AcDbLine
 10
120.9799999999999
 20
74.9961
 30
0.0
 11
102.381
 21
74.9961
 31
0.0
  0
LINE
  5
1B7
330
18
100
AcDbEntity
  8
0
100
AcDbLine
 10
120.9799999999999
 20
69.9958
 30
0.0
 11
102.381
 21
69.9958
 31
0.0
  0
LINE
  5
1B8
330
18
100
AcDbEntity
  8
0
100
AcDbLine
 10
128.692
 20
105.3929999999999
 30
0.0
 11
126.48
 21
105.9849999999999
 31
0.0
  0
LINE
  5
1B9
330
18
100
AcDbEntity
  8
0
100
AcDbLine
 10
126.48
 20
105.9849999999999
 30
0.0
 11
128.692
 21
106.5779999999999
 31
0.0
  0
LINE
  5
1BA
330
18
100
AcDbEntity
  8
0
100
AcDbLine
 10
128.692
 20
106.5779999999999
 30
0.0
 11
128.692
 21
105.3929999999999
 31
0.0
  0
LINE
  5
1BB
330
18
100
AcDbEntity
  8
0
100
AcDbLine
 10
119.2679999999999
 20
106.5629999999999
 30
0.0
 11
121.48
 21
105.971
 31
0.0
  0
LINE
  5
1BC
330
18
100
AcDbEntity
  8
0
100
AcDbLine
 10
121.48
 20
105.971
 30
0.0
 11
119.2679999999999
 21
105.3779999999999
 31
0.0
  0
LINE
  5
1BD
330
18
100
AcDbEntity
  8
0
100
AcDbLine
 10
119.2679999999999
 20
105.3779999999999
 30
0.0
 11
119.2679999999999
 21
106.5629999999999
 31
0.0
  0
LINE
  5
1BE
330
18
100
AcDbEntity
  8
0
100
AcDbLine
 10
126.48
 20
105.9849999999999
 30
0.0
 11
130.3989999999999
 21
105.9849999999999
 31
0.0
  0
LINE
  5
1BF
330
18
100
AcDbEntity
  8
0
100
AcDbLine
 10
113.751
 20
105.9779999999999
 30
0.0
 11
126.48
 21
105.9779999999999
 31
0.0
  0
LINE
  5
1C0
330
18
100
AcDbEntity
  8
0
100
AcDbLine
 10
122.992
 20
145.812
 30
0.0
 11
120.781
 21
146.405
 31
0.0
  0
LINE
  5
1C1
330
18
100
AcDbEntity
  8
0
100
AcDbLine
 10
120.781
 20
146.405
 30
0.0
 11
122.992
 21
146.9979999999999
 31
0.0
  0
LINE
  5
1C2
330
18
100
AcDbEntity
  8
0
100
AcDbLine
 10
122.992
 20
146.9979999999999
 30
0.0
 11
122.992
 21
145.812
 31
0.0
  0
LINE
  5
1C3
330
18
100
AcDbEntity
  8
0
100
AcDbLine
 10
124.9689999999999
 20
146.9829999999999
 30
0.0
 11
127.181
 21
146.3899999999999
 31
0.0
  0
LINE
  5
1C4
330
18
100
AcDbEntity
  8
0
100
AcDbLine
 10
127.181
 20
146.3899999999999
 30
0.0
 11
124.9689999999999
 21
145.798
 31
0.0
  0
LINE
  5
1C5
330
18
100
AcDbEntity
  8
0
100
AcDbLine
 10
124.9689999999999
 20
145.798
 30
0.0
 11
124.9689999999999
 21
146.9829999999999
 31
0.0
  0
LINE
  5
1C6
330
18
100
AcDbEntity
  8
0
100
AcDbLine
 10
113.8179999999999
 20
146.398
 30
0.0
 11
127.181
 21
146.398
 31
0.0
  0
LINE
  5
1C7
330
18
100
AcDbEntity
  8
0
100
AcDbLine
 10
26.0068
 20
76.1843
 30
0.0
 11
26.5994
 21
78.3961
 31
0.0
  0
LINE
  5
1C8
330
18
100
AcDbEntity
  8
0
100
AcDbLine
 10
26.5994
 20
78.3961
 30
0.0
 11
27.1923
 21
76.1843
 31
0.0
  0
LINE
  5
1C9
330
18
100
AcDbEntity
  8
0
100
AcDbLine
 10
27.1923
 20
76.1843
 30
0.0
 11
26.0068
 21
76.1843
 31
0.0
  0
LINE
  5
1CA
330
18
100
AcDbEntity
  8
0
100
AcDbLine
 10
27.1706
 20
68.80759999999999
 30
0.0
 11
26.578
 21
66.5958
 31
0.0
  0
LINE
  5
1CB
330
18
100
AcDbEntity
  8
0
100
AcDbLine
 10
26.578
 20
66.5958
 30
0.0
 11
25.9851
 21
68.80759999999999
 31
0.0
  0
LINE
  5
1CC
330
18
100
AcDbEntity
  8
0
100
AcDbLine
 10
25.9851
 20
68.80759999999999
 30
0.0
 11
27.1706
 21
68.80759999999999
 31
0.0
  0
LINE
  5
1CD
330
18
100
AcDbEntity
  8
0
100
AcDbLine
 10
26.5925
 20
78.3961
 30
0.0
 11
26.5925
 21
66.5962
 31
0.0
  0
LINE
  5
1CE
330
18
100
AcDbEntity
  8
0
100
AcDbLine
 10
25.78079999999999
 20
66.5962
 30
0.0
 11
39.68149999999999
 21
66.5962
 31
0.0
  0
LINE
  5
1CF
330
18
100
AcDbEntity
  8
0
100
AcDbLine
 10
25.78079999999999
 20
78.3961
 30
0.0
 11
39.68149999999999
 21
78.3961
 31
0.0
  0
LINE
  5
1D0
330
18
100
AcDbEntity
  8
0
100
AcDbLine
 10
32.0282
 20
74.2843
 30
0.0
 11
32.6208
 21
76.4961
 31
0.0
  0
LINE
  5
1D1
330
18
100
AcDbEntity
  8
0
100
AcDbLine
 10
32.6208
 20
76.4961
 30
0.0
 11
33.21329999999999
 21
74.2843
 31
0.0
  0
LINE
  5
1D2
330
18
100
AcDbEntity
  8
0
100
AcDbLine
 10
33.21329999999999
 20
74.2843
 30
0.0
 11
32.0282
 21
74.2843
 31
0.0
  0
LINE
  5
1D3
330
18
100
AcDbEntity
  8
0
100
AcDbLine
 10
33.19129999999999
 20
70.70759999999999
 30
0.0
 11
32.5987
 21
68.4958
 31
0.0
  0
LINE
  5
1D4
330
18
100
AcDbEntity
  8
0
100
AcDbLine
 10
32.5987
 20
68.4958
 30
0.0
 11
32.0062
 21
70.70759999999999
 31
0.0
  0
LINE
  5
1D5
330
18
100
AcDbEntity
  8
0
100
AcDbLine
 10
32.0062
 20
70.70759999999999
 30
0.0
 11
33.19129999999999
 21
70.70759999999999
 31
0.0
  0
LINE
  5
1D6
330
18
100
AcDbEntity
  8
0
100
AcDbLine
 10
32.61319999999999
 20
76.4961
 30
0.0
 11
32.61319999999999
 21
68.4962
 31
0.0
  0
LINE
  5
1D7
330
18
100
AcDbEntity
  8
0
100
AcDbLine
 10
31.8019
 20
68.4962
 30
0.0
 11
45.1775
 21
68.4962
 31
0.0
  0
LINE
  5
1D8
330
18
100
AcDbEntity
  8
0
100
AcDbLine
 10
31.81319999999999
 20
76.4961
 30
0.0
 11
41.4644
 21
76.4961
 31
0.0
  0
LINE
  5
1D9
330
18
100
AcDbEntity
  8
0
100
AcDbLine
 10
50.8703
 20
91.17230000000001
 30
0.0
 11
53.082
 21
90.5797
 31
0.0
  0
LINE
  5
1DA
330
18
100
AcDbEntity
  8
0
100
AcDbLine
 10
53.082
 20
90.5797
 30
0.0
 11
50.8703
 21
89.9872
 31
0.0
  0
LINE
  5
1DB
330
18
100
AcDbEntity
  8
0
100
AcDbLine
 10
50.8703
 20
89.9872
 30
0.0
 11
50.8703
 21
91.17230000000001
 31
0.0
  0
LINE
  5
1DC
330
18
100
AcDbEntity
  8
0
100
AcDbLine
 10
42.2933
 20
90.00159999999999
 30
0.0
 11
40.08149999999999
 21
90.59420000000001
 31
0.0
  0
LINE
  5
1DD
330
18
100
AcDbEntity
  8
0
100
AcDbLine
 10
40.08149999999999
 20
90.59420000000001
 30
0.0
 11
42.2933
 21
91.18669999999999
 31
0.0
  0
LINE
  5
1DE
330
18
100
AcDbEntity
  8
0
100
AcDbLine
 10
42.2933
 20
91.18669999999999
 30
0.0
 11
42.2933
 21
90.00159999999999
 31
0.0
  0
LINE
  5
1DF
330
18
100
AcDbEntity
  8
0
100
AcDbLine
 10
53.082
 20
90.5797
 30
0.0
 11
40.08189999999999
 21
90.5797
 31
0.0
  0
LINE
  5
1E0
330
18
100
AcDbEntity
  8
0
100
AcDbLine
 10
40.08189999999999
 20
78.79640000000001
 30
0.0
 11
40.08189999999999
 21
91.13989999999999
 31
0.0
  0
LINE
  5
1E1
330
18
100
AcDbEntity
  8
0
100
AcDbLine
 10
53.082
 20
78.79640000000001
 30
0.0
 11
53.082
 21
91.13989999999999
 31
0.0
  0
LINE
  5
1E2
330
18
100
AcDbEntity
  8
0
100
AcDbLine
 10
42.9816
 20
85.00719999999999
 30
0.0
 11
42.9816
 21
78.01359999999999
 31
0.0
  0
LINE
  5
1E3
330
18
100
AcDbEntity
  8
0
100
AcDbLine
 10
50.1819
 20
85.00719999999999
 30
0.0
 11
50.1819
 21
78.01359999999999
 31
0.0
  0
LINE
  5
1E4
330
18
100
AcDbEntity
  8
0
100
AcDbLine
 10
47.9705
 20
85.04000000000001
 30
0.0
 11
50.1826
 21
84.44740000000001
 31
0.0
  0
LINE
  5
1E5
330
18
100
AcDbEntity
  8
0
100
AcDbLine
 10
50.1826
 20
84.44740000000001
 30
0.0
 11
47.9705
 21
83.85479999999999
 31
0.0
  0
LINE
  5
1E6
330
18
100
AcDbEntity
  8
0
100
AcDbLine
 10
47.9705
 20
83.85479999999999
 30
0.0
 11
47.9705
 21
85.04000000000001
 31
0.0
  0
LINE
  5
1E7
330
18
100
AcDbEntity
  8
0
100
AcDbLine
 10
45.19339999999999
 20
83.86929999999999
 30
0.0
 11
42.9816
 21
84.46189999999999
 31
0.0
  0
LINE
  5
1E8
330
18
100
AcDbEntity
  8
0
100
AcDbLine
 10
42.9816
 20
84.46189999999999
 30
0.0
 11
45.19339999999999
 21
85.0544
 31
0.0
  0
LINE
  5
1E9
330
18
100
AcDbEntity
  8
0
100
AcDbLine
 10
45.19339999999999
 20
85.0544
 30
0.0
 11
45.19339999999999
 21
83.86929999999999
 31
0.0
  0
LINE
  5
1EA
330
18
100
AcDbEntity
  8
0
100
AcDbLine
 10
50.1819
 20
84.44740000000001
 30
0.0
 11
42.9816
 21
84.44740000000001
 31
0.0
  0
LINE
  5
1EB
330
18
100
AcDbEntity
  8
0
100
AcDbLine
 10
40.08189999999999
 20
77.9964
 30
0.0
 11
40.08189999999999
 21
66.9962
 31
0.0
  0
LINE
  5
1EC
330
18
100
AcDbEntity
  8
0
100
AcDbLine
 10
122.58
 20
72.4966
 30
0.0
 11
134.7839999999999
 21
72.4966
 31
0.0
  0
LINE
  5
1ED
330
18
100
AcDbEntity
  8
0
100
AcDbLine
 10
106.5949999999999
 20
74.70839999999999
 30
0.0
 11
106.002
 21
72.4966
 31
0.0
  0
LINE
  5
1EE
330
18
100
AcDbEntity
  8
0
100
AcDbLine
 10
106.002
 20
72.4966
 30
0.0
 11
105.4089999999999
 21
74.70839999999999
 31
0.0
  0
LINE
  5
1EF
330
18
100
AcDbEntity
  8
0
100
AcDbLine
 10
105.4089999999999
 20
74.70839999999999
 30
0.0
 11
106.5949999999999
 21
74.70839999999999
 31
0.0
  0
LINE
  5
1F0
330
18
100
AcDbEntity
  8
0
100
AcDbLine
 10
105.4239999999999
 20
184.285
 30
0.0
 11
106.017
 21
186.497
 31
0.0
  0
LINE
  5
1F1
330
18
100
AcDbEntity
  8
0
100
AcDbLine
 10
106.017
 20
186.497
 30
0.0
 11
106.6089999999999
 21
184.285
 31
0.0
  0
LINE
  5
1F2
330
18
100
AcDbEntity
  8
0
100
AcDbLine
 10
106.6089999999999
 20
184.285
 30
0.0
 11
105.4239999999999
 21
184.285
 31
0.0
  0
LINE
  5
1F3
330
18
100
AcDbEntity
  8
0
100
AcDbLine
 10
106.017
 20
72.497
 30
0.0
 11
106.017
 21
186.497
 31
0.0
  0
LINE
  5
1F4
330
18
100
AcDbEntity
  8
0
100
AcDbLine
 10
134.802
 20
74.70839999999999
 30
0.0
 11
134.209
 21
72.4966
 31
0.0
  0
LINE
  5
1F5
330
18
100
AcDbEntity
  8
0
100
AcDbLine
 10
134.209
 20
72.4966
 30
0.0
 11
133.616
 21
74.70839999999999
 31
0.0
  0
LINE
  5
1F6
330
18
100
AcDbEntity
  8
0
100
AcDbLine
 10
133.616
 20
74.70839999999999
 30
0.0
 11
134.802
 21
74.70839999999999
 31
0.0
  0
LINE
  5
1F7
330
18
100
AcDbEntity
  8
0
100
AcDbLine
 10
133.631
 20
189.485
 30
0.0
 11
134.2229999999999
 21
191.697
 31
0.0
  0
LINE
  5
1F8
330
18
100
AcDbEntity
  8
0
100
AcDbLine
 10
134.2229999999999
 20
191.697
 30
0.0
 11
134.816
 21
189.485
 31
0.0
  0
LINE
  5
1F9
330
18
100
AcDbEntity
  8
0
100
AcDbLine
 10
134.816
 20
189.485
 30
0.0
 11
133.631
 21
189.485
 31
0.0
  0
LINE
  5
1FA
330
18
100
AcDbEntity
  8
0
100
AcDbLine
 10
134.2229999999999
 20
72.497
 30
0.0
 11
134.2229999999999
 21
191.697
 31
0.0
  0
LINE
  5
1FB
330
18
100
AcDbEntity
  8
0
100
AcDbLine
 10
105.217
 20
186.497
 30
0.0
 11
118.463
 21
186.497
 31
0.0
  0
LINE
  5
1FC
330
18
100
AcDbEntity
  8
0
100
AcDbLine
 10
127.2799999999999
 20
191.697
 30
0.0
 11
134.7839999999999
 21
191.697
 31
0.0
  0
ARC
  5
1FD
330
18
100
AcDbEntity
  8
0
100
AcDbCircle
 10
79.081117
 20
213.1238259999999
 30
0.0
 40
3.078861999999999
100
AcDbArc
 50
60.83998399999999
 51
119.159996
  0
LINE
  5
1FE
330
18
100
AcDbEntity
  8
0
100
AcDbLine
 10
79.0809
 20
213.012
 30
0.0
 11
77.7367
 21
215.5229999999999
 31
0.0
  0
LINE
  5
1FF
330
18
100
AcDbEntity
  8
0
100
AcDbLine
 10
79.0809
 20
213.012
 30
0.0
 11
80.4259
 21
215.5229999999999
 31
0.0
  0
ARC
  5
200
330
18
100
AcDbEntity
  8
0
100
AcDbCircle
 10
74.081046
 20
213.123515
 30
0.0
 40
3.079218
100
AcDbArc
 50
60.84000999999999
 51
119.15997
  0
LINE
  5
201
330
18
100
AcDbEntity
  8
0
100
AcDbLine
 10
74.08100000000001
 20
213.012
 30
0.0
 11
72.7364
 21
215.5229999999999
 31
0.0
  0
LINE
  5
202
330
18
100
AcDbEntity
  8
0
100
AcDbLine
 10
74.08100000000001
 20
213.012
 30
0.0
 11
75.42570000000001
 21
215.5229999999999
 31
0.0
  0
ARC
  5
203
330
18
100
AcDbEntity
  8
0
100
AcDbCircle
 10
69.081664
 20
213.125699
 30
0.0
 40
3.076890999999999
100
AcDbArc
 50
60.83419899999999
 51
119.1657809999999
  0
LINE
  5
204
330
18
100
AcDbEntity
  8
0
100
AcDbLine
 10
69.08249999999999
 20
213.012
 30
0.0
 11
67.7376
 21
215.5229999999999
 31
0.0
  0
LINE
  5
205
330
18
100
AcDbEntity
  8
0
100
AcDbLine
 10
69.08249999999999
 20
213.012
 30
0.0
 11
70.4261
 21
215.5229999999999
 31
0.0
  0
ARC
  5
206
330
18
100
AcDbEntity
  8
0
100
AcDbCircle
 10
64.08228199999999
 20
213.124764
 30
0.0
 40
3.077958999999999
100
AcDbArc
 50
60.83427600000001
 51
119.165704
  0
LINE
  5
207
330
18
100
AcDbEntity
  8
0
100
AcDbLine
 10
64.0823
 20
213.012
 30
0.0
 11
62.7373
 21
215.5229999999999
 31
0.0
  0
LINE
  5
208
330
18
100
AcDbEntity
  8
0
100
AcDbLine
 10
64.0823
 20
213.012
 30
0.0
 11
65.4269
 21
215.5229999999999
 31
0.0
  0
LINE
  5
209
330
18
100
AcDbEntity
  8
0
100
AcDbLine
 10
61.7365
 20
209.412
 30
0.0
 11
81.58140000000001
 21
209.412
 31
0.0
  0
LINE
  5
20A
330
18
100
AcDbEntity
  8
0
100
AcDbLine
 10
60.7825
 20
215.112
 30
0.0
 11
60.7825
 21
210.1119999999999
 31
0.0
  0
ARC
  5
20B
330
18
100
AcDbEntity
  8
0
100
AcDbCircle
 10
61.75611800000001
 20
210.4393779999999
 30
0.0
 40
1.027079
100
AcDbArc
 50
198.5759879999999
 51
268.9056009999999
  0
LINE
  5
20C
330
18
100
AcDbEntity
  8
0
100
AcDbLine
 10
80.58089999999999
 20
215.812
 30
0.0
 11
81.58140000000001
 21
215.812
 31
0.0
  0
LINE
  5
20D
330
18
100
AcDbEntity
  8
0
100
AcDbLine
 10
75.58069999999999
 20
215.812
 30
0.0
 11
77.5813
 21
215.812
 31
0.0
  0
LINE
  5
20E
330
18
100
AcDbEntity
  8
0
100
AcDbLine
 10
70.58119999999999
 20
215.812
 30
0.0
 11
72.5807
 21
215.812
 31
0.0
  0
LINE
  5
20F
330
18
100
AcDbEntity
  8
0
100
AcDbLine
 10
65.5823
 20
215.812
 30
0.0
 11
67.5825
 21
215.812
 31
0.0
  0
LINE
  5
210
330
18
100
AcDbEntity
  8
0
100
AcDbLine
 10
61.7365
 20
215.812
 30
0.0
 11
62.5823
 21
215.812
 31
0.0
  0
ARC
  5
211
330
18
100
AcDbEntity
  8
0
100
AcDbCircle
 10
61.75573499999999
 20
214.7862729999999
 30
0.0
 40
1.026387999999999
100
AcDbArc
 50
91.07371399999999
 51
161.4716009999999
  0
LINE
  5
212
330
18
100
AcDbEntity
  8
0
100
AcDbLine
 10
42.3822
 20
213.712
 30
0.0
 11
42.3822
 21
225.912
 31
0.0
  0
LINE
  5
213
330
18
100
AcDbEntity
  8
0
100
AcDbLine
 10
42.3822
 20
213.712
 30
0.0
 11
50.7821
 21
213.712
 31
0.0
  0
LINE
  5
214
330
18
100
AcDbEntity
  8
0
100
AcDbLine
 10
53.0824
 20
225.912
 30
0.0
 11
53.0824
 21
228.112
 31
0.0
  0
LINE
  5
215
330
18
100
AcDbEntity
  8
0
100
AcDbLine
 10
40.08189999999999
 20
225.912
 30
0.0
 11
40.08189999999999
 21
228.112
 31
0.0
  0
LINE
  5
216
330
18
100
AcDbEntity
  8
0
100
AcDbLine
 10
40.08189999999999
 20
225.912
 30
0.0
 11
53.0824
 21
225.912
 31
0.0
  0
LINE
  5
217
330
18
100
AcDbEntity
  8
0
100
AcDbLine
 10
40.08189999999999
 20
228.112
 30
0.0
 11
53.0824
 21
228.112
 31
0.0
  0
LINE
  5
218
330
18
100
AcDbEntity
  8
0
100
AcDbLine
 10
50.7821
 20
213.712
 30
0.0
 11
50.7821
 21
225.912
 31
0.0
  0
LINE
  5
219
330
18
100
AcDbEntity
  8
0
100
AcDbLine
 10
42.18199999999999
 20
215.112
 30
0.0
 11
42.18199999999999
 21
210.1119999999999
 31
0.0
  0
LINE
  5
21A
330
18
100
AcDbEntity
  8
0
100
AcDbLine
 10
41.5822
 20
215.112
 30
0.0
 11
41.5822
 21
210.1119999999999
 31
0.0
  0
LINE
  5
21B
330
18
100
AcDbEntity
  8
0
100
AcDbLine
 10
50.7821
 20
215.112
 30
0.0
 11
60.7825
 21
215.112
 31
0.0
  0
LINE
  5
21C
330
18
100
AcDbEntity
  8
0
100
AcDbLine
 10
41.5822
 20
215.112
 30
0.0
 11
42.3822
 21
215.112
 31
0.0
  0
LINE
  5
21D
330
18
100
AcDbEntity
  8
0
100
AcDbLine
 10
41.5822
 20
210.1119999999999
 30
0.0
 11
60.7825
 21
210.1119999999999
 31
0.0
  0
LINE
  5
21E
330
18
100
AcDbEntity
  8
0
100
AcDbLine
 10
49.5828
 20
238.7179999999999
 30
0.0
 11
50.7828
 21
239.21
 31
0.0
  0
LINE
  5
21F
330
18
100
AcDbEntity
  8
0
100
AcDbLine
 10
49.5828
 20
237.917
 30
0.0
 11
50.7828
 21
238.409
 31
0.0
  0
LINE
  5
220
330
18
100
AcDbEntity
  8
0
100
AcDbLine
 10
49.5828
 20
237.115
 30
0.0
 11
50.7828
 21
237.6079999999999
 31
0.0
  0
LINE
  5
221
330
18
100
AcDbEntity
  8
0
100
AcDbLine
 10
49.5828
 20
236.314
 30
0.0
 11
50.7828
 21
236.8059999999999
 31
0.0
  0
LINE
  5
222
330
18
100
AcDbEntity
  8
0
100
AcDbLine
 10
49.5828
 20
235.5129999999999
 30
0.0
 11
50.7828
 21
236.005
 31
0.0
  0
LINE
  5
223
330
18
100
AcDbEntity
  8
0
100
AcDbLine
 10
49.5828
 20
234.712
 30
0.0
 11
50.7828
 21
235.203
 31
0.0
  0
LINE
  5
224
330
18
100
AcDbEntity
  8
0
100
AcDbLine
 10
49.5828
 20
233.91
 30
0.0
 11
50.7828
 21
234.4019999999999
 31
0.0
  0
LINE
  5
225
330
18
100
AcDbEntity
  8
0
100
AcDbLine
 10
49.5828
 20
233.109
 30
0.0
 11
50.7828
 21
233.6009999999999
 31
0.0
  0
LINE
  5
226
330
18
100
AcDbEntity
  8
0
100
AcDbLine
 10
49.5828
 20
232.308
 30
0.0
 11
50.7828
 21
232.8
 31
0.0
  0
LINE
  5
227
330
18
100
AcDbEntity
  8
0
100
AcDbLine
 10
49.5828
 20
231.5059999999999
 30
0.0
 11
50.7828
 21
231.998
 31
0.0
  0
LINE
  5
228
330
18
100
AcDbEntity
  8
0
100
AcDbLine
 10
49.5828
 20
230.705
 30
0.0
 11
50.7828
 21
231.197
 31
0.0
  0
LINE
  5
229
330
18
100
AcDbEntity
  8
0
100
AcDbLine
 10
49.5828
 20
229.904
 30
0.0
 11
50.7828
 21
230.396
 31
0.0
  0
LINE
  5
22A
330
18
100
AcDbEntity
  8
0
100
AcDbLine
 10
49.5828
 20
229.102
 30
0.0
 11
50.7828
 21
229.594
 31
0.0
  0
LINE
  5
22B
330
18
100
AcDbEntity
  8
0
100
AcDbLine
 10
50.1826
 20
240.113
 30
0.0
 11
50.48960000000001
 21
239.2009999999999
 31
0.0
  0
LINE
  5
22C
330
18
100
AcDbEntity
  8
0
100
AcDbLine
 10
50.1826
 20
240.113
 30
0.0
 11
49.8753
 21
239.2009999999999
 31
0.0
  0
LINE
  5
22D
330
18
100
AcDbEntity
  8
0
100
AcDbLine
 10
50.48960000000001
 20
228.112
 30
0.0
 11
50.48960000000001
 21
239.2009999999999
 31
0.0
  0
LINE
  5
22E
330
18
100
AcDbEntity
  8
0
100
AcDbLine
 10
49.8753
 20
228.112
 30
0.0
 11
49.8753
 21
239.2009999999999
 31
0.0
  0
LINE
  5
22F
330
18
100
AcDbEntity
  8
0
  6
AIGENLINE001
100
AcDbLine
 10
50.1826
 20
227.2619999999999
 30
0.0
 11
50.1826
 21
240.9289999999999
 31
0.0
  0
LINE
  5
230
330
18
100
AcDbEntity
  8
0
100
AcDbLine
 10
49.5828
 20
228.3009999999999
 30
0.0
 11
50.7828
 21
228.793
 31
0.0
  0
LINE
  5
231
330
18
100
AcDbEntity
  8
0
100
AcDbLine
 10
45.9827
 20
238.7179999999999
 30
0.0
 11
47.18259999999999
 21
239.21
 31
0.0
  0
LINE
  5
232
330
18
100
AcDbEntity
  8
0
100
AcDbLine
 10
45.9827
 20
237.917
 30
0.0
 11
47.18259999999999
 21
238.409
 31
0.0
  0
LINE
  5
233
330
18
100
AcDbEntity
  8
0
100
AcDbLine
 10
45.9827
 20
237.115
 30
0.0
 11
47.18259999999999
 21
237.6079999999999
 31
0.0
  0
LINE
  5
234
330
18
100
AcDbEntity
  8
0
100
AcDbLine
 10
45.9827
 20
236.314
 30
0.0
 11
47.18259999999999
 21
236.8059999999999
 31
0.0
  0
LINE
  5
235
330
18
100
AcDbEntity
  8
0
100
AcDbLine
 10
45.9827
 20
235.5129999999999
 30
0.0
 11
47.18259999999999
 21
236.005
 31
0.0
  0
LINE
  5
236
330
18
100
AcDbEntity
  8
0
100
AcDbLine
 10
45.9827
 20
234.712
 30
0.0
 11
47.18259999999999
 21
235.203
 31
0.0
  0
LINE
  5
237
330
18
100
AcDbEntity
  8
0
100
AcDbLine
 10
45.9827
 20
233.91
 30
0.0
 11
47.18259999999999
 21
234.4019999999999
 31
0.0
  0
LINE
  5
238
330
18
100
AcDbEntity
  8
0
100
AcDbLine
 10
45.9827
 20
233.109
 30
0.0
 11
47.18259999999999
 21
233.6009999999999
 31
0.0
  0
LINE
  5
239
330
18
100
AcDbEntity
  8
0
100
AcDbLine
 10
45.9827
 20
232.308
 30
0.0
 11
47.18259999999999
 21
232.8
 31
0.0
  0
LINE
  5
23A
330
18
100
AcDbEntity
  8
0
100
AcDbLine
 10
45.9827
 20
231.5059999999999
 30
0.0
 11
47.18259999999999
 21
231.998
 31
0.0
  0
LINE
  5
23B
330
18
100
AcDbEntity
  8
0
100
AcDbLine
 10
45.9827
 20
230.705
 30
0.0
 11
47.18259999999999
 21
231.197
 31
0.0
  0
LINE
  5
23C
330
18
100
AcDbEntity
  8
0
100
AcDbLine
 10
45.9827
 20
229.904
 30
0.0
 11
47.18259999999999
 21
230.396
 31
0.0
  0
LINE
  5
23D
330
18
100
AcDbEntity
  8
0
100
AcDbLine
 10
45.9827
 20
229.102
 30
0.0
 11
47.18259999999999
 21
229.594
 31
0.0
  0
LINE
  5
23E
330
18
100
AcDbEntity
  8
0
100
AcDbLine
 10
46.5825
 20
240.113
 30
0.0
 11
46.8894
 21
239.2009999999999
 31
0.0
  0
LINE
  5
23F
330
18
100
AcDbEntity
  8
0
100
AcDbLine
 10
46.5825
 20
240.113
 30
0.0
 11
46.27519999999999
 21
239.2009999999999
 31
0.0
  0
LINE
  5
240
330
18
100
AcDbEntity
  8
0
100
AcDbLine
 10
46.8894
 20
228.112
 30
0.0
 11
46.8894
 21
239.2009999999999
 31
0.0
  0
LINE
  5
241
330
18
100
AcDbEntity
  8
0
100
AcDbLine
 10
46.27519999999999
 20
228.112
 30
0.0
 11
46.27519999999999
 21
239.2009999999999
 31
0.0
  0
LINE
  5
242
330
18
100
AcDbEntity
  8
0
  6
AIGENLINE001
100
AcDbLine
 10
46.5825
 20
227.2619999999999
 30
0.0
 11
46.5825
 21
240.9289999999999
 31
0.0
  0
LINE
  5
243
330
18
100
AcDbEntity
  8
0
100
AcDbLine
 10
45.9827
 20
228.3009999999999
 30
0.0
 11
47.18259999999999
 21
228.793
 31
0.0
  0
LINE
  5
244
330
18
100
AcDbEntity
  8
0
100
AcDbLine
 10
42.38249999999999
 20
238.7179999999999
 30
0.0
 11
43.5825
 21
239.21
 31
0.0
  0
LINE
  5
245
330
18
100
AcDbEntity
  8
0
100
AcDbLine
 10
42.38249999999999
 20
237.917
 30
0.0
 11
43.5825
 21
238.409
 31
0.0
  0
LINE
  5
246
330
18
100
AcDbEntity
  8
0
100
AcDbLine
 10
42.38249999999999
 20
237.115
 30
0.0
 11
43.5825
 21
237.6079999999999
 31
0.0
  0
LINE
  5
247
330
18
100
AcDbEntity
  8
0
100
AcDbLine
 10
42.38249999999999
 20
236.314
 30
0.0
 11
43.5825
 21
236.8059999999999
 31
0.0
  0
LINE
  5
248
330
18
100
AcDbEntity
  8
0
100
AcDbLine
 10
42.38249999999999
 20
235.5129999999999
 30
0.0
 11
43.5825
 21
236.005
 31
0.0
  0
LINE
  5
249
330
18
100
AcDbEntity
  8
0
100
AcDbLine
 10
42.38249999999999
 20
234.712
 30
0.0
 11
43.5825
 21
235.203
 31
0.0
  0
LINE
  5
24A
330
18
100
AcDbEntity
  8
0
100
AcDbLine
 10
42.38249999999999
 20
233.91
 30
0.0
 11
43.5825
 21
234.4019999999999
 31
0.0
  0
LINE
  5
24B
330
18
100
AcDbEntity
  8
0
100
AcDbLine
 10
42.38249999999999
 20
233.109
 30
0.0
 11
43.5825
 21
233.6009999999999
 31
0.0
  0
LINE
  5
24C
330
18
100
AcDbEntity
  8
0
100
AcDbLine
 10
42.38249999999999
 20
232.308
 30
0.0
 11
43.5825
 21
232.8
 31
0.0
  0
LINE
  5
24D
330
18
100
AcDbEntity
  8
0
100
AcDbLine
 10
42.38249999999999
 20
231.5059999999999
 30
0.0
 11
43.5825
 21
231.998
 31
0.0
  0
LINE
  5
24E
330
18
100
AcDbEntity
  8
0
100
AcDbLine
 10
42.38249999999999
 20
230.705
 30
0.0
 11
43.5825
 21
231.197
 31
0.0
  0
LINE
  5
24F
330
18
100
AcDbEntity
  8
0
100
AcDbLine
 10
42.38249999999999
 20
229.904
 30
0.0
 11
43.5825
 21
230.396
 31
0.0
  0
LINE
  5
250
330
18
100
AcDbEntity
  8
0
100
AcDbLine
 10
42.38249999999999
 20
229.102
 30
0.0
 11
43.5825
 21
229.594
 31
0.0
  0
LINE
  5
251
330
18
100
AcDbEntity
  8
0
100
AcDbLine
 10
42.9823
 20
240.113
 30
0.0
 11
43.28929999999999
 21
239.2009999999999
 31
0.0
  0
LINE
  5
252
330
18
100
AcDbEntity
  8
0
100
AcDbLine
 10
42.9823
 20
240.113
 30
0.0
 11
42.675
 21
239.2009999999999
 31
0.0
  0
LINE
  5
253
330
18
100
AcDbEntity
  8
0
100
AcDbLine
 10
43.28929999999999
 20
228.112
 30
0.0
 11
43.28929999999999
 21
239.2009999999999
 31
0.0
  0
LINE
  5
254
330
18
100
AcDbEntity
  8
0
100
AcDbLine
 10
42.675
 20
228.112
 30
0.0
 11
42.675
 21
239.2009999999999
 31
0.0
  0
LINE
  5
255
330
18
100
AcDbEntity
  8
0
  6
AIGENLINE001
100
AcDbLine
 10
42.9823
 20
227.2619999999999
 30
0.0
 11
42.9823
 21
240.9289999999999
 31
0.0
  0
LINE
  5
256
330
18
100
AcDbEntity
  8
0
100
AcDbLine
 10
42.38249999999999
 20
228.3009999999999
 30
0.0
 11
43.5825
 21
228.793
 31
0.0
  0
ARC
  5
257
330
18
100
AcDbEntity
  8
0
100
AcDbCircle
 10
84.081015
 20
213.124453
 30
0.0
 40
3.078315
100
AcDbArc
 50
60.83430200000001
 51
119.1656779999999
  0
LINE
  5
258
330
18
100
AcDbEntity
  8
0
100
AcDbLine
 10
84.0812
 20
213.012
 30
0.0
 11
85.4255
 21
215.5229999999999
 31
0.0
  0
LINE
  5
259
330
18
100
AcDbEntity
  8
0
100
AcDbLine
 10
84.0812
 20
213.012
 30
0.0
 11
82.73619999999999
 21
215.5229999999999
 31
0.0
  0
ARC
  5
25A
330
18
100
AcDbEntity
  8
0
100
AcDbCircle
 10
89.081086
 20
213.123515
 30
0.0
 40
3.079218
100
AcDbArc
 50
60.84000999999999
 51
119.15997
  0
LINE
  5
25B
330
18
100
AcDbEntity
  8
0
100
AcDbLine
 10
89.0811
 20
213.012
 30
0.0
 11
90.42570000000001
 21
215.5229999999999
 31
0.0
  0
LINE
  5
25C
330
18
100
AcDbEntity
  8
0
100
AcDbLine
 10
89.0811
 20
213.012
 30
0.0
 11
87.73650000000001
 21
215.5229999999999
 31
0.0
  0
ARC
  5
25D
330
18
100
AcDbEntity
  8
0
100
AcDbCircle
 10
94.08115699999999
 20
213.1238259999999
 30
0.0
 40
3.078861999999999
100
AcDbArc
 50
60.83998399999999
 51
119.159996
  0
LINE
  5
25E
330
18
100
AcDbEntity
  8
0
100
AcDbLine
 10
94.08100000000001
 20
213.012
 30
0.0
 11
95.426
 21
215.5229999999999
 31
0.0
  0
LINE
  5
25F
330
18
100
AcDbEntity
  8
0
100
AcDbLine
 10
94.08100000000001
 20
213.012
 30
0.0
 11
92.7367
 21
215.5229999999999
 31
0.0
  0
ARC
  5
260
330
18
100
AcDbEntity
  8
0
100
AcDbCircle
 10
99.08122800000001
 20
213.125391
 30
0.0
 40
3.077411999999999
100
AcDbArc
 50
60.82859200000001
 51
119.1713879999999
  0
LINE
  5
261
330
18
100
AcDbEntity
  8
0
100
AcDbLine
 10
99.0812
 20
213.012
 30
0.0
 11
100.4259999999999
 21
215.5229999999999
 31
0.0
  0
LINE
  5
262
330
18
100
AcDbEntity
  8
0
100
AcDbLine
 10
99.0812
 20
213.012
 30
0.0
 11
97.7363
 21
215.5229999999999
 31
0.0
  0
LINE
  5
263
330
18
100
AcDbEntity
  8
0
100
AcDbLine
 10
101.427
 20
209.412
 30
0.0
 11
81.58140000000001
 21
209.412
 31
0.0
  0
LINE
  5
264
330
18
100
AcDbEntity
  8
0
100
AcDbLine
 10
102.381
 20
215.112
 30
0.0
 11
102.381
 21
210.1119999999999
 31
0.0
  0
ARC
  5
265
330
18
100
AcDbEntity
  8
0
100
AcDbCircle
 10
101.4072869999999
 20
210.43951
 30
0.0
 40
1.02722
100
AcDbArc
 50
271.1193169999999
 51
341.418875
  0
LINE
  5
266
330
18
100
AcDbEntity
  8
0
100
AcDbLine
 10
82.58119999999999
 20
215.812
 30
0.0
 11
81.58140000000001
 21
215.812
 31
0.0
  0
LINE
  5
267
330
18
100
AcDbEntity
  8
0
100
AcDbLine
 10
87.58180000000001
 20
215.812
 30
0.0
 11
85.5812
 21
215.812
 31
0.0
  0
LINE
  5
268
330
18
100
AcDbEntity
  8
0
100
AcDbLine
 10
92.581
 20
215.812
 30
0.0
 11
90.58139999999999
 21
215.812
 31
0.0
  0
LINE
  5
269
330
18
100
AcDbEntity
  8
0
100
AcDbLine
 10
97.58090000000001
 20
215.812
 30
0.0
 11
95.58100000000001
 21
215.812
 31
0.0
  0
LINE
  5
26A
330
18
100
AcDbEntity
  8
0
100
AcDbLine
 10
101.427
 20
215.812
 30
0.0
 11
100.582
 21
215.812
 31
0.0
  0
ARC
  5
26B
330
18
100
AcDbEntity
  8
0
100
AcDbCircle
 10
101.407693
 20
214.7861709999999
 30
0.0
 40
1.026497999999999
100
AcDbArc
 50
18.532315
 51
88.90258700000002
  0
LINE
  5
26C
330
18
100
AcDbEntity
  8
0
100
AcDbLine
 10
120.781
 20
213.712
 30
0.0
 11
120.781
 21
225.912
 31
0.0
  0
LINE
  5
26D
330
18
100
AcDbEntity
  8
0
100
AcDbLine
 10
120.782
 20
213.712
 30
0.0
 11
112.3809999999999
 21
213.712
 31
0.0
  0
LINE
  5
26E
330
18
100
AcDbEntity
  8
0
100
AcDbLine
 10
110.081
 20
225.912
 30
0.0
 11
110.081
 21
228.112
 31
0.0
  0
LINE
  5
26F
330
18
100
AcDbEntity
  8
0
100
AcDbLine
 10
118.08
 20
225.912
 30
0.0
 11
110.081
 21
225.912
 31
0.0
  0
LINE
  5
270
330
18
100
AcDbEntity
  8
0
100
AcDbLine
 10
118.08
 20
228.112
 30
0.0
 11
110.081
 21
228.112
 31
0.0
  0
LINE
  5
271
330
18
100
AcDbEntity
  8
0
100
AcDbLine
 10
112.3809999999999
 20
213.712
 30
0.0
 11
112.3809999999999
 21
225.912
 31
0.0
  0
LINE
  5
272
330
18
100
AcDbEntity
  8
0
100
AcDbLine
 10
120.981
 20
215.113
 30
0.0
 11
120.981
 21
213.7299999999999
 31
0.0
  0
LINE
  5
273
330
18
100
AcDbEntity
  8
0
100
AcDbLine
 10
120.981
 20
211.4959999999999
 30
0.0
 11
120.981
 21
210.1119999999999
 31
0.0
  0
LINE
  5
274
330
18
100
AcDbEntity
  8
0
100
AcDbLine
 10
112.3809999999999
 20
215.112
 30
0.0
 11
102.382
 21
215.112
 31
0.0
  0
LINE
  5
275
330
18
100
AcDbEntity
  8
0
100
AcDbLine
 10
121.581
 20
215.112
 30
0.0
 11
120.781
 21
215.112
 31
0.0
  0
LINE
  5
276
330
18
100
AcDbEntity
  8
0
100
AcDbLine
 10
121.9829999999999
 20
210.1119999999999
 30
0.0
 11
102.381
 21
210.1119999999999
 31
0.0
  0
LINE
  5
277
330
18
100
AcDbEntity
  8
_________2
100
AcDbLine
 10
205.301
 20
127.411
 30
0.0
 11
183.551
 21
127.411
 31
0.0
  0
LINE
  5
278
330
18
100
AcDbEntity
  8
_________2
100
AcDbLine
 10
100.2999999999999
 20
-4.09108
 30
0.0
 11
100.2999999999999
 21
-21.07099999999999
 31
0.0
  0
LINE
  5
279
330
18
100
AcDbEntity
  8
_________2
100
AcDbLine
 10
100.2999999999999
 20
275.9309999999999
 30
0.0
 11
100.2999999999999
 21
258.911
 31
0.0
  0
LINE
  5
27A
330
18
100
AcDbEntity
  8
_________2
100
AcDbLine
 10
17.04939999999999
 20
127.411
 30
0.0
 11
-4.70103
 21
127.411
 31
0.0
  0
LINE
  5
27B
330
18
100
AcDbEntity
  8
_________2
100
AcDbLine
 10
76.7408
 20
29.8047
 30
0.0
 11
74.55459999999999
 21
29.8047
 31
0.0
  0
LINE
  5
27C
330
18
100
AcDbEntity
  8
_________2
100
AcDbLine
 10
77.2335
 20
29.8047
 30
0.0
 11
76.9813
 21
29.8047
 31
0.0
  0
LINE
  5
27D
330
18
100
AcDbEntity
  8
_________2
100
AcDbLine
 10
77.7262
 20
29.8047
 30
0.0
 11
80.6511
 21
29.8047
 31
0.0
  0
LINE
  5
27E
330
18
100
AcDbEntity
  8
_________2
100
AcDbLine
 10
77.2335
 20
29.8047
 30
0.0
 11
77.48569999999999
 21
29.8047
 31
0.0
  0
LINE
  5
27F
330
18
100
AcDbEntity
  8
_________2
100
AcDbLine
 10
70.8373
 20
29.8047
 30
0.0
 11
68.6503
 21
29.8047
 31
0.0
  0
LINE
  5
280
330
18
100
AcDbEntity
  8
_________2
100
AcDbLine
 10
71.3293
 20
29.8047
 30
0.0
 11
71.07779999999999
 21
29.8047
 31
0.0
  0
LINE
  5
281
330
18
100
AcDbEntity
  8
_________2
100
AcDbLine
 10
71.3293
 20
30.2974
 30
0.0
 11
71.3293
 21
32.4844
 31
0.0
  0
LINE
  5
282
330
18
100
AcDbEntity
  8
_________2
100
AcDbLine
 10
71.3293
 20
29.8047
 30
0.0
 11
71.3293
 21
30.0573
 31
0.0
  0
LINE
  5
283
330
18
100
AcDbEntity
  8
_________2
100
AcDbLine
 10
71.8219
 20
29.8047
 30
0.0
 11
74.0089
 21
29.8047
 31
0.0
  0
LINE
  5
284
330
18
100
AcDbEntity
  8
_________2
100
AcDbLine
 10
71.3293
 20
29.8047
 30
0.0
 11
71.5814
 21
29.8047
 31
0.0
  0
LINE
  5
285
330
18
100
AcDbEntity
  8
_________2
100
AcDbLine
 10
71.3293
 20
29.3128
 30
0.0
 11
71.3293
 21
27.1262
 31
0.0
  0
LINE
  5
286
330
18
100
AcDbEntity
  8
_________2
100
AcDbLine
 10
71.3293
 20
29.8047
 30
0.0
 11
71.3293
 21
29.5532
 31
0.0
  0
LINE
  5
287
330
18
100
AcDbEntity
  8
_________2
100
AcDbLine
 10
75.0403
 20
28.5852
 30
0.0
 11
80.21829999999999
 21
27.7204
 31
0.0
  0
LINE
  5
288
330
18
100
AcDbEntity
  8
_________2
100
AcDbLine
 10
75.0403
 20
31.0247
 30
0.0
 11
80.21829999999999
 21
31.8901
 31
0.0
  0
LINE
  5
289
330
18
100
AcDbEntity
  8
_________2
100
AcDbLine
 10
80.21829999999999
 20
27.7204
 30
0.0
 11
80.21829999999999
 21
31.8901
 31
0.0
  0
LINE
  5
28A
330
18
100
AcDbEntity
  8
_________2
100
AcDbLine
 10
75.0403
 20
28.5852
 30
0.0
 11
75.0403
 21
31.0247
 31
0.0
  0
ARC
  5
28B
330
18
100
AcDbEntity
  8
_________2
100
AcDbCircle
 10
71.282674
 20
29.757801
 30
0.0
 40
1.267714
100
AcDbArc
 50
2.122084
 51
87.89408399999999
  0
ARC
  5
28C
330
18
100
AcDbEntity
  8
_________2
100
AcDbCircle
 10
71.37581299999999
 20
29.758546
 30
0.0
 40
1.266968
100
AcDbArc
 50
92.10578299999999
 51
177.91037
  0
ARC
  5
28D
330
18
100
AcDbEntity
  8
_________2
100
AcDbCircle
 10
71.376186
 20
29.851671
 30
0.0
 40
1.267368
100
AcDbArc
 50
182.122036
 51
267.877993
  0
ARC
  5
28E
330
18
100
AcDbEntity
  8
_________2
100
AcDbCircle
 10
71.28236899999999
 20
29.852348
 30
0.0
 40
1.268043999999999
100
AcDbArc
 50
272.119164
 51
357.8484849999999
  0
ARC
  5
28F
330
18
100
AcDbEntity
  8
_________2
100
AcDbCircle
 10
71.24889
 20
29.72473199999999
 30
0.0
 40
2.166831
100
AcDbArc
 50
2.116143999999999
 51
87.874379
  0
ARC
  5
290
330
18
100
AcDbEntity
  8
_________2
100
AcDbCircle
 10
71.408928
 20
29.726146
 30
0.0
 40
2.165392999999999
100
AcDbArc
 50
92.108509
 51
177.919865
  0
ARC
  5
291
330
18
100
AcDbEntity
  8
_________2
100
AcDbCircle
 10
71.409267
 20
29.884752
 30
0.0
 40
2.165783
100
AcDbArc
 50
182.117133
 51
267.882897
  0
ARC
  5
292
330
18
100
AcDbEntity
  8
_________2
100
AcDbCircle
 10
71.24928699999999
 20
29.88542999999999
 30
0.0
 40
2.166459
100
AcDbArc
 50
272.115468
 51
357.865604
  0
TEXT
  5
293
330
18
100
AcDbEntity
  8
_________2
100
AcDbText
 10
104.605
 20
1.67949
 30
0.0
 40
3.09234
  1
図番
 41
0.5
100
AcDbText
  0
LINE
  5
294
330
18
100
AcDbEntity
  8
_________2
100
AcDbLine
 10
103.55
 20
5.908719999999999
 30
0.0
 11
183.551
 21
5.908719999999999
 31
0.0
  0
TEXT
  5
295
330
18
100
AcDbEntity
  8
_________2
100
AcDbText
 10
104.605
 20
11.67929999999999
 30
0.0
 40
3.09234
  1
品番
 41
0.5
100
AcDbText
  0
TEXT
  5
296
330
18
100
AcDbEntity
  8
_________2
100
AcDbText
 10
104.605
 20
31.8184
 30
0.0
 40
3.09234
  1
名称
 41
0.5
100
AcDbText
  0
TEXT
  5
297
330
18
100
AcDbEntity
  8
_________2
100
AcDbText
 10
91.84495833333334
 20
26.8223
 30
0.0
 40
3.65458
  1
mm
 41
0.5
 72
     1
 11
93.36769999999999
 21
26.8223
 31
0.0
100
AcDbText
  0
TEXT
  5
298
330
18
100
AcDbEntity
  8
_________2
100
AcDbText
 10
85.64299999999999
 20
31.8184
 30
0.0
 40
3.09234
  1
単位
 41
0.5
100
AcDbText
  0
TEXT
  5
299
330
18
100
AcDbEntity
  8
_________2
100
AcDbText
 10
85.64299999999999
 20
19.41079999999999
 30
0.0
 40
3.09234
  1
尺度
 41
0.5
100
AcDbText
  0
TEXT
  5
29A
330
18
100
AcDbEntity
  8
_________2
100
AcDbText
 10
90.54855866666668
 20
13.21819999999999
 30
0.0
 40
3.65458
  1
1 ： 5
 41
0.5
 72
     1
 11
93.9595
 21
13.21819999999999
 31
0.0
100
AcDbText
  0
TEXT
  5
29B
330
18
100
AcDbEntity
  8
_________2
100
AcDbText
 10
136.33455
 20
9.1082
 30
0.0
 40
3.9357
  1
EC357006
 41
0.5
 72
     1
 11
143.55
 21
9.1082
 31
0.0
100
AcDbText
  0
TEXT
  5
29C
330
18
100
AcDbEntity
  8
_________2
100
AcDbText
 10
136.33455
 20
-0.8926299999999999
 30
0.0
 40
3.9357
  1
EC357006
 41
0.5
 72
     1
 11
143.55
 21
-0.8926299999999999
 31
0.0
100
AcDbText
  0
TEXT
  5
29D
330
18
100
AcDbEntity
  8
_________2
100
AcDbText
 10
109.179
 20
24.2261
 30
0.0
 40
3.9357
  1
システム02  L型バスグリップ〈Lタイプ〉
 41
0.5
100
AcDbText
  0
TEXT
  5
29E
330
18
100
AcDbEntity
  8
_________2
100
AcDbText
 10
39.303281
 20
13.6034
 30
0.0
 40
3.65458
  1
田尻
 41
0.5
 72
     1
 11
41.3133
 21
13.6034
 31
0.0
100
AcDbText
  0
TEXT
  5
29F
330
18
100
AcDbEntity
  8
_________2
100
AcDbText
 10
20.79019066666667
 20
13.6034
 30
0.0
 40
3.65458
  1
石原
 41
0.5
 72
     1
 11
22.7393
 21
13.6034
 31
0.0
100
AcDbText
  0
TEXT
  5
2A0
330
18
100
AcDbEntity
  8
_________2
100
AcDbText
 10
67.7856
 20
13.21819999999999
 30
0.0
 40
3.65458
  1
09.10.05
 41
0.5
100
AcDbText
  0
TEXT
  5
2A1
330
18
100
AcDbEntity
  8
_________2
100
AcDbText
 10
66.5929
 20
19.41079999999999
 30
0.0
 40
3.09234
  1
日付
 41
0.5
100
AcDbText
  0
TEXT
  5
2A2
330
18
100
AcDbEntity
  8
_________2
100
AcDbText
 10
29.63919999999999
 20
19.41079999999999
 30
0.0
 40
3.09234
  1
検図
 41
0.5
100
AcDbText
  0
TEXT
  5
2A3
330
18
100
AcDbEntity
  8
_________2
100
AcDbText
 10
18.0209
 20
5.21143
 30
0.0
 40
3.09234
  1
備考
 41
0.5
100
AcDbText
  0
TEXT
  5
2A4
330
18
100
AcDbEntity
  8
_________2
100
AcDbText
 10
18.0209
 20
19.41079999999999
 30
0.0
 40
3.09234
  1
製図
 41
0.5
100
AcDbText
  0
TEXT
  5
2A5
330
18
100
AcDbEntity
  8
_________2
100
AcDbText
 10
23.863231
 20
27.9368
 30
0.0
 40
4.497939999999999
  1
セラトレーディング株式会社
 41
0.5
 72
     1
 11
41.1803
 21
27.9368
 31
0.0
100
AcDbText
  0
LINE
  5
2A6
330
18
100
AcDbEntity
  8
_________2
100
AcDbLine
 10
183.551
 20
-4.09108
 30
0.0
 11
17.04939999999999
 21
-4.09108
 31
0.0
  0
LINE
  5
2A7
330
18
100
AcDbEntity
  8
_________2
100
AcDbLine
 10
17.04939999999999
 20
-4.09108
 30
0.0
 11
17.04939999999999
 21
258.911
 31
0.0
  0
LINE
  5
2A8
330
18
100
AcDbEntity
  8
_________2
100
AcDbLine
 10
17.04939999999999
 20
258.911
 30
0.0
 11
183.551
 21
258.911
 31
0.0
  0
LINE
  5
2A9
330
18
100
AcDbEntity
  8
_________2
100
AcDbLine
 10
183.551
 20
258.911
 30
0.0
 11
183.551
 21
-4.09108
 31
0.0
  0
LINE
  5
2AA
330
18
100
AcDbEntity
  8
_________2
100
AcDbLine
 10
65.5497
 20
9.409299999999999
 30
0.0
 11
65.5497
 21
35.9091
 31
0.0
  0
LINE
  5
2AB
330
18
100
AcDbEntity
  8
_________2
100
AcDbLine
 10
84.54959999999999
 20
9.409299999999999
 30
0.0
 11
84.54959999999999
 21
35.9091
 31
0.0
  0
LINE
  5
2AC
330
18
100
AcDbEntity
  8
_________2
100
AcDbLine
 10
103.55
 20
-4.09108
 30
0.0
 11
103.55
 21
35.9091
 31
0.0
  0
LINE
  5
2AD
330
18
100
AcDbEntity
  8
_________2
100
AcDbLine
 10
28.54919999999999
 20
9.409299999999999
 30
0.0
 11
28.54919999999999
 21
23.4092
 31
0.0
  0
LINE
  5
2AE
330
18
100
AcDbEntity
  8
_________2
100
AcDbLine
 10
17.04939999999999
 20
9.409299999999999
 30
0.0
 11
103.55
 21
9.409299999999999
 31
0.0
  0
LINE
  5
2AF
330
18
100
AcDbEntity
  8
_________2
100
AcDbLine
 10
17.04939999999999
 20
23.4092
 30
0.0
 11
103.55
 21
23.4092
 31
0.0
  0
LINE
  5
2B0
330
18
100
AcDbEntity
  8
_________2
100
AcDbLine
 10
103.55
 20
15.9085
 30
0.0
 11
183.551
 21
15.9085
 31
0.0
  0
LINE
  5
2B1
330
18
100
AcDbEntity
  8
_________2
100
AcDbLine
 10
17.04939999999999
 20
35.9091
 30
0.0
 11
183.551
 21
35.9091
 31
0.0
  0
LINE
  5
2C8
330
18
100
AcDbEntity
  8
0
100
AcDbLine
 10
127.263
 20
186.497
 30
0.0
 11
128.6969999999999
 21
186.497
 31
0.0
  0
LINE
  5
2C9
330
18
100
AcDbEntity
  8
0
100
AcDbLine
 10
127.98
 20
187.214
 30
0.0
 11
127.98
 21
185.78
 31
0.0
  0
LINE
  5
2CA
330
18
100
AcDbEntity
  8
0
100
AcDbLine
 10
119.262
 20
190.097
 30
0.0
 11
120.697
 21
190.097
 31
0.0
  0
LINE
  5
2CB
330
18
100
AcDbEntity
  8
0
100
AcDbLine
 10
119.9799999999999
 20
190.815
 30
0.0
 11
119.9799999999999
 21
189.3799999999999
 31
0.0
  0
LINE
  5
2CC
330
18
100
AcDbEntity
  8
0
100
AcDbLine
 10
119.262
 20
182.897
 30
0.0
 11
120.697
 21
182.897
 31
0.0
  0
LINE
  5
2CD
330
18
100
AcDbEntity
  8
0
100
AcDbLine
 10
119.9799999999999
 20
183.614
 30
0.0
 11
119.9799999999999
 21
182.1799999999999
 31
0.0
  0
ENDSEC
  0
SECTION
  2
OBJECTS
  0
DICTIONARY
  5
C
330
0
100
AcDbDictionary
281
     1
  3
ACAD_GROUP
350
D
  3
ACAD_LAYOUT
350
2B7
  3
ACAD_MLINESTYLE
350
1B
  3
ACAD_PLOTSETTINGS
350
2B8
  3
ACAD_PLOTSTYLENAME
350
2B5
  0
DICTIONARY
  5
D
102
{ACAD_REACTORS
330
C
102
}
330
C
100
AcDbDictionary
281
     1
  0
DICTIONARY
  5
2B7
102
{ACAD_REACTORS
330
C
102
}
330
C
100
AcDbDictionary
281
     1
  3
Model
350
2B9
  3
ﾚｲｱｳﾄ1
350
2BA
  0
DICTIONARY
  5
1B
102
{ACAD_REACTORS
330
C
102
}
330
C
100
AcDbDictionary
281
     1
  3
STANDARD
350
1C
  0
DICTIONARY
  5
2B8
102
{ACAD_REACTORS
330
C
102
}
330
C
100
AcDbDictionary
281
     1
  0
ACDBDICTIONARYWDFLT
  5
2B5
102
{ACAD_REACTORS
330
C
102
}
330
C
100
AcDbDictionary
281
     1
  3
Normal
350
2B6
100
AcDbDictionaryWithDefault
340
2B6
  0
LAYOUT
  5
2B9
102
{ACAD_REACTORS
330
2B7
102
}
330
2B7
100
AcDbPlotSettings
  1

  2
DocuPrint2060
  4

  6

 40
0.0
 41
0.0
 42
0.0
 43
0.0
 44
0.0
 45
0.0
 46
0.0
 47
0.0
 48
0.0
 49
0.0
140
0.0
141
0.0
142
1.0
143
1.0
 70
  1712
 72
     0
 73
     0
 74
     0
  7

 75
     0
147
1.0
148
0.0
149
0.0
100
AcDbLayout
  1
Model
 70
     1
 71
     0
 10
0.0
 20
0.0
 11
12.0
 21
9.0
 12
0.0
 22
0.0
 32
0.0
 14
0.0
 24
0.0
 34
0.0
 15
0.0
 25
0.0
 35
0.0
146
0.0
 13
0.0
 23
0.0
 33
0.0
 16
1.0
 26
0.0
 36
0.0
 17
0.0
 27
1.0
 37
0.0
 76
     0
330
18
  0
LAYOUT
  5
2BA
102
{ACAD_REACTORS
330
2B7
102
}
330
2B7
100
AcDbPlotSettings
  1

  2
DocuPrint2060
  4

  6

 40
0.0
 41
0.0
 42
0.0
 43
0.0
 44
0.0
 45
0.0
 46
0.0
 47
0.0
 48
0.0
 49
0.0
140
0.0
141
0.0
142
1.0
143
1.0
 70
   688
 72
     0
 73
     0
 74
     5
  7

 75
    16
147
1.0
148
0.0
149
0.0
100
AcDbLayout
  1
ﾚｲｱｳﾄ1
 70
     1
 71
     1
 10
0.0
 20
0.0
 11
12.0
 21
9.0
 12
0.0
 22
0.0
 32
0.0
 14
1.000000000000000E+20
 24
1.000000000000000E+20
 34
1.000000000000000E+20
 15
-1.000000000000000E+20
 25
-1.000000000000000E+20
 35
-1.000000000000000E+20
146
0.0
 13
0.0
 23
0.0
 33
0.0
 16
1.0
 26
0.0
 36
0.0
 17
0.0
 27
1.0
 37
0.0
 76
     0
330
15
  0
MLINESTYLE
  5
1C
102
{ACAD_REACTORS
330
1B
102
}
330
1B
100
AcDbMlineStyle
  2
STANDARD
 70
     0
  3

 62
   256
 51
90.0
 52
90.0
 71
     2
 49
0.5
 62
   256
  6
BYLAYER
 49
-0.5
 62
   256
  6
BYLAYER
  0
ACDBPLACEHOLDER
  5
2B6
102
{ACAD_REACTORS
330
2B5
102
}
330
2B5
  0
ENDSEC
  0
EOF
