  0
SECTION
  2
HEADER
  9
$ACADVER
  1
AC1015
  9
$ACADMAINTVER
 70
     6
  9
$DWGCODEPAGE
  3
ANSI_932
  9
$INSBASE
 10
0.0
 20
0.0
 30
0.0
  9
$EXTMIN
 10
-4.70103
 20
-21.07099999999999
 30
0.0
  9
$EXTMAX
 10
205.301
 20
275.9309999999999
 30
0.0
  9
$LIMMIN
 10
0.0
 20
0.0
  9
$LIMMAX
 10
12.0
 20
9.0
  9
$ORTHOMODE
 70
     0
  9
$REGENMODE
 70
     1
  9
$FILLMODE
 70
     1
  9
$QTEXTMODE
 70
     0
  9
$MIRRTEXT
 70
     1
  9
$LTSCALE
 40
1.0
  9
$ATTMODE
 70
     1
  9
$TEXTSIZE
 40
0.0
  9
$TRACEWID
 40
0.05
  9
$TEXTSTYLE
  7
STANDARD
  9
$CLAYER
  8
0
  9
$CELTYPE
  6
CONTINUOUS
  9
$CECOLOR
 62
   256
  9
$CELTSCALE
 40
1.0
  9
$DISPSILH
 70
     0
  9
$DIMSCALE
 40
1.0
  9
$DIMASZ
 40
0.18
  9
$DIMEXO
 40
0.0625
  9
$DIMDLI
 40
0.38
  9
$DIMRND
 40
0.0
  9
$DIMDLE
 40
0.0
  9
$DIMEXE
 40
0.18
  9
$DIMTP
 40
0.0
  9
$DIMTM
 40
0.0
  9
$DIMTXT
 40
0.18
  9
$DIMCEN
 40
0.09
  9
$DIMTSZ
 40
0.0
  9
$DIMTOL
 70
     0
  9
$DIMLIM
 70
     0
  9
$DIMTIH
 70
     1
  9
$DIMTOH
 70
     1
  9
$DIMSE1
 70
     0
  9
$DIMSE2
 70
     0
  9
$DIMTAD
 70
     0
  9
$DIMZIN
 70
     0
  9
$DIMBLK
  1

  9
$DIMASO
 70
     1
  9
$DIMSHO
 70
     1
  9
$DIMPOST
  1

  9
$DIMAPOST
  1

  9
$DIMALT
 70
     0
  9
$DIMALTD
 70
     2
  9
$DIMALTF
 40
25.4
  9
$DIMLFAC
 40
1.0
  9
$DIMTOFL
 70
     0
  9
$DIMTVP
 40
0.0
  9
$DIMTIX
 70
     0
  9
$DIMSOXD
 70
     0
  9
$DIMSAH
 70
     0
  9
$DIMBLK1
  1

  9
$DIMBLK2
  1

  9
$DIMSTYLE
  2
STANDARD
  9
$DIMCLRD
 70
     0
  9
$DIMCLRE
 70
     0
  9
$DIMCLRT
 70
     0
  9
$DIMTFAC
 40
1.0
  9
$DIMGAP
 40
0.09
  9
$DIMJUST
 70
     0
  9
$DIMSD1
 70
     0
  9
$DIMSD2
 70
     0
  9
$DIMTOLJ
 70
     1
  9
$DIMTZIN
 70
     0
  9
$DIMALTZ
 70
     0
  9
$DIMALTTZ
 70
     0
  9
$DIMUPT
 70
     0
  9
$DIMDEC
 70
     4
  9
$DIMTDEC
 70
     4
  9
$DIMALTU
 70
     2
  9
$DIMALTTD
 70
     2
  9
$DIMTXSTY
  7
STANDARD
  9
$DIMAUNIT
 70
     0
  9
$DIMADEC
 70
     0
  9
$DIMALTRND
 40
0.0
  9
$DIMAZIN
 70
     0
  9
$DIMDSEP
 70
    46
  9
$DIMATFIT
 70
     3
  9
$DIMFRAC
 70
     0
  9
$DIMLDRBLK
  1

  9
$DIMLUNIT
 70
     2
  9
$DIMLWD
 70
    -2
  9
$DIMLWE
 70
    -2
  9
$DIMTMOVE
 70
     0
  9
$LUNITS
 70
     2
  9
$LUPREC
 70
     4
  9
$SKETCHINC
 40
0.1
  9
$FILLETRAD
 40
0.0
  9
$AUNITS
 70
     0
  9
$AUPREC
 70
     0
  9
$MENU
  1
.
  9
$ELEVATION
 40
0.0
  9
$PELEVATION
 40
0.0
  9
$THICKNESS
 40
0.0
  9
$LIMCHECK
 70
     0
  9
$CHAMFERA
 40
0.0
  9
$CHAMFERB
 40
0.0
  9
$CHAMFERC
 40
0.0
  9
$CHAMFERD
 40
0.0
  9
$SKPOLY
 70
     0
  9
$TDCREATE
 40
2444972.375000000
  9
$TDUCREATE
 40
2444972.000000000
  9
$TDUPDATE
 40
2455216.788609352
  9
$TDUUPDATE
 40
2455216.413609352
  9
$TDINDWG
 40
0.0143620486
  9
$TDUSRTIMER
 40
0.0143620486
  9
$USRTIMER
 70
     1
  9
$ANGBASE
 50
0.0
  9
$ANGDIR
 70
     0
  9
$PDMODE
 70
     0
  9
$PDSIZE
 40
0.0
  9
$PLINEWID
 40
0.0
  9
$SPLFRAME
 70
     0
  9
$SPLINETYPE
 70
     6
  9
$SPLINESEGS
 70
     8
  9
$HANDSEED
  5
2CB
  9
$SURFTAB1
 70
     6
  9
$SURFTAB2
 70
     6
  9
$SURFTYPE
 70
     6
  9
$SURFU
 70
     6
  9
$SURFV
 70
     6
  9
$UCSBASE
  2

  9
$UCSNAME
  2

  9
$UCSORG
 10
0.0
 20
0.0
 30
0.0
  9
$UCSXDIR
 10
1.0
 20
0.0
 30
0.0
  9
$UCSYDIR
 10
0.0
 20
1.0
 30
0.0
  9
$UCSORTHOREF
  2

  9
$UCSORTHOVIEW
 70
     0
  9
$UCSORGTOP
 10
0.0
 20
0.0
 30
0.0
  9
$UCSORGBOTTOM
 10
0.0
 20
0.0
 30
0.0
  9
$UCSORGLEFT
 10
0.0
 20
0.0
 30
0.0
  9
$UCSORGRIGHT
 10
0.0
 20
0.0
 30
0.0
  9
$UCSORGFRONT
 10
0.0
 20
0.0
 30
0.0
  9
$UCSORGBACK
 10
0.0
 20
0.0
 30
0.0
  9
$PUCSBASE
  2

  9
$PUCSNAME
  2

  9
$PUCSORG
 10
0.0
 20
0.0
 30
0.0
  9
$PUCSXDIR
 10
1.0
 20
0.0
 30
0.0
  9
$PUCSYDIR
 10
0.0
 20
1.0
 30
0.0
  9
$PUCSORTHOREF
  2

  9
$PUCSORTHOVIEW
 70
     0
  9
$PUCSORGTOP
 10
0.0
 20
0.0
 30
0.0
  9
$PUCSORGBOTTOM
 10
0.0
 20
0.0
 30
0.0
  9
$PUCSORGLEFT
 10
0.0
 20
0.0
 30
0.0
  9
$PUCSORGRIGHT
 10
0.0
 20
0.0
 30
0.0
  9
$PUCSORGFRONT
 10
0.0
 20
0.0
 30
0.0
  9
$PUCSORGBACK
 10
0.0
 20
0.0
 30
0.0
  9
$USERI1
 70
     0
  9
$USERI2
 70
     0
  9
$USERI3
 70
     0
  9
$USERI4
 70
     0
  9
$USERI5
 70
     0
  9
$USERR1
 40
0.0
  9
$USERR2
 40
0.0
  9
$USERR3
 40
0.0
  9
$USERR4
 40
0.0
  9
$USERR5
 40
0.0
  9
$WORLDVIEW
 70
     1
  9
$SHADEDGE
 70
     3
  9
$SHADEDIF
 70
    70
  9
$TILEMODE
 70
     1
  9
$MAXACTVP
 70
    48
  9
$PINSBASE
 10
0.0
 20
0.0
 30
0.0
  9
$PLIMCHECK
 70
     0
  9
$PEXTMIN
 10
1.000000000000000E+20
 20
1.000000000000000E+20
 30
1.000000000000000E+20
  9
$PEXTMAX
 10
-1.000000000000000E+20
 20
-1.000000000000000E+20
 30
-1.000000000000000E+20
  9
$PLIMMIN
 10
0.0
 20
0.0
  9
$PLIMMAX
 10
12.0
 20
9.0
  9
$UNITMODE
 70
     0
  9
$VISRETAIN
 70
     1
  9
$PLINEGEN
 70
     0
  9
$PSLTSCALE
 70
     1
  9
$TREEDEPTH
 70
  3020
  9
$CMLSTYLE
  2
STANDARD
  9
$CMLJUST
 70
     0
  9
$CMLSCALE
 40
1.0
  9
$PROXYGRAPHICS
 70
     1
  9
$MEASUREMENT
 70
     0
  9
$CELWEIGHT
370
    -1
  9
$ENDCAPS
280
     0
  9
$JOINSTYLE
280
     0
  9
$LWDISPLAY
290
     0
  9
$INSUNITS
 70
     0
  9
$HYPERLINKBASE
  1

  9
$STYLESHEET
  1

  9
$XEDIT
290
     1
  9
$CEPSNTYPE
380
     0
  9
$PSTYLEMODE
290
     1
  9
$FINGERPRINTGUID
  2
{EB5BA415-0F46-4032-8B6F-465090D3F23A}
  9
$VERSIONGUID
  2
{D95D5C77-94AF-4082-B013-4AEC04354371}
  9
$EXTNAMES
290
     1
  9
$PSVPSCALE
 40
0.0
  9
$OLESTARTUP
290
     0
  0
ENDSEC
  0
SECTION
  2
CLASSES
  0
CLASS
  1
ACDBDICTIONARYWDFLT
  2
AcDbDictionaryWithDefault
  3
AutoCAD 2000
 90
        0
280
     0
281
     0
  0
CLASS
  1
ACDBPLACEHOLDER
  2
AcDbPlaceHolder
  3
AutoCAD 2000
 90
        0
280
     0
281
     0
  0
CLASS
  1
LAYOUT
  2
AcDbLayout
  3
AutoCAD 2000
 90
        0
280
     0
281
     0
  0
ENDSEC
  0
SECTION
  2
TABLES
  0
TABLE
  2
VPORT
  5
8
330
0
100
AcDbSymbolTable
 70
     2
  0
VPORT
  5
2CA
330
8
100
AcDbSymbolTableRecord
100
AcDbViewportTableRecord
  2
*Active
 70
     0
 10
0.0
 20
0.0
 11
1.0
 21
1.0
 12
124.5038417607013
 22
127.4300013830654
 13
0.0
 23
0.0
 14
1.0
 24
1.0
 15
0.0
 25
0.0
 16
0.0
 26
0.0
 36
1.0
 17
0.0
 27
0.0
 37
0.0
 40
300.3817460183767
 41
1.912109375
 42
50.0
 43
0.0
 44
0.0
 50
0.0
 51
0.0
 71
     0
 72
   100
 73
     1
 74
     1
 75
     0
 76
     0
 77
     0
 78
     0
281
     0
 65
     1
110
0.0
120
0.0
130
0.0
111
1.0
121
0.0
131
0.0
112
0.0
122
1.0
132
0.0
 79
     0
146
0.0
  0
ENDTAB
  0
TABLE
  2
LTYPE
  5
5
330
0
100
AcDbSymbolTable
 70
     2
  0
LTYPE
  5
12
330
5
100
AcDbSymbolTableRecord
100
AcDbLinetypeTableRecord
  2
BYBLOCK
 70
     0
  3

 72
    65
 73
     0
 40
0.0
  0
LTYPE
  5
13
330
5
100
AcDbSymbolTableRecord
100
AcDbLinetypeTableRecord
  2
BYLAYER
 70
     0
  3

 72
    65
 73
     0
 40
0.0
  0
LTYPE
  5
14
330
5
100
AcDbSymbolTableRecord
100
AcDbLinetypeTableRecord
  2
CONTINUOUS
 70
     0
  3
Solid line
 72
    65
 73
     0
 40
0.0
  0
LTYPE
  5
1F
330
5
100
AcDbSymbolTableRecord
100
AcDbLinetypeTableRecord
  2
AIGENLINE001
 70
     0
  3
generate AI->DXF Converter
 72
    65
 73
     4
 40
5.856144999999999
 49
3.5278
 74
     0
 49
-0.776115
 74
     0
 49
0.776115
 74
     0
 49
-0.776115
 74
     0
  0
ENDTAB
  0
TABLE
  2
LAYER
  5
2
330
0
100
AcDbSymbolTable
 70
     2
  0
LAYER
  5
E
330
2
100
AcDbSymbolTableRecord
100
AcDbLayerTableRecord
  2
0
 70
     0
 62
     7
  6
CONTINUOUS
370
    -3
390
2B8
  0
LAYER
  5
20
330
2
100
AcDbSymbolTableRecord
100
AcDbLayerTableRecord
  2
_________2
 70
     0
 62
     7
  6
CONTINUOUS
370
    -3
390
2B8
  0
ENDTAB
  0
TABLE
  2
STYLE
  5
3
330
0
100
AcDbSymbolTable
 70
     1
  0
STYLE
  5
F
330
3
100
AcDbSymbolTableRecord
100
AcDbTextStyleTableRecord
  2
STANDARD
 70
     0
 40
0.0
 41
0.0
 50
0.0
 71
     0
 42
0.0
  3
TXT
  4
BIGFONT
  0
ENDTAB
  0
TABLE
  2
VIEW
  5
6
330
0
100
AcDbSymbolTable
 70
     0
  0
ENDTAB
  0
TABLE
  2
UCS
  5
7
330
0
100
AcDbSymbolTable
 70
     0
  0
ENDTAB
  0
TABLE
  2
APPID
  5
9
330
0
100
AcDbSymbolTable
 70
     1
  0
APPID
  5
10
330
9
100
AcDbSymbolTableRecord
100
AcDbRegAppTableRecord
  2
ACAD
 70
     0
  0
ENDTAB
  0
TABLE
  2
DIMSTYLE
  5
A
330
0
100
AcDbSymbolTable
 70
     1
100
AcDbDimStyleTable
 71
     0
  0
DIMSTYLE
105
2B4
330
A
100
AcDbSymbolTableRecord
100
AcDbDimStyleTableRecord
  2
STANDARD
 70
     0
340
F
  0
ENDTAB
  0
TABLE
  2
BLOCK_RECORD
  5
1
330
0
100
AcDbSymbolTable
 70
     0
  0
BLOCK_RECORD
  5
18
330
1
100
AcDbSymbolTableRecord
100
AcDbBlockTableRecord
  2
*MODEL_SPACE
340
2BB
  0
BLOCK_RECORD
  5
15
330
1
100
AcDbSymbolTableRecord
100
AcDbBlockTableRecord
  2
*PAPER_SPACE
340
2BC
  0
ENDTAB
  0
ENDSEC
  0
SECTION
  2
BLOCKS
  0
BLOCK
  5
19
330
18
100
AcDbEntity
  8
0
100
AcDbBlockBegin
  2
*MODEL_SPACE
 70
     0
 10
0.0
 20
0.0
 30
0.0
  3
*MODEL_SPACE
  1

  0
ENDBLK
  5
1A
330
18
100
AcDbEntity
  8
0
100
AcDbBlockEnd
  0
BLOCK
  5
16
330
15
100
AcDbEntity
 67
     1
  8
0
100
AcDbBlockBegin
  2
*PAPER_SPACE
 70
     0
 10
0.0
 20
0.0
 30
0.0
  3
*PAPER_SPACE
  1

  0
ENDBLK
  5
17
330
15
100
AcDbEntity
 67
     1
  8
0
100
AcDbBlockEnd
  0
ENDSEC
  0
SECTION
  2
ENTITIES
  0
TEXT
  5
22
330
18
100
AcDbEntity
  8
0
100
AcDbText
 10
78.178315
 20
233.3699999999999
 30
0.0
 40
3.09234
  1
（%%c8×50樹脂プラグ付）
 41
0.5
 72
     2
 11
99.56700000000001
 21
233.3699999999999
 31
0.0
100
AcDbText
  0
TEXT
  5
23
330
18
100
AcDbEntity
  8
0
100
AcDbText
 10
65.67523900000001
 20
238.714
 30
0.0
 40
3.09234
  1
十字穴付皿頭SUSタッピングねじ%%c6×70
 41
0.5
 72
     2
 11
101.701
 21
238.714
 31
0.0
100
AcDbText
  0
TEXT
  5
24
330
18
100
AcDbEntity
  8
0
100
AcDbText
 10
77.052335
 20
53.1902
 30
0.0
 40
3.09234
  1
413
 41
0.5
 72
     1
 11
78.8562
 21
53.1902
 31
0.0
100
AcDbText
  0
TEXT
  5
25
330
18
100
AcDbEntity
  8
0
100
AcDbText
 10
39.967525
 20
59.7263
 30
0.0
 40
3.09234
  1
37
 41
0.5
 72
     1
 11
41.256
 21
59.7263
 31
0.0
100
AcDbText
  0
TEXT
  5
26
330
18
100
AcDbEntity
  8
0
100
AcDbText
 10
78.0230875
 20
59.5857
 30
0.0
 40
3.09234
  1
350
 41
0.5
 72
     1
 11
79.9558
 21
59.5857
 31
0.0
100
AcDbText
  0
TEXT
  5
27
330
18
100
AcDbEntity
  8
0
100
AcDbText
 10
54.8437
 20
127.5642875
 30
0.0
 40
3.09234
  1
570
 50
90.0
 41
0.5
 72
     1
 11
54.8437
 21
129.497
 31
0.0
100
AcDbText
  0
TEXT
  5
28
330
18
100
AcDbEntity
  8
0
100
AcDbText
 10
26.63699999999999
 20
130.03544
 30
0.0
 40
3.09234
  1
596
 50
90.0
 41
0.5
 72
     1
 11
26.63699999999999
 21
132.097
 31
0.0
100
AcDbText
  0
TEXT
  5
29
330
18
100
AcDbEntity
  8
0
100
AcDbText
 10
151.1023725
 20
200.0009999999999
 30
0.0
 40
3.09234
  1
90
 41
0.5
 72
     1
 11
152.262
 21
200.0009999999999
 31
0.0
100
AcDbText
  0
TEXT
  5
2A
330
18
100
AcDbEntity
  8
0
100
AcDbText
 10
43.69308
 20
107.0389999999999
 30
0.0
 40
3.09234
  1
%%c25
 41
0.5
 72
     2
 11
47.8162
 21
107.0389999999999
 31
0.0
100
AcDbText
  0
TEXT
  5
2B
330
18
100
AcDbEntity
  8
0
100
AcDbText
 10
42.64828
 20
147.621
 30
0.0
 40
3.09234
  1
%%c32
 41
0.5
 72
     2
 11
46.7714
 21
147.621
 31
0.0
100
AcDbText
  0
TEXT
  5
2C
330
18
100
AcDbEntity
  8
0
100
AcDbText
 10
134.264
 20
71.318725
 30
0.0
 40
3.09234
  1
59
 50
90.0
 41
0.5
 72
     1
 11
134.264
 21
72.6072
 31
0.0
100
AcDbText
  0
TEXT
  5
2D
330
18
100
AcDbEntity
  8
0
100
AcDbText
 10
128.2889999999999
 20
71.44757250000001
 30
0.0
 40
3.09234
  1
40
 50
90.0
 41
0.5
 72
     1
 11
128.2889999999999
 21
72.6072
 31
0.0
100
AcDbText
  0
TEXT
  5
2E
330
18
100
AcDbEntity
  8
0
100
AcDbText
 10
113.5805249999999
 20
91.31730000000001
 30
0.0
 40
3.09234
  1
65
 41
0.5
 72
     1
 11
114.8689999999999
 21
91.31730000000001
 31
0.0
100
AcDbText
  0
TEXT
  5
2F
330
18
100
AcDbEntity
  8
0
100
AcDbText
 10
113.5805249999999
 20
85.42480000000001
 30
0.0
 40
3.09234
  1
36
 41
0.5
 72
     1
 11
114.8689999999999
 21
85.42480000000001
 31
0.0
100
AcDbText
  0
LINE
  5
30
330
18
100
AcDbEntity
  8
0
100
AcDbLine
 10
50.3488
 20
233.231
 30
0.0
 11
48.8621
 21
231.49
 31
0.0
  0
LINE
  5
31
330
18
100
AcDbEntity
  8
0
100
AcDbLine
 10
48.8621
 20
231.49
 30
0.0
 11
51.02009999999999
 21
232.254
 31
0.0
  0
LINE
  5
32
330
18
100
AcDbEntity
  8
0
100
AcDbLine
 10
51.02009999999999
 20
232.254
 30
0.0
 11
50.3488
 21
233.231
 31
0.0
  0
LINE
  5
33
330
18
100
AcDbEntity
  8
0
100
AcDbLine
 10
48.8538
 20
231.502
 30
0.0
 11
57.5295
 21
237.464
 31
0.0
  0
LINE
  5
34
330
18
100
AcDbEntity
  8
0
100
AcDbLine
 10
101.8489999999999
 20
237.464
 30
0.0
 11
57.5295
 21
237.464
 31
0.0
  0
LINE
  5
35
330
18
100
AcDbEntity
  8
0
100
AcDbLine
 10
40.95559999999999
 20
238.7179999999999
 30
0.0
 11
42.1555
 21
239.21
 31
0.0
  0
LINE
  5
36
330
18
100
AcDbEntity
  8
0
100
AcDbLine
 10
40.95559999999999
 20
237.917
 30
0.0
 11
42.1555
 21
238.409
 31
0.0
  0
LINE
  5
37
330
18
100
AcDbEntity
  8
0
100
AcDbLine
 10
40.95559999999999
 20
237.115
 30
0.0
 11
42.1555
 21
237.6079999999999
 31
0.0
  0
LINE
  5
38
330
18
100
AcDbEntity
  8
0
100
AcDbLine
 10
40.95559999999999
 20
236.314
 30
0.0
 11
42.1555
 21
236.8059999999999
 31
0.0
  0
LINE
  5
39
330
18
100
AcDbEntity
  8
0
100
AcDbLine
 10
40.95559999999999
 20
235.5129999999999
 30
0.0
 11
42.1555
 21
236.005
 31
0.0
  0
LINE
  5
3A
330
18
100
AcDbEntity
  8
0
100
AcDbLine
 10
40.95559999999999
 20
234.712
 30
0.0
 11
42.1555
 21
235.204
 31
0.0
  0
LINE
  5
3B
330
18
100
AcDbEntity
  8
0
100
AcDbLine
 10
40.95559999999999
 20
233.91
 30
0.0
 11
42.1555
 21
234.4019999999999
 31
0.0
  0
LINE
  5
3C
330
18
100
AcDbEntity
  8
0
100
AcDbLine
 10
40.95559999999999
 20
233.109
 30
0.0
 11
42.1555
 21
233.6009999999999
 31
0.0
  0
LINE
  5
3D
330
18
100
AcDbEntity
  8
0
100
AcDbLine
 10
40.95559999999999
 20
232.308
 30
0.0
 11
42.1555
 21
232.8
 31
0.0
  0
LINE
  5
3E
330
18
100
AcDbEntity
  8
0
100
AcDbLine
 10
40.95559999999999
 20
231.5059999999999
 30
0.0
 11
42.1555
 21
231.998
 31
0.0
  0
LINE
  5
3F
330
18
100
AcDbEntity
  8
0
100
AcDbLine
 10
40.95559999999999
 20
230.705
 30
0.0
 11
42.1555
 21
231.197
 31
0.0
  0
LINE
  5
40
330
18
100
AcDbEntity
  8
0
100
AcDbLine
 10
40.95559999999999
 20
229.904
 30
0.0
 11
42.1555
 21
230.3949999999999
 31
0.0
  0
LINE
  5
41
330
18
100
AcDbEntity
  8
0
100
AcDbLine
 10
40.95559999999999
 20
229.102
 30
0.0
 11
42.1555
 21
229.5949999999999
 31
0.0
  0
LINE
  5
42
330
18
100
AcDbEntity
  8
0
100
AcDbLine
 10
41.5559
 20
240.112
 30
0.0
 11
41.8628
 21
239.2009999999999
 31
0.0
  0
LINE
  5
43
330
18
100
AcDbEntity
  8
0
100
AcDbLine
 10
41.5559
 20
240.112
 30
0.0
 11
41.2487
 21
239.2009999999999
 31
0.0
  0
LINE
  5
44
330
18
100
AcDbEntity
  8
0
100
AcDbLine
 10
41.8628
 20
228.112
 30
0.0
 11
41.8628
 21
239.2009999999999
 31
0.0
  0
LINE
  5
45
330
18
100
AcDbEntity
  8
0
100
AcDbLine
 10
41.2487
 20
228.112
 30
0.0
 11
41.2487
 21
239.2009999999999
 31
0.0
  0
LINE
  5
46
330
18
100
AcDbEntity
  8
0
  6
AIGENLINE001
100
AcDbLine
 10
41.5559
 20
227.2619999999999
 30
0.0
 11
41.5559
 21
240.9299999999999
 31
0.0
  0
LINE
  5
47
330
18
100
AcDbEntity
  8
0
100
AcDbLine
 10
40.95559999999999
 20
228.3009999999999
 30
0.0
 11
42.1555
 21
228.793
 31
0.0
  0
LINE
  5
48
330
18
100
AcDbEntity
  8
0
  6
AIGENLINE001
100
AcDbLine
 10
37.5556
 20
229.66
 30
0.0
 11
37.5556
 21
208.2559999999999
 31
0.0
  0
LINE
  5
49
330
18
100
AcDbEntity
  8
0
100
AcDbLine
 10
39.95559999999999
 20
225.912
 30
0.0
 11
39.95559999999999
 21
214.7279999999999
 31
0.0
  0
LINE
  5
4A
330
18
100
AcDbEntity
  8
0
100
AcDbLine
 10
35.1555
 20
225.912
 30
0.0
 11
35.1555
 21
214.7279999999999
 31
0.0
  0
ARC
  5
4B
330
18
100
AcDbEntity
  8
0
100
AcDbCircle
 10
37.555913
 20
212.6123109999999
 30
0.0
 40
3.200169999999999
100
AcDbArc
 50
90.00616799999999
 51
180.006178
  0
ARC
  5
4C
330
18
100
AcDbEntity
  8
0
100
AcDbCircle
 10
37.55556699999999
 20
212.611966
 30
0.0
 40
3.199824
100
AcDbArc
 50
179.9999699999999
 51
270.00002
  0
ARC
  5
4D
330
18
100
AcDbEntity
  8
0
100
AcDbCircle
 10
37.555826
 20
212.6122259999999
 30
0.0
 40
3.200083999999999
100
AcDbArc
 50
269.995394
 51
359.9953639999999
  0
ARC
  5
4E
330
18
100
AcDbEntity
  8
0
100
AcDbCircle
 10
37.555481
 20
212.612052
 30
0.0
 40
3.200428
100
AcDbArc
 50
359.9984679999999
 51
89.998438
  0
ARC
  5
4F
330
18
100
AcDbEntity
  8
0
100
AcDbCircle
 10
37.555913
 20
212.6123109999999
 30
0.0
 40
2.500122
100
AcDbArc
 50
90.00789499999999
 51
180.0079049999999
  0
ARC
  5
50
330
18
100
AcDbEntity
  8
0
100
AcDbCircle
 10
37.65137199999999
 20
212.707771
 30
0.0
 40
2.597349
100
AcDbArc
 50
182.1138809999999
 51
267.886148
  0
ARC
  5
51
330
18
100
AcDbEntity
  8
0
100
AcDbCircle
 10
37.45900699999999
 20
212.7090649999999
 30
0.0
 40
2.59867
100
AcDbArc
 50
272.1294899999999
 51
357.858677
  0
ARC
  5
52
330
18
100
AcDbEntity
  8
0
100
AcDbCircle
 10
37.555481
 20
212.6120529999999
 30
0.0
 40
2.500379999999999
100
AcDbArc
 50
359.9980359999999
 51
89.99800699999999
  0
LINE
  5
53
330
18
100
AcDbEntity
  8
0
  6
AIGENLINE001
100
AcDbLine
 10
122.2939999999999
 20
212.6129999999999
 30
0.0
 11
32.90599999999999
 21
212.6129999999999
 31
0.0
  0
LINE
  5
54
330
18
100
AcDbEntity
  8
0
100
AcDbLine
 10
32.9556
 20
238.7179999999999
 30
0.0
 11
34.1558
 21
239.2109999999999
 31
0.0
  0
LINE
  5
55
330
18
100
AcDbEntity
  8
0
100
AcDbLine
 10
32.9556
 20
237.917
 30
0.0
 11
34.1558
 21
238.409
 31
0.0
  0
LINE
  5
56
330
18
100
AcDbEntity
  8
0
100
AcDbLine
 10
32.9556
 20
237.1159999999999
 30
0.0
 11
34.1558
 21
237.6079999999999
 31
0.0
  0
LINE
  5
57
330
18
100
AcDbEntity
  8
0
100
AcDbLine
 10
32.9556
 20
236.314
 30
0.0
 11
34.1558
 21
236.8059999999999
 31
0.0
  0
LINE
  5
58
330
18
100
AcDbEntity
  8
0
100
AcDbLine
 10
32.9556
 20
235.5129999999999
 30
0.0
 11
34.1558
 21
236.005
 31
0.0
  0
LINE
  5
59
330
18
100
AcDbEntity
  8
0
100
AcDbLine
 10
32.9556
 20
234.712
 30
0.0
 11
34.1558
 21
235.204
 31
0.0
  0
LINE
  5
5A
330
18
100
AcDbEntity
  8
0
100
AcDbLine
 10
32.9556
 20
233.9109999999999
 30
0.0
 11
34.1558
 21
234.4019999999999
 31
0.0
  0
LINE
  5
5B
330
18
100
AcDbEntity
  8
0
100
AcDbLine
 10
32.9556
 20
233.109
 30
0.0
 11
34.1558
 21
233.6009999999999
 31
0.0
  0
LINE
  5
5C
330
18
100
AcDbEntity
  8
0
100
AcDbLine
 10
32.9556
 20
232.308
 30
0.0
 11
34.1558
 21
232.8
 31
0.0
  0
LINE
  5
5D
330
18
100
AcDbEntity
  8
0
100
AcDbLine
 10
32.9556
 20
231.5069999999999
 30
0.0
 11
34.1558
 21
231.998
 31
0.0
  0
LINE
  5
5E
330
18
100
AcDbEntity
  8
0
100
AcDbLine
 10
32.9556
 20
230.705
 30
0.0
 11
34.1558
 21
231.197
 31
0.0
  0
LINE
  5
5F
330
18
100
AcDbEntity
  8
0
100
AcDbLine
 10
32.9556
 20
229.904
 30
0.0
 11
34.1558
 21
230.396
 31
0.0
  0
LINE
  5
60
330
18
100
AcDbEntity
  8
0
100
AcDbLine
 10
32.9556
 20
229.102
 30
0.0
 11
34.1558
 21
229.5949999999999
 31
0.0
  0
LINE
  5
61
330
18
100
AcDbEntity
  8
0
100
AcDbLine
 10
33.55599999999999
 20
240.113
 30
0.0
 11
33.8629
 21
239.2009999999999
 31
0.0
  0
LINE
  5
62
330
18
100
AcDbEntity
  8
0
100
AcDbLine
 10
33.55599999999999
 20
240.113
 30
0.0
 11
33.249
 21
239.2009999999999
 31
0.0
  0
LINE
  5
63
330
18
100
AcDbEntity
  8
0
100
AcDbLine
 10
33.8629
 20
228.113
 30
0.0
 11
33.8629
 21
239.2009999999999
 31
0.0
  0
LINE
  5
64
330
18
100
AcDbEntity
  8
0
100
AcDbLine
 10
33.249
 20
228.113
 30
0.0
 11
33.249
 21
239.2009999999999
 31
0.0
  0
LINE
  5
65
330
18
100
AcDbEntity
  8
0
  6
AIGENLINE001
100
AcDbLine
 10
33.55599999999999
 20
227.2619999999999
 30
0.0
 11
33.55599999999999
 21
240.9299999999999
 31
0.0
  0
LINE
  5
66
330
18
100
AcDbEntity
  8
0
100
AcDbLine
 10
32.9556
 20
228.3009999999999
 30
0.0
 11
34.1558
 21
228.793
 31
0.0
  0
LINE
  5
67
330
18
100
AcDbEntity
  8
0
100
AcDbLine
 10
43.4558
 20
228.112
 30
0.0
 11
43.4558
 21
225.912
 31
0.0
  0
LINE
  5
68
330
18
100
AcDbEntity
  8
0
100
AcDbLine
 10
31.65599999999999
 20
225.912
 30
0.0
 11
31.65599999999999
 21
228.112
 31
0.0
  0
LINE
  5
69
330
18
100
AcDbEntity
  8
0
100
AcDbLine
 10
43.4558
 20
225.912
 30
0.0
 11
31.65599999999999
 21
225.912
 31
0.0
  0
LINE
  5
6A
330
18
100
AcDbEntity
  8
0
100
AcDbLine
 10
43.4558
 20
228.112
 30
0.0
 11
31.65599999999999
 21
228.112
 31
0.0
  0
LINE
  5
6B
330
18
100
AcDbEntity
  8
0
100
AcDbLine
 10
40.755
 20
238.7179999999999
 30
0.0
 11
41.0482
 21
238.838
 31
0.0
  0
LINE
  5
6C
330
18
100
AcDbEntity
  8
0
100
AcDbLine
 10
40.755
 20
237.917
 30
0.0
 11
41.0482
 21
238.037
 31
0.0
  0
LINE
  5
6D
330
18
100
AcDbEntity
  8
0
100
AcDbLine
 10
40.755
 20
237.115
 30
0.0
 11
41.0482
 21
237.236
 31
0.0
  0
LINE
  5
6E
330
18
100
AcDbEntity
  8
0
100
AcDbLine
 10
40.755
 20
236.314
 30
0.0
 11
41.0482
 21
236.434
 31
0.0
  0
LINE
  5
6F
330
18
100
AcDbEntity
  8
0
100
AcDbLine
 10
40.755
 20
235.5129999999999
 30
0.0
 11
41.0482
 21
235.6329999999999
 31
0.0
  0
LINE
  5
70
330
18
100
AcDbEntity
  8
0
100
AcDbLine
 10
40.755
 20
234.712
 30
0.0
 11
41.0482
 21
234.832
 31
0.0
  0
LINE
  5
71
330
18
100
AcDbEntity
  8
0
100
AcDbLine
 10
40.755
 20
233.91
 30
0.0
 11
41.0482
 21
234.03
 31
0.0
  0
LINE
  5
72
330
18
100
AcDbEntity
  8
0
100
AcDbLine
 10
40.755
 20
233.109
 30
0.0
 11
41.0482
 21
233.2289999999999
 31
0.0
  0
LINE
  5
73
330
18
100
AcDbEntity
  8
0
100
AcDbLine
 10
40.755
 20
232.308
 30
0.0
 11
41.0482
 21
232.4279999999999
 31
0.0
  0
LINE
  5
74
330
18
100
AcDbEntity
  8
0
100
AcDbLine
 10
40.755
 20
231.5059999999999
 30
0.0
 11
41.0482
 21
231.6259999999999
 31
0.0
  0
LINE
  5
75
330
18
100
AcDbEntity
  8
0
100
AcDbLine
 10
40.755
 20
230.705
 30
0.0
 11
41.0482
 21
230.825
 31
0.0
  0
LINE
  5
76
330
18
100
AcDbEntity
  8
0
100
AcDbLine
 10
40.755
 20
229.904
 30
0.0
 11
41.0482
 21
230.024
 31
0.0
  0
LINE
  5
77
330
18
100
AcDbEntity
  8
0
100
AcDbLine
 10
40.755
 20
229.102
 30
0.0
 11
41.0482
 21
229.2219999999999
 31
0.0
  0
LINE
  5
78
330
18
100
AcDbEntity
  8
0
100
AcDbLine
 10
41.35499999999999
 20
240.113
 30
0.0
 11
41.45539999999999
 21
239.815
 31
0.0
  0
LINE
  5
79
330
18
100
AcDbEntity
  8
0
100
AcDbLine
 10
41.35499999999999
 20
240.113
 30
0.0
 11
41.0482
 21
239.2009999999999
 31
0.0
  0
LINE
  5
7A
330
18
100
AcDbEntity
  8
0
100
AcDbLine
 10
41.0482
 20
228.112
 30
0.0
 11
41.0482
 21
239.2009999999999
 31
0.0
  0
LINE
  5
7B
330
18
100
AcDbEntity
  8
0
  6
AIGENLINE001
100
AcDbLine
 10
41.35499999999999
 20
227.2619999999999
 30
0.0
 11
41.35499999999999
 21
240.9289999999999
 31
0.0
  0
LINE
  5
7C
330
18
100
AcDbEntity
  8
0
100
AcDbLine
 10
40.755
 20
228.3009999999999
 30
0.0
 11
41.0482
 21
228.4209999999999
 31
0.0
  0
LINE
  5
7D
330
18
100
AcDbEntity
  8
0
100
AcDbLine
 10
39.7675
 20
53.0183
 30
0.0
 11
37.5557
 21
52.4257
 31
0.0
  0
LINE
  5
7E
330
18
100
AcDbEntity
  8
0
100
AcDbLine
 10
37.5557
 20
52.4257
 30
0.0
 11
39.7675
 21
51.8332
 31
0.0
  0
LINE
  5
7F
330
18
100
AcDbEntity
  8
0
100
AcDbLine
 10
39.7675
 20
51.8332
 30
0.0
 11
39.7675
 21
53.0183
 31
0.0
  0
LINE
  5
80
330
18
100
AcDbEntity
  8
0
100
AcDbLine
 10
37.5559
 20
52.4257
 30
0.0
 11
120.156
 21
52.4257
 31
0.0
  0
LINE
  5
81
330
18
100
AcDbEntity
  8
0
100
AcDbLine
 10
120.156
 20
66.036
 30
0.0
 11
120.156
 21
51.8656
 31
0.0
  0
LINE
  5
82
330
18
100
AcDbEntity
  8
0
100
AcDbLine
 10
37.5559
 20
73.54600000000001
 30
0.0
 11
37.5559
 21
51.8656
 31
0.0
  0
LINE
  5
83
330
18
100
AcDbEntity
  8
0
100
AcDbLine
 10
39.7675
 20
59.4362
 30
0.0
 11
37.5557
 21
58.8436
 31
0.0
  0
LINE
  5
84
330
18
100
AcDbEntity
  8
0
100
AcDbLine
 10
37.5557
 20
58.8436
 30
0.0
 11
39.7675
 21
58.2511
 31
0.0
  0
LINE
  5
85
330
18
100
AcDbEntity
  8
0
100
AcDbLine
 10
39.7675
 20
58.2511
 30
0.0
 11
39.7675
 21
59.4362
 31
0.0
  0
LINE
  5
86
330
18
100
AcDbEntity
  8
0
100
AcDbLine
 10
42.74389999999999
 20
58.25829999999999
 30
0.0
 11
44.95589999999999
 21
58.8509
 31
0.0
  0
LINE
  5
87
330
18
100
AcDbEntity
  8
0
100
AcDbLine
 10
44.95589999999999
 20
58.8509
 30
0.0
 11
42.74389999999999
 21
59.4434
 31
0.0
  0
LINE
  5
88
330
18
100
AcDbEntity
  8
0
100
AcDbLine
 10
42.74389999999999
 20
59.4434
 30
0.0
 11
42.74389999999999
 21
58.25829999999999
 31
0.0
  0
LINE
  5
89
330
18
100
AcDbEntity
  8
0
100
AcDbLine
 10
37.5559
 20
58.8436
 30
0.0
 11
44.95589999999999
 21
58.8436
 31
0.0
  0
LINE
  5
8A
330
18
100
AcDbEntity
  8
0
100
AcDbLine
 10
47.16779999999999
 20
59.44069999999999
 30
0.0
 11
44.95589999999999
 21
58.8481
 31
0.0
  0
LINE
  5
8B
330
18
100
AcDbEntity
  8
0
100
AcDbLine
 10
44.95589999999999
 20
58.8481
 30
0.0
 11
47.16779999999999
 21
58.2556
 31
0.0
  0
LINE
  5
8C
330
18
100
AcDbEntity
  8
0
100
AcDbLine
 10
47.16779999999999
 20
58.2556
 30
0.0
 11
47.16779999999999
 21
59.44069999999999
 31
0.0
  0
LINE
  5
8D
330
18
100
AcDbEntity
  8
0
100
AcDbLine
 10
117.944
 20
51.8332
 30
0.0
 11
120.156
 21
52.4257
 31
0.0
  0
LINE
  5
8E
330
18
100
AcDbEntity
  8
0
100
AcDbLine
 10
120.156
 20
52.4257
 30
0.0
 11
117.944
 21
53.0183
 31
0.0
  0
LINE
  5
8F
330
18
100
AcDbEntity
  8
0
100
AcDbLine
 10
117.944
 20
53.0183
 30
0.0
 11
117.944
 21
51.8332
 31
0.0
  0
LINE
  5
90
330
18
100
AcDbEntity
  8
0
100
AcDbLine
 10
112.7439999999999
 20
58.27729999999999
 30
0.0
 11
114.955
 21
58.8698
 31
0.0
  0
LINE
  5
91
330
18
100
AcDbEntity
  8
0
100
AcDbLine
 10
114.955
 20
58.8698
 30
0.0
 11
112.7439999999999
 21
59.4624
 31
0.0
  0
LINE
  5
92
330
18
100
AcDbEntity
  8
0
100
AcDbLine
 10
112.7439999999999
 20
59.4624
 30
0.0
 11
112.7439999999999
 21
58.27729999999999
 31
0.0
  0
LINE
  5
93
330
18
100
AcDbEntity
  8
0
100
AcDbLine
 10
44.95589999999999
 20
58.8553
 30
0.0
 11
114.955
 21
58.8553
 31
0.0
  0
LINE
  5
94
330
18
100
AcDbEntity
  8
0
100
AcDbLine
 10
114.955
 20
67.2191
 30
0.0
 11
114.955
 21
58.2952
 31
0.0
  0
LINE
  5
95
330
18
100
AcDbEntity
  8
0
100
AcDbLine
 10
44.95589999999999
 20
67.2191
 30
0.0
 11
44.95589999999999
 21
58.2952
 31
0.0
  0
ARC
  5
96
330
18
100
AcDbEntity
  8
0
100
AcDbCircle
 10
40.575302
 20
75.514993
 30
0.0
 40
0.519273
100
AcDbArc
 50
182.1010349999999
 51
267.898995
  0
ARC
  5
97
330
18
100
AcDbEntity
  8
0
100
AcDbCircle
 10
40.55635
 20
75.495868
 30
0.0
 40
5.500042999999999
100
AcDbArc
 50
179.999073
 51
269.999123
  0
ARC
  5
98
330
18
100
AcDbEntity
  8
0
  6
AIGENLINE001
100
AcDbCircle
 10
40.556264
 20
75.49664399999999
 30
0.0
 40
3.000008
100
AcDbArc
 50
179.9999699999999
 51
270.00002
  0
LINE
  5
99
330
18
100
AcDbEntity
  8
0
  6
AIGENLINE001
100
AcDbLine
 10
162.455
 20
72.4963
 30
0.0
 11
141.052
 21
72.4963
 31
0.0
  0
LINE
  5
9A
330
18
100
AcDbEntity
  8
0
100
AcDbLine
 10
158.708
 20
70.0964
 30
0.0
 11
147.524
 21
70.0964
 31
0.0
  0
LINE
  5
9B
330
18
100
AcDbEntity
  8
0
100
AcDbLine
 10
158.708
 20
74.89619999999999
 30
0.0
 11
147.524
 21
74.89619999999999
 31
0.0
  0
ARC
  5
9C
330
18
100
AcDbEntity
  8
0
100
AcDbCircle
 10
145.2856769999999
 20
72.373878
 30
0.0
 40
3.324466999999999
100
AcDbArc
 50
2.110221
 51
87.90210599999999
  0
ARC
  5
9D
330
18
100
AcDbEntity
  8
0
100
AcDbCircle
 10
145.4073759999999
 20
72.49629099999999
 30
0.0
 40
3.199825
100
AcDbArc
 50
90.0
 51
179.9999699999999
  0
ARC
  5
9E
330
18
100
AcDbEntity
  8
0
100
AcDbCircle
 10
145.4077189999999
 20
72.495947
 30
0.0
 40
3.200168999999999
100
AcDbArc
 50
179.9938019999999
 51
269.9938519999999
  0
ARC
  5
9F
330
18
100
AcDbEntity
  8
0
100
AcDbCircle
 10
145.284598
 20
72.61906899999999
 30
0.0
 40
3.325558
100
AcDbArc
 50
272.11581
 51
357.8842
  0
ARC
  5
A0
330
18
100
AcDbEntity
  8
0
100
AcDbCircle
 10
145.4077189999999
 20
72.495947
 30
0.0
 40
2.500122
100
AcDbArc
 50
0.007905
 51
90.00787500000001
  0
ARC
  5
A1
330
18
100
AcDbEntity
  8
0
100
AcDbCircle
 10
145.50318
 20
72.400487
 30
0.0
 40
2.597349
100
AcDbArc
 50
92.113852
 51
177.886119
  0
ARC
  5
A2
330
18
100
AcDbEntity
  8
0
100
AcDbCircle
 10
145.503862
 20
72.59206299999999
 30
0.0
 40
2.59803
100
AcDbArc
 50
182.1125959999999
 51
267.871644
  0
ARC
  5
A3
330
18
100
AcDbEntity
  8
0
100
AcDbCircle
 10
145.407375
 20
72.49629200000001
 30
0.0
 40
2.500466999999999
100
AcDbArc
 50
270.00002
 51
359.9999899999999
  0
LINE
  5
A4
330
18
100
AcDbEntity
  8
0
  6
AIGENLINE001
100
AcDbLine
 10
145.4079999999999
 20
67.83129999999999
 30
0.0
 11
145.4079999999999
 21
194.414
 31
0.0
  0
LINE
  5
A5
330
18
100
AcDbEntity
  8
0
100
AcDbLine
 10
171.514
 20
77.0962
 30
0.0
 11
172.0059999999999
 21
75.89629999999999
 31
0.0
  0
LINE
  5
A6
330
18
100
AcDbEntity
  8
0
100
AcDbLine
 10
170.712
 20
77.0962
 30
0.0
 11
171.204
 21
75.89629999999999
 31
0.0
  0
LINE
  5
A7
330
18
100
AcDbEntity
  8
0
100
AcDbLine
 10
169.9109999999999
 20
77.0962
 30
0.0
 11
170.4029999999999
 21
75.89629999999999
 31
0.0
  0
LINE
  5
A8
330
18
100
AcDbEntity
  8
0
100
AcDbLine
 10
169.11
 20
77.0962
 30
0.0
 11
169.602
 21
75.89629999999999
 31
0.0
  0
LINE
  5
A9
330
18
100
AcDbEntity
  8
0
100
AcDbLine
 10
168.3079999999999
 20
77.0962
 30
0.0
 11
168.801
 21
75.89629999999999
 31
0.0
  0
LINE
  5
AA
330
18
100
AcDbEntity
  8
0
100
AcDbLine
 10
167.507
 20
77.0962
 30
0.0
 11
167.999
 21
75.89629999999999
 31
0.0
  0
LINE
  5
AB
330
18
100
AcDbEntity
  8
0
100
AcDbLine
 10
166.706
 20
77.0962
 30
0.0
 11
167.1979999999999
 21
75.89629999999999
 31
0.0
  0
LINE
  5
AC
330
18
100
AcDbEntity
  8
0
100
AcDbLine
 10
165.904
 20
77.0962
 30
0.0
 11
166.397
 21
75.89629999999999
 31
0.0
  0
LINE
  5
AD
330
18
100
AcDbEntity
  8
0
100
AcDbLine
 10
165.1029999999999
 20
77.0962
 30
0.0
 11
165.5949999999999
 21
75.89629999999999
 31
0.0
  0
LINE
  5
AE
330
18
100
AcDbEntity
  8
0
100
AcDbLine
 10
164.302
 20
77.0962
 30
0.0
 11
164.794
 21
75.89629999999999
 31
0.0
  0
LINE
  5
AF
330
18
100
AcDbEntity
  8
0
100
AcDbLine
 10
163.501
 20
77.0962
 30
0.0
 11
163.992
 21
75.89629999999999
 31
0.0
  0
LINE
  5
B0
330
18
100
AcDbEntity
  8
0
100
AcDbLine
 10
162.6989999999999
 20
77.0962
 30
0.0
 11
163.192
 21
75.89629999999999
 31
0.0
  0
LINE
  5
B1
330
18
100
AcDbEntity
  8
0
100
AcDbLine
 10
161.898
 20
77.0962
 30
0.0
 11
162.3899999999999
 21
75.89629999999999
 31
0.0
  0
LINE
  5
B2
330
18
100
AcDbEntity
  8
0
100
AcDbLine
 10
172.9079999999999
 20
76.4961
 30
0.0
 11
171.997
 21
76.1888
 31
0.0
  0
LINE
  5
B3
330
18
100
AcDbEntity
  8
0
100
AcDbLine
 10
172.9079999999999
 20
76.4961
 30
0.0
 11
171.997
 21
76.80299999999999
 31
0.0
  0
LINE
  5
B4
330
18
100
AcDbEntity
  8
0
100
AcDbLine
 10
160.9079999999999
 20
76.1888
 30
0.0
 11
171.997
 21
76.1888
 31
0.0
  0
LINE
  5
B5
330
18
100
AcDbEntity
  8
0
100
AcDbLine
 10
160.9079999999999
 20
76.80299999999999
 30
0.0
 11
171.997
 21
76.80299999999999
 31
0.0
  0
LINE
  5
B6
330
18
100
AcDbEntity
  8
0
  6
AIGENLINE001
100
AcDbLine
 10
160.0579999999999
 20
76.4961
 30
0.0
 11
173.726
 21
76.4961
 31
0.0
  0
LINE
  5
B7
330
18
100
AcDbEntity
  8
0
100
AcDbLine
 10
161.097
 20
77.0962
 30
0.0
 11
161.5879999999999
 21
75.89629999999999
 31
0.0
  0
LINE
  5
B8
330
18
100
AcDbEntity
  8
0
100
AcDbLine
 10
160.9079999999999
 20
66.5962
 30
0.0
 11
158.708
 21
66.5962
 31
0.0
  0
LINE
  5
B9
330
18
100
AcDbEntity
  8
0
100
AcDbLine
 10
158.708
 20
78.3961
 30
0.0
 11
160.9079999999999
 21
78.3961
 31
0.0
  0
LINE
  5
BA
330
18
100
AcDbEntity
  8
0
100
AcDbLine
 10
158.708
 20
66.5962
 30
0.0
 11
158.708
 21
78.3961
 31
0.0
  0
LINE
  5
BB
330
18
100
AcDbEntity
  8
0
100
AcDbLine
 10
160.9079999999999
 20
66.5962
 30
0.0
 11
160.9079999999999
 21
78.3961
 31
0.0
  0
LINE
  5
BC
330
18
100
AcDbEntity
  8
0
100
AcDbLine
 10
171.514
 20
69.09629999999999
 30
0.0
 11
172.0059999999999
 21
67.8964
 31
0.0
  0
LINE
  5
BD
330
18
100
AcDbEntity
  8
0
100
AcDbLine
 10
170.712
 20
69.09629999999999
 30
0.0
 11
171.204
 21
67.8964
 31
0.0
  0
LINE
  5
BE
330
18
100
AcDbEntity
  8
0
100
AcDbLine
 10
169.9109999999999
 20
69.09629999999999
 30
0.0
 11
170.4029999999999
 21
67.8964
 31
0.0
  0
LINE
  5
BF
330
18
100
AcDbEntity
  8
0
100
AcDbLine
 10
169.11
 20
69.09629999999999
 30
0.0
 11
169.602
 21
67.8964
 31
0.0
  0
LINE
  5
C0
330
18
100
AcDbEntity
  8
0
100
AcDbLine
 10
168.3079999999999
 20
69.09629999999999
 30
0.0
 11
168.801
 21
67.8964
 31
0.0
  0
LINE
  5
C1
330
18
100
AcDbEntity
  8
0
100
AcDbLine
 10
167.507
 20
69.09629999999999
 30
0.0
 11
167.999
 21
67.8964
 31
0.0
  0
LINE
  5
C2
330
18
100
AcDbEntity
  8
0
100
AcDbLine
 10
166.706
 20
69.09629999999999
 30
0.0
 11
167.1979999999999
 21
67.8964
 31
0.0
  0
LINE
  5
C3
330
18
100
AcDbEntity
  8
0
100
AcDbLine
 10
165.904
 20
69.09629999999999
 30
0.0
 11
166.3959999999999
 21
67.8964
 31
0.0
  0
LINE
  5
C4
330
18
100
AcDbEntity
  8
0
100
AcDbLine
 10
165.1029999999999
 20
69.09629999999999
 30
0.0
 11
165.5949999999999
 21
67.8964
 31
0.0
  0
LINE
  5
C5
330
18
100
AcDbEntity
  8
0
100
AcDbLine
 10
164.302
 20
69.09629999999999
 30
0.0
 11
164.794
 21
67.8964
 31
0.0
  0
LINE
  5
C6
330
18
100
AcDbEntity
  8
0
100
AcDbLine
 10
163.501
 20
69.09629999999999
 30
0.0
 11
163.992
 21
67.8964
 31
0.0
  0
LINE
  5
C7
330
18
100
AcDbEntity
  8
0
100
AcDbLine
 10
162.6989999999999
 20
69.09629999999999
 30
0.0
 11
163.1909999999999
 21
67.8964
 31
0.0
  0
LINE
  5
C8
330
18
100
AcDbEntity
  8
0
100
AcDbLine
 10
161.898
 20
69.09629999999999
 30
0.0
 11
162.3899999999999
 21
67.8964
 31
0.0
  0
LINE
  5
C9
330
18
100
AcDbEntity
  8
0
100
AcDbLine
 10
172.9079999999999
 20
68.4962
 30
0.0
 11
171.997
 21
68.1892
 31
0.0
  0
LINE
  5
CA
330
18
100
AcDbEntity
  8
0
100
AcDbLine
 10
172.9079999999999
 20
68.4962
 30
0.0
 11
171.997
 21
68.8031
 31
0.0
  0
LINE
  5
CB
330
18
100
AcDbEntity
  8
0
100
AcDbLine
 10
160.9079999999999
 20
68.1892
 30
0.0
 11
171.997
 21
68.1892
 31
0.0
  0
LINE
  5
CC
330
18
100
AcDbEntity
  8
0
100
AcDbLine
 10
160.9079999999999
 20
68.8031
 30
0.0
 11
171.997
 21
68.8031
 31
0.0
  0
LINE
  5
CD
330
18
100
AcDbEntity
  8
0
  6
AIGENLINE001
100
AcDbLine
 10
160.0579999999999
 20
68.4962
 30
0.0
 11
173.726
 21
68.4962
 31
0.0
  0
LINE
  5
CE
330
18
100
AcDbEntity
  8
0
100
AcDbLine
 10
161.096
 20
69.09629999999999
 30
0.0
 11
161.5879999999999
 21
67.8964
 31
0.0
  0
LINE
  5
CF
330
18
100
AcDbEntity
  8
0
100
AcDbLine
 10
41.5564
 20
187.214
 30
0.0
 11
41.5564
 21
185.78
 31
0.0
  0
LINE
  5
D0
330
18
100
AcDbEntity
  8
0
100
AcDbLine
 10
40.8393
 20
186.497
 30
0.0
 11
42.2735
 21
186.497
 31
0.0
  0
LINE
  5
D1
330
18
100
AcDbEntity
  8
0
100
AcDbLine
 10
33.5565
 20
183.614
 30
0.0
 11
33.5565
 21
182.1799999999999
 31
0.0
  0
LINE
  5
D2
330
18
100
AcDbEntity
  8
0
100
AcDbLine
 10
32.8389
 20
182.897
 30
0.0
 11
34.2736
 21
182.897
 31
0.0
  0
LINE
  5
D3
330
18
100
AcDbEntity
  8
0
100
AcDbLine
 10
33.5565
 20
190.815
 30
0.0
 11
33.5565
 21
189.3799999999999
 31
0.0
  0
LINE
  5
D4
330
18
100
AcDbEntity
  8
0
100
AcDbLine
 10
32.8389
 20
190.097
 30
0.0
 11
34.2736
 21
190.097
 31
0.0
  0
LINE
  5
D5
330
18
100
AcDbEntity
  8
0
100
AcDbLine
 10
43.4564
 20
192.597
 30
0.0
 11
43.4564
 21
180.397
 31
0.0
  0
LINE
  5
D6
330
18
100
AcDbEntity
  8
0
100
AcDbLine
 10
32.0561
 20
192.997
 30
0.0
 11
43.0562
 21
192.997
 31
0.0
  0
ARC
  5
D7
330
18
100
AcDbEntity
  8
0
100
AcDbCircle
 10
43.041558
 20
192.582022
 30
0.0
 40
0.4150840000000001
100
AcDbArc
 50
2.097484999999999
 51
87.97654599999999
  0
LINE
  5
D8
330
18
100
AcDbEntity
  8
0
100
AcDbLine
 10
40.0566
 20
179.997
 30
0.0
 11
43.0562
 21
179.997
 31
0.0
  0
LINE
  5
D9
330
18
100
AcDbEntity
  8
0
100
AcDbLine
 10
32.0561
 20
179.997
 30
0.0
 11
35.0563
 21
179.997
 31
0.0
  0
ARC
  5
DA
330
18
100
AcDbEntity
  8
0
100
AcDbCircle
 10
43.056214
 20
180.39702
 30
0.0
 40
0.40015
100
AcDbArc
 50
270.00002
 51
359.9999899999999
  0
LINE
  5
DB
330
18
100
AcDbEntity
  8
0
100
AcDbLine
 10
31.6565
 20
192.597
 30
0.0
 11
31.6565
 21
180.397
 31
0.0
  0
ARC
  5
DC
330
18
100
AcDbEntity
  8
0
100
AcDbCircle
 10
32.071934
 20
180.4122899999999
 30
0.0
 40
0.415721
100
AcDbArc
 50
182.105106
 51
267.820882
  0
ARC
  5
DD
330
18
100
AcDbEntity
  8
0
100
AcDbCircle
 10
32.07157399999999
 20
192.5817669999999
 30
0.0
 40
0.415367
100
AcDbArc
 50
92.13116499999999
 51
177.868805
  0
LINE
  5
DE
330
18
100
AcDbEntity
  8
0
100
AcDbLine
 10
35.0563
 20
191.097
 30
0.0
 11
40.0566
 21
191.097
 31
0.0
  0
LINE
  5
DF
330
18
100
AcDbEntity
  8
0
100
AcDbLine
 10
35.0563
 20
191.697
 30
0.0
 11
40.0566
 21
191.697
 31
0.0
  0
LINE
  5
E0
330
18
100
AcDbEntity
  8
0
100
AcDbLine
 10
35.0563
 20
161.2969999999999
 30
0.0
 11
40.0566
 21
161.2969999999999
 31
0.0
  0
ARC
  5
E1
330
18
100
AcDbEntity
  8
0
100
AcDbCircle
 10
39.72795299999999
 20
160.3223709999999
 30
0.0
 40
1.028153
100
AcDbArc
 50
1.120404999999999
 51
71.36124800000001
  0
ARC
  5
E2
330
18
100
AcDbEntity
  8
0
100
AcDbCircle
 10
35.383788
 20
160.3218919999999
 30
0.0
 40
1.028251
100
AcDbArc
 50
108.5711869999999
 51
178.8529719999999
  0
LINE
  5
E3
330
18
100
AcDbEntity
  8
0
100
AcDbLine
 10
35.0563
 20
191.697
 30
0.0
 11
35.0563
 21
161.2969999999999
 31
0.0
  0
LINE
  5
E4
330
18
100
AcDbEntity
  8
0
100
AcDbLine
 10
40.0566
 20
191.697
 30
0.0
 11
40.0566
 21
161.2969999999999
 31
0.0
  0
LINE
  5
E5
330
18
100
AcDbEntity
  8
0
  6
AIGENLINE001
100
AcDbLine
 10
37.5559
 20
75.4966
 30
0.0
 11
37.5559
 21
194.415
 31
0.0
  0
LINE
  5
E6
330
18
100
AcDbEntity
  8
0
100
AcDbLine
 10
40.7559
 20
120.651
 30
0.0
 11
40.7559
 21
160.342
 31
0.0
  0
LINE
  5
E7
330
18
100
AcDbEntity
  8
0
100
AcDbLine
 10
35.0563
 20
119.697
 30
0.0
 11
40.0566
 21
119.697
 31
0.0
  0
ARC
  5
E8
330
18
100
AcDbEntity
  8
0
100
AcDbCircle
 10
39.72802899999999
 20
120.670987
 30
0.0
 40
1.028079
100
AcDbArc
 50
288.6356559999999
 51
358.8728249999999
  0
LINE
  5
E9
330
18
100
AcDbEntity
  8
0
100
AcDbLine
 10
34.3557
 20
120.651
 30
0.0
 11
34.3557
 21
160.342
 31
0.0
  0
ARC
  5
EA
330
18
100
AcDbEntity
  8
0
100
AcDbCircle
 10
35.383708
 20
120.6714639999999
 30
0.0
 40
1.028173999999999
100
AcDbArc
 50
181.153677
 51
251.4320339999999
  0
LINE
  5
EB
330
18
100
AcDbEntity
  8
0
100
AcDbLine
 10
35.0563
 20
75.49600000000001
 30
0.0
 11
35.0563
 21
119.696
 31
0.0
  0
LINE
  5
EC
330
18
100
AcDbEntity
  8
0
100
AcDbLine
 10
40.0566
 20
75.49600000000001
 30
0.0
 11
40.0566
 21
119.697
 31
0.0
  0
LINE
  5
ED
330
18
100
AcDbEntity
  8
0
100
AcDbLine
 10
115.672
 20
68.4962
 30
0.0
 11
114.237
 21
68.4962
 31
0.0
  0
LINE
  5
EE
330
18
100
AcDbEntity
  8
0
100
AcDbLine
 10
114.955
 20
69.2131
 30
0.0
 11
114.955
 21
67.77889999999999
 31
0.0
  0
LINE
  5
EF
330
18
100
AcDbEntity
  8
0
100
AcDbLine
 10
112.072
 20
76.4961
 30
0.0
 11
110.637
 21
76.4961
 31
0.0
  0
LINE
  5
F0
330
18
100
AcDbEntity
  8
0
100
AcDbLine
 10
111.3539999999999
 20
77.2137
 30
0.0
 11
111.3539999999999
 21
75.7788
 31
0.0
  0
LINE
  5
F1
330
18
100
AcDbEntity
  8
0
100
AcDbLine
 10
119.272
 20
76.4961
 30
0.0
 11
117.837
 21
76.4961
 31
0.0
  0
LINE
  5
F2
330
18
100
AcDbEntity
  8
0
100
AcDbLine
 10
118.555
 20
77.2137
 30
0.0
 11
118.555
 21
75.7788
 31
0.0
  0
LINE
  5
F3
330
18
100
AcDbEntity
  8
0
100
AcDbLine
 10
121.055
 20
66.5962
 30
0.0
 11
108.855
 21
66.5962
 31
0.0
  0
ARC
  5
F4
330
18
100
AcDbEntity
  8
0
100
AcDbCircle
 10
121.0398669999999
 20
67.010812
 30
0.0
 40
0.4149
100
AcDbArc
 50
272.0729319999999
 51
357.976449
  0
LINE
  5
F5
330
18
100
AcDbEntity
  8
0
100
AcDbLine
 10
108.454
 20
69.9958
 30
0.0
 11
108.454
 21
66.9962
 31
0.0
  0
LINE
  5
F6
330
18
100
AcDbEntity
  8
0
100
AcDbLine
 10
108.454
 20
77.9964
 30
0.0
 11
108.454
 21
74.9961
 31
0.0
  0
ARC
  5
F7
330
18
100
AcDbEntity
  8
0
100
AcDbCircle
 10
108.869528
 20
67.01136600000001
 30
0.0
 40
0.415448
100
AcDbArc
 50
182.0973479999999
 51
267.9520109999999
  0
LINE
  5
F8
330
18
100
AcDbEntity
  8
0
100
AcDbLine
 10
121.055
 20
78.3961
 30
0.0
 11
108.855
 21
78.3961
 31
0.0
  0
ARC
  5
F9
330
18
100
AcDbEntity
  8
0
100
AcDbCircle
 10
108.8699389999999
 20
77.980447
 30
0.0
 40
0.4158870000000001
100
AcDbArc
 50
92.10251500000001
 51
177.7987539999999
  0
ARC
  5
FA
330
18
100
AcDbEntity
  8
0
100
AcDbCircle
 10
121.039694
 20
77.98124099999999
 30
0.0
 40
0.4150920000000001
100
AcDbArc
 50
2.095891999999999
 51
87.904098
  0
LINE
  5
FB
330
18
100
AcDbEntity
  8
0
100
AcDbLine
 10
119.557
 20
74.9961
 30
0.0
 11
119.557
 21
69.9958
 31
0.0
  0
LINE
  5
FC
330
18
100
AcDbEntity
  8
0
100
AcDbLine
 10
120.156
 20
74.9961
 30
0.0
 11
120.156
 21
69.9958
 31
0.0
  0
LINE
  5
FD
330
18
100
AcDbEntity
  8
0
100
AcDbLine
 10
44.2384
 20
68.4962
 30
0.0
 11
45.673
 21
68.4962
 31
0.0
  0
LINE
  5
FE
330
18
100
AcDbEntity
  8
0
100
AcDbLine
 10
44.95589999999999
 20
69.2131
 30
0.0
 11
44.95589999999999
 21
67.77889999999999
 31
0.0
  0
LINE
  5
FF
330
18
100
AcDbEntity
  8
0
100
AcDbLine
 10
47.8384
 20
76.4961
 30
0.0
 11
49.2729
 21
76.4961
 31
0.0
  0
LINE
  5
100
330
18
100
AcDbEntity
  8
0
100
AcDbLine
 10
48.55579999999999
 20
77.2137
 30
0.0
 11
48.55579999999999
 21
75.7788
 31
0.0
  0
LINE
  5
101
330
18
100
AcDbEntity
  8
0
100
AcDbLine
 10
40.63839999999999
 20
76.4961
 30
0.0
 11
42.073
 21
76.4961
 31
0.0
  0
LINE
  5
102
330
18
100
AcDbEntity
  8
0
100
AcDbLine
 10
41.3555
 20
77.2137
 30
0.0
 11
41.3555
 21
75.7788
 31
0.0
  0
LINE
  5
103
330
18
100
AcDbEntity
  8
0
100
AcDbLine
 10
38.8558
 20
66.5962
 30
0.0
 11
51.0556
 21
66.5962
 31
0.0
  0
LINE
  5
104
330
18
100
AcDbEntity
  8
0
100
AcDbLine
 10
38.45559999999999
 20
70.41199999999999
 30
0.0
 11
38.45559999999999
 21
66.9962
 31
0.0
  0
ARC
  5
105
330
18
100
AcDbEntity
  8
0
100
AcDbCircle
 10
38.870901
 20
67.011487
 30
0.0
 40
0.415579
100
AcDbArc
 50
182.113312
 51
267.911388
  0
LINE
  5
106
330
18
100
AcDbEntity
  8
0
100
AcDbLine
 10
51.4558
 20
69.9958
 30
0.0
 11
51.4558
 21
66.9962
 31
0.0
  0
LINE
  5
107
330
18
100
AcDbEntity
  8
0
100
AcDbLine
 10
51.4558
 20
77.9964
 30
0.0
 11
51.4558
 21
74.9961
 31
0.0
  0
ARC
  5
108
330
18
100
AcDbEntity
  8
0
100
AcDbCircle
 10
51.040655
 20
67.01129
 30
0.0
 40
0.415375
100
AcDbArc
 50
272.06254
 51
357.9128
  0
LINE
  5
109
330
18
100
AcDbEntity
  8
0
100
AcDbLine
 10
40.0566
 20
78.3961
 30
0.0
 11
51.0556
 21
78.3961
 31
0.0
  0
ARC
  5
10A
330
18
100
AcDbEntity
  8
0
100
AcDbCircle
 10
51.04079
 20
77.981071
 30
0.0
 40
0.415248
100
AcDbArc
 50
2.118484999999999
 51
87.955547
  0
LINE
  5
10B
330
18
100
AcDbEntity
  8
0
100
AcDbLine
 10
100.7549999999999
 20
74.9961
 30
0.0
 11
100.7549999999999
 21
69.9958
 31
0.0
  0
ARC
  5
10C
330
18
100
AcDbEntity
  8
0
100
AcDbCircle
 10
99.779783
 20
70.325118
 30
0.0
 40
1.028856999999999
100
AcDbArc
 50
271.14799
 51
341.3336829999999
  0
ARC
  5
10D
330
18
100
AcDbEntity
  8
0
100
AcDbCircle
 10
99.77973399999999
 20
74.668734
 30
0.0
 40
1.028279
100
AcDbArc
 50
18.56211599999999
 51
88.84862299999999
  0
LINE
  5
10E
330
18
100
AcDbEntity
  8
0
100
AcDbLine
 10
120.156
 20
74.9961
 30
0.0
 11
100.7549999999999
 21
74.9961
 31
0.0
  0
LINE
  5
10F
330
18
100
AcDbEntity
  8
0
100
AcDbLine
 10
120.156
 20
69.9958
 30
0.0
 11
100.7549999999999
 21
69.9958
 31
0.0
  0
LINE
  5
110
330
18
100
AcDbEntity
  8
0
  6
AIGENLINE001
100
AcDbLine
 10
40.55629999999999
 20
72.4966
 30
0.0
 11
123.4229999999999
 21
72.4966
 31
0.0
  0
LINE
  5
111
330
18
100
AcDbEntity
  8
0
100
AcDbLine
 10
60.1097
 20
69.29649999999999
 30
0.0
 11
99.8004
 21
69.29649999999999
 31
0.0
  0
LINE
  5
112
330
18
100
AcDbEntity
  8
0
100
AcDbLine
 10
59.1558
 20
74.9961
 30
0.0
 11
59.1558
 21
69.9958
 31
0.0
  0
ARC
  5
113
330
18
100
AcDbEntity
  8
0
100
AcDbCircle
 10
60.130099
 20
70.32456299999999
 30
0.0
 40
1.028297999999999
100
AcDbArc
 50
198.6442429999999
 51
268.864258
  0
LINE
  5
114
330
18
100
AcDbEntity
  8
0
100
AcDbLine
 10
60.1097
 20
75.69679999999999
 30
0.0
 11
99.8004
 21
75.69679999999999
 31
0.0
  0
ARC
  5
115
330
18
100
AcDbEntity
  8
0
100
AcDbCircle
 10
60.130417
 20
74.668922
 30
0.0
 40
1.028092
100
AcDbArc
 50
91.15366699999999
 51
161.445426
  0
LINE
  5
116
330
18
100
AcDbEntity
  8
0
100
AcDbLine
 10
40.05639999999999
 20
75.49600000000001
 30
0.0
 11
35.0563
 21
75.49600000000001
 31
0.0
  0
LINE
  5
117
330
18
100
AcDbEntity
  8
0
100
AcDbLine
 10
40.5557
 20
74.9961
 30
0.0
 11
40.5557
 21
69.9958
 31
0.0
  0
LINE
  5
118
330
18
100
AcDbEntity
  8
0
100
AcDbLine
 10
40.55629999999999
 20
74.9961
 30
0.0
 11
59.1556
 21
74.9961
 31
0.0
  0
LINE
  5
119
330
18
100
AcDbEntity
  8
0
100
AcDbLine
 10
40.55629999999999
 20
69.9958
 30
0.0
 11
59.1558
 21
69.9958
 31
0.0
  0
LINE
  5
11A
330
18
100
AcDbEntity
  8
0
100
AcDbLine
 10
32.8444
 20
105.3929999999999
 30
0.0
 11
35.0563
 21
105.9849999999999
 31
0.0
  0
LINE
  5
11B
330
18
100
AcDbEntity
  8
0
100
AcDbLine
 10
35.0563
 20
105.9849999999999
 30
0.0
 11
32.8444
 21
106.5779999999999
 31
0.0
  0
LINE
  5
11C
330
18
100
AcDbEntity
  8
0
100
AcDbLine
 10
32.8444
 20
106.5779999999999
 30
0.0
 11
32.8444
 21
105.3929999999999
 31
0.0
  0
LINE
  5
11D
330
18
100
AcDbEntity
  8
0
100
AcDbLine
 10
42.2685
 20
106.5629999999999
 30
0.0
 11
40.0566
 21
105.971
 31
0.0
  0
LINE
  5
11E
330
18
100
AcDbEntity
  8
0
100
AcDbLine
 10
40.0566
 20
105.971
 30
0.0
 11
42.2685
 21
105.3779999999999
 31
0.0
  0
LINE
  5
11F
330
18
100
AcDbEntity
  8
0
100
AcDbLine
 10
42.2685
 20
105.3779999999999
 30
0.0
 11
42.2685
 21
106.5629999999999
 31
0.0
  0
LINE
  5
120
330
18
100
AcDbEntity
  8
0
100
AcDbLine
 10
35.0563
 20
105.9849999999999
 30
0.0
 11
31.1375
 21
105.9849999999999
 31
0.0
  0
LINE
  5
121
330
18
100
AcDbEntity
  8
0
100
AcDbLine
 10
47.78529999999999
 20
105.9779999999999
 30
0.0
 11
35.0563
 21
105.9779999999999
 31
0.0
  0
LINE
  5
122
330
18
100
AcDbEntity
  8
0
100
AcDbLine
 10
38.544
 20
145.812
 30
0.0
 11
40.7559
 21
146.405
 31
0.0
  0
LINE
  5
123
330
18
100
AcDbEntity
  8
0
100
AcDbLine
 10
40.7559
 20
146.405
 30
0.0
 11
38.544
 21
146.9979999999999
 31
0.0
  0
LINE
  5
124
330
18
100
AcDbEntity
  8
0
100
AcDbLine
 10
38.544
 20
146.9979999999999
 30
0.0
 11
38.544
 21
145.812
 31
0.0
  0
LINE
  5
125
330
18
100
AcDbEntity
  8
0
100
AcDbLine
 10
36.5675
 20
146.9829999999999
 30
0.0
 11
34.3557
 21
146.3899999999999
 31
0.0
  0
LINE
  5
126
330
18
100
AcDbEntity
  8
0
100
AcDbLine
 10
34.3557
 20
146.3899999999999
 30
0.0
 11
36.5675
 21
145.798
 31
0.0
  0
LINE
  5
127
330
18
100
AcDbEntity
  8
0
100
AcDbLine
 10
36.5675
 20
145.798
 30
0.0
 11
36.5675
 21
146.9829999999999
 31
0.0
  0
LINE
  5
128
330
18
100
AcDbEntity
  8
0
100
AcDbLine
 10
46.8663
 20
146.398
 30
0.0
 11
34.3557
 21
146.398
 31
0.0
  0
LINE
  5
129
330
18
100
AcDbEntity
  8
0
100
AcDbLine
 10
135.5299999999999
 20
76.1843
 30
0.0
 11
134.937
 21
78.3961
 31
0.0
  0
LINE
  5
12A
330
18
100
AcDbEntity
  8
0
100
AcDbLine
 10
134.937
 20
78.3961
 30
0.0
 11
134.3439999999999
 21
76.1843
 31
0.0
  0
LINE
  5
12B
330
18
100
AcDbEntity
  8
0
100
AcDbLine
 10
134.3439999999999
 20
76.1843
 30
0.0
 11
135.5299999999999
 21
76.1843
 31
0.0
  0
LINE
  5
12C
330
18
100
AcDbEntity
  8
0
100
AcDbLine
 10
134.366
 20
68.80759999999999
 30
0.0
 11
134.958
 21
66.5958
 31
0.0
  0
LINE
  5
12D
330
18
100
AcDbEntity
  8
0
100
AcDbLine
 10
134.958
 20
66.5958
 30
0.0
 11
135.551
 21
68.80759999999999
 31
0.0
  0
LINE
  5
12E
330
18
100
AcDbEntity
  8
0
100
AcDbLine
 10
135.551
 20
68.80759999999999
 30
0.0
 11
134.366
 21
68.80759999999999
 31
0.0
  0
LINE
  5
12F
330
18
100
AcDbEntity
  8
0
100
AcDbLine
 10
134.9439999999999
 20
78.3961
 30
0.0
 11
134.9439999999999
 21
66.5962
 31
0.0
  0
LINE
  5
130
330
18
100
AcDbEntity
  8
0
100
AcDbLine
 10
135.756
 20
66.5962
 30
0.0
 11
121.855
 21
66.5962
 31
0.0
  0
LINE
  5
131
330
18
100
AcDbEntity
  8
0
100
AcDbLine
 10
135.756
 20
78.3961
 30
0.0
 11
121.855
 21
78.3961
 31
0.0
  0
LINE
  5
132
330
18
100
AcDbEntity
  8
0
100
AcDbLine
 10
129.5079999999999
 20
74.2843
 30
0.0
 11
128.916
 21
76.4961
 31
0.0
  0
LINE
  5
133
330
18
100
AcDbEntity
  8
0
100
AcDbLine
 10
128.916
 20
76.4961
 30
0.0
 11
128.3229999999999
 21
74.2843
 31
0.0
  0
LINE
  5
134
330
18
100
AcDbEntity
  8
0
100
AcDbLine
 10
128.3229999999999
 20
74.2843
 30
0.0
 11
129.5079999999999
 21
74.2843
 31
0.0
  0
LINE
  5
135
330
18
100
AcDbEntity
  8
0
100
AcDbLine
 10
128.3449999999999
 20
70.70759999999999
 30
0.0
 11
128.9379999999999
 21
68.4958
 31
0.0
  0
LINE
  5
136
330
18
100
AcDbEntity
  8
0
100
AcDbLine
 10
128.9379999999999
 20
68.4958
 30
0.0
 11
129.53
 21
70.70759999999999
 31
0.0
  0
LINE
  5
137
330
18
100
AcDbEntity
  8
0
100
AcDbLine
 10
129.53
 20
70.70759999999999
 30
0.0
 11
128.3449999999999
 21
70.70759999999999
 31
0.0
  0
LINE
  5
138
330
18
100
AcDbEntity
  8
0
100
AcDbLine
 10
128.923
 20
76.4961
 30
0.0
 11
128.923
 21
68.4962
 31
0.0
  0
LINE
  5
139
330
18
100
AcDbEntity
  8
0
100
AcDbLine
 10
129.735
 20
68.4962
 30
0.0
 11
116.3589999999999
 21
68.4962
 31
0.0
  0
LINE
  5
13A
330
18
100
AcDbEntity
  8
0
100
AcDbLine
 10
129.7229999999999
 20
76.4961
 30
0.0
 11
120.072
 21
76.4961
 31
0.0
  0
LINE
  5
13B
330
18
100
AcDbEntity
  8
0
100
AcDbLine
 10
110.6659999999999
 20
91.17230000000001
 30
0.0
 11
108.454
 21
90.5797
 31
0.0
  0
LINE
  5
13C
330
18
100
AcDbEntity
  8
0
100
AcDbLine
 10
108.454
 20
90.5797
 30
0.0
 11
110.6659999999999
 21
89.9872
 31
0.0
  0
LINE
  5
13D
330
18
100
AcDbEntity
  8
0
100
AcDbLine
 10
110.6659999999999
 20
89.9872
 30
0.0
 11
110.6659999999999
 21
91.17230000000001
 31
0.0
  0
LINE
  5
13E
330
18
100
AcDbEntity
  8
0
100
AcDbLine
 10
119.2429999999999
 20
90.00159999999999
 30
0.0
 11
121.455
 21
90.59420000000001
 31
0.0
  0
LINE
  5
13F
330
18
100
AcDbEntity
  8
0
100
AcDbLine
 10
121.455
 20
90.59420000000001
 30
0.0
 11
119.2429999999999
 21
91.18669999999999
 31
0.0
  0
LINE
  5
140
330
18
100
AcDbEntity
  8
0
100
AcDbLine
 10
119.2429999999999
 20
91.18669999999999
 30
0.0
 11
119.2429999999999
 21
90.00159999999999
 31
0.0
  0
LINE
  5
141
330
18
100
AcDbEntity
  8
0
100
AcDbLine
 10
108.454
 20
90.5797
 30
0.0
 11
121.455
 21
90.5797
 31
0.0
  0
LINE
  5
142
330
18
100
AcDbEntity
  8
0
100
AcDbLine
 10
121.455
 20
78.79640000000001
 30
0.0
 11
121.455
 21
91.13989999999999
 31
0.0
  0
LINE
  5
143
330
18
100
AcDbEntity
  8
0
100
AcDbLine
 10
108.454
 20
78.79640000000001
 30
0.0
 11
108.454
 21
91.13989999999999
 31
0.0
  0
LINE
  5
144
330
18
100
AcDbEntity
  8
0
100
AcDbLine
 10
118.555
 20
85.00719999999999
 30
0.0
 11
118.555
 21
78.01359999999999
 31
0.0
  0
LINE
  5
145
330
18
100
AcDbEntity
  8
0
100
AcDbLine
 10
111.3539999999999
 20
85.00719999999999
 30
0.0
 11
111.3539999999999
 21
78.01359999999999
 31
0.0
  0
LINE
  5
146
330
18
100
AcDbEntity
  8
0
100
AcDbLine
 10
113.566
 20
85.04000000000001
 30
0.0
 11
111.3539999999999
 21
84.44740000000001
 31
0.0
  0
LINE
  5
147
330
18
100
AcDbEntity
  8
0
100
AcDbLine
 10
111.3539999999999
 20
84.44740000000001
 30
0.0
 11
113.566
 21
83.85479999999999
 31
0.0
  0
LINE
  5
148
330
18
100
AcDbEntity
  8
0
100
AcDbLine
 10
113.566
 20
83.85479999999999
 30
0.0
 11
113.566
 21
85.04000000000001
 31
0.0
  0
LINE
  5
149
330
18
100
AcDbEntity
  8
0
100
AcDbLine
 10
116.3429999999999
 20
83.86929999999999
 30
0.0
 11
118.555
 21
84.46189999999999
 31
0.0
  0
LINE
  5
14A
330
18
100
AcDbEntity
  8
0
100
AcDbLine
 10
118.555
 20
84.46189999999999
 30
0.0
 11
116.3429999999999
 21
85.0544
 31
0.0
  0
LINE
  5
14B
330
18
100
AcDbEntity
  8
0
100
AcDbLine
 10
116.3429999999999
 20
85.0544
 30
0.0
 11
116.3429999999999
 21
83.86929999999999
 31
0.0
  0
LINE
  5
14C
330
18
100
AcDbEntity
  8
0
100
AcDbLine
 10
111.3539999999999
 20
84.44740000000001
 30
0.0
 11
118.555
 21
84.44740000000001
 31
0.0
  0
LINE
  5
14D
330
18
100
AcDbEntity
  8
0
100
AcDbLine
 10
121.455
 20
77.9964
 30
0.0
 11
121.455
 21
66.9962
 31
0.0
  0
LINE
  5
14E
330
18
100
AcDbEntity
  8
0
100
AcDbLine
 10
38.9564
 20
72.4966
 30
0.0
 11
26.7529
 21
72.4966
 31
0.0
  0
LINE
  5
14F
330
18
100
AcDbEntity
  8
0
100
AcDbLine
 10
54.9417
 20
74.70839999999999
 30
0.0
 11
55.5343
 21
72.4966
 31
0.0
  0
LINE
  5
150
330
18
100
AcDbEntity
  8
0
100
AcDbLine
 10
55.5343
 20
72.4966
 30
0.0
 11
56.127
 21
74.70839999999999
 31
0.0
  0
LINE
  5
151
330
18
100
AcDbEntity
  8
0
100
AcDbLine
 10
56.127
 20
74.70839999999999
 30
0.0
 11
54.9417
 21
74.70839999999999
 31
0.0
  0
LINE
  5
152
330
18
100
AcDbEntity
  8
0
100
AcDbLine
 10
56.11229999999999
 20
184.285
 30
0.0
 11
55.5198
 21
186.497
 31
0.0
  0
LINE
  5
153
330
18
100
AcDbEntity
  8
0
100
AcDbLine
 10
55.5198
 20
186.497
 30
0.0
 11
54.9271
 21
184.285
 31
0.0
  0
LINE
  5
154
330
18
100
AcDbEntity
  8
0
100
AcDbLine
 10
54.9271
 20
184.285
 30
0.0
 11
56.11229999999999
 21
184.285
 31
0.0
  0
LINE
  5
155
330
18
100
AcDbEntity
  8
0
100
AcDbLine
 10
55.5198
 20
72.497
 30
0.0
 11
55.5198
 21
186.497
 31
0.0
  0
LINE
  5
156
330
18
100
AcDbEntity
  8
0
100
AcDbLine
 10
26.735
 20
74.70839999999999
 30
0.0
 11
27.3275
 21
72.4966
 31
0.0
  0
LINE
  5
157
330
18
100
AcDbEntity
  8
0
100
AcDbLine
 10
27.3275
 20
72.4966
 30
0.0
 11
27.9203
 21
74.70839999999999
 31
0.0
  0
LINE
  5
158
330
18
100
AcDbEntity
  8
0
100
AcDbLine
 10
27.9203
 20
74.70839999999999
 30
0.0
 11
26.735
 21
74.70839999999999
 31
0.0
  0
LINE
  5
159
330
18
100
AcDbEntity
  8
0
100
AcDbLine
 10
27.9056
 20
189.485
 30
0.0
 11
27.3131
 21
191.697
 31
0.0
  0
LINE
  5
15A
330
18
100
AcDbEntity
  8
0
100
AcDbLine
 10
27.3131
 20
191.697
 30
0.0
 11
26.7203
 21
189.485
 31
0.0
  0
LINE
  5
15B
330
18
100
AcDbEntity
  8
0
100
AcDbLine
 10
26.7203
 20
189.485
 30
0.0
 11
27.9056
 21
189.485
 31
0.0
  0
LINE
  5
15C
330
18
100
AcDbEntity
  8
0
100
AcDbLine
 10
27.3131
 20
72.497
 30
0.0
 11
27.3131
 21
191.697
 31
0.0
  0
LINE
  5
15D
330
18
100
AcDbEntity
  8
0
100
AcDbLine
 10
56.31969999999999
 20
186.497
 30
0.0
 11
43.07339999999999
 21
186.497
 31
0.0
  0
LINE
  5
15E
330
18
100
AcDbEntity
  8
0
100
AcDbLine
 10
34.2564
 20
191.697
 30
0.0
 11
26.7529
 21
191.697
 31
0.0
  0
ARC
  5
15F
330
18
100
AcDbEntity
  8
0
100
AcDbCircle
 10
82.45526400000001
 20
213.124453
 30
0.0
 40
3.078315
100
AcDbArc
 50
60.83430200000001
 51
119.1656779999999
  0
LINE
  5
160
330
18
100
AcDbEntity
  8
0
100
AcDbLine
 10
82.4553
 20
213.012
 30
0.0
 11
83.79989999999999
 21
215.5229999999999
 31
0.0
  0
LINE
  5
161
330
18
100
AcDbEntity
  8
0
100
AcDbLine
 10
82.4553
 20
213.012
 30
0.0
 11
81.1106
 21
215.5229999999999
 31
0.0
  0
ARC
  5
162
330
18
100
AcDbEntity
  8
0
100
AcDbCircle
 10
87.45533499999998
 20
213.124453
 30
0.0
 40
3.078315
100
AcDbArc
 50
60.83430200000001
 51
119.1656779999999
  0
LINE
  5
163
330
18
100
AcDbEntity
  8
0
100
AcDbLine
 10
87.4553
 20
213.012
 30
0.0
 11
88.8001
 21
215.5229999999999
 31
0.0
  0
LINE
  5
164
330
18
100
AcDbEntity
  8
0
100
AcDbLine
 10
87.4553
 20
213.012
 30
0.0
 11
86.11069999999999
 21
215.5229999999999
 31
0.0
  0
ARC
  5
165
330
18
100
AcDbEntity
  8
0
100
AcDbCircle
 10
92.454803
 20
213.1252289999999
 30
0.0
 40
3.077259999999999
100
AcDbArc
 50
60.83986800000001
 51
119.160112
  0
LINE
  5
166
330
18
100
AcDbEntity
  8
0
100
AcDbLine
 10
92.4539
 20
213.012
 30
0.0
 11
93.79879999999999
 21
215.5229999999999
 31
0.0
  0
LINE
  5
167
330
18
100
AcDbEntity
  8
0
100
AcDbLine
 10
92.4539
 20
213.012
 30
0.0
 11
91.1104
 21
215.5229999999999
 31
0.0
  0
ARC
  5
168
330
18
100
AcDbEntity
  8
0
100
AcDbCircle
 10
97.45418499999999
 20
213.1239819999999
 30
0.0
 40
3.078683999999999
100
AcDbArc
 50
60.83997099999999
 51
119.160009
  0
LINE
  5
169
330
18
100
AcDbEntity
  8
0
100
AcDbLine
 10
97.4539
 20
213.012
 30
0.0
 11
98.79890000000001
 21
215.5229999999999
 31
0.0
  0
LINE
  5
16A
330
18
100
AcDbEntity
  8
0
100
AcDbLine
 10
97.4539
 20
213.012
 30
0.0
 11
96.1095
 21
215.5229999999999
 31
0.0
  0
LINE
  5
16B
330
18
100
AcDbEntity
  8
0
100
AcDbLine
 10
99.7999
 20
209.412
 30
0.0
 11
79.9551
 21
209.412
 31
0.0
  0
LINE
  5
16C
330
18
100
AcDbEntity
  8
0
100
AcDbLine
 10
100.7539999999999
 20
215.112
 30
0.0
 11
100.7539999999999
 21
210.1119999999999
 31
0.0
  0
ARC
  5
16D
330
18
100
AcDbEntity
  8
0
100
AcDbCircle
 10
99.780262
 20
210.4393779999999
 30
0.0
 40
1.027079
100
AcDbArc
 50
271.094419
 51
341.424032
  0
LINE
  5
16E
330
18
100
AcDbEntity
  8
0
100
AcDbLine
 10
80.9556
 20
215.812
 30
0.0
 11
79.9551
 21
215.812
 31
0.0
  0
LINE
  5
16F
330
18
100
AcDbEntity
  8
0
100
AcDbLine
 10
85.95579999999999
 20
215.812
 30
0.0
 11
83.95509999999999
 21
215.812
 31
0.0
  0
LINE
  5
170
330
18
100
AcDbEntity
  8
0
100
AcDbLine
 10
90.95539999999999
 20
215.812
 30
0.0
 11
88.9555
 21
215.812
 31
0.0
  0
LINE
  5
171
330
18
100
AcDbEntity
  8
0
100
AcDbLine
 10
95.95409999999999
 20
215.812
 30
0.0
 11
93.95369999999999
 21
215.812
 31
0.0
  0
LINE
  5
172
330
18
100
AcDbEntity
  8
0
100
AcDbLine
 10
99.7999
 20
215.812
 30
0.0
 11
98.95430000000001
 21
215.812
 31
0.0
  0
ARC
  5
173
330
18
100
AcDbEntity
  8
0
100
AcDbCircle
 10
99.78064599999999
 20
214.7862729999999
 30
0.0
 40
1.026387999999999
100
AcDbArc
 50
18.52838
 51
88.92626599999999
  0
LINE
  5
174
330
18
100
AcDbEntity
  8
0
100
AcDbLine
 10
119.154
 20
213.712
 30
0.0
 11
119.154
 21
225.912
 31
0.0
  0
LINE
  5
175
330
18
100
AcDbEntity
  8
0
100
AcDbLine
 10
119.154
 20
213.712
 30
0.0
 11
110.7539999999999
 21
213.712
 31
0.0
  0
LINE
  5
176
330
18
100
AcDbEntity
  8
0
100
AcDbLine
 10
108.454
 20
225.912
 30
0.0
 11
108.454
 21
228.112
 31
0.0
  0
LINE
  5
177
330
18
100
AcDbEntity
  8
0
100
AcDbLine
 10
121.455
 20
225.912
 30
0.0
 11
121.455
 21
228.112
 31
0.0
  0
LINE
  5
178
330
18
100
AcDbEntity
  8
0
100
AcDbLine
 10
121.455
 20
225.912
 30
0.0
 11
108.454
 21
225.912
 31
0.0
  0
LINE
  5
179
330
18
100
AcDbEntity
  8
0
100
AcDbLine
 10
121.455
 20
228.112
 30
0.0
 11
108.454
 21
228.112
 31
0.0
  0
LINE
  5
17A
330
18
100
AcDbEntity
  8
0
100
AcDbLine
 10
110.7539999999999
 20
213.712
 30
0.0
 11
110.7539999999999
 21
225.912
 31
0.0
  0
LINE
  5
17B
330
18
100
AcDbEntity
  8
0
100
AcDbLine
 10
119.354
 20
215.112
 30
0.0
 11
119.354
 21
210.1119999999999
 31
0.0
  0
LINE
  5
17C
330
18
100
AcDbEntity
  8
0
100
AcDbLine
 10
119.954
 20
215.112
 30
0.0
 11
119.954
 21
210.1119999999999
 31
0.0
  0
LINE
  5
17D
330
18
100
AcDbEntity
  8
0
100
AcDbLine
 10
110.7539999999999
 20
215.112
 30
0.0
 11
100.7539999999999
 21
215.112
 31
0.0
  0
LINE
  5
17E
330
18
100
AcDbEntity
  8
0
100
AcDbLine
 10
119.954
 20
215.112
 30
0.0
 11
119.154
 21
215.112
 31
0.0
  0
LINE
  5
17F
330
18
100
AcDbEntity
  8
0
100
AcDbLine
 10
119.954
 20
210.1119999999999
 30
0.0
 11
100.7539999999999
 21
210.1119999999999
 31
0.0
  0
LINE
  5
180
330
18
100
AcDbEntity
  8
0
100
AcDbLine
 10
110.7539999999999
 20
238.7179999999999
 30
0.0
 11
111.9539999999999
 21
239.21
 31
0.0
  0
LINE
  5
181
330
18
100
AcDbEntity
  8
0
100
AcDbLine
 10
110.7539999999999
 20
237.917
 30
0.0
 11
111.9539999999999
 21
238.409
 31
0.0
  0
LINE
  5
182
330
18
100
AcDbEntity
  8
0
100
AcDbLine
 10
110.7539999999999
 20
237.115
 30
0.0
 11
111.9539999999999
 21
237.6079999999999
 31
0.0
  0
LINE
  5
183
330
18
100
AcDbEntity
  8
0
100
AcDbLine
 10
110.7539999999999
 20
236.314
 30
0.0
 11
111.9539999999999
 21
236.8059999999999
 31
0.0
  0
LINE
  5
184
330
18
100
AcDbEntity
  8
0
100
AcDbLine
 10
110.7539999999999
 20
235.5129999999999
 30
0.0
 11
111.9539999999999
 21
236.005
 31
0.0
  0
LINE
  5
185
330
18
100
AcDbEntity
  8
0
100
AcDbLine
 10
110.7539999999999
 20
234.712
 30
0.0
 11
111.9539999999999
 21
235.203
 31
0.0
  0
LINE
  5
186
330
18
100
AcDbEntity
  8
0
100
AcDbLine
 10
110.7539999999999
 20
233.91
 30
0.0
 11
111.9539999999999
 21
234.4019999999999
 31
0.0
  0
LINE
  5
187
330
18
100
AcDbEntity
  8
0
100
AcDbLine
 10
110.7539999999999
 20
233.109
 30
0.0
 11
111.9539999999999
 21
233.6009999999999
 31
0.0
  0
LINE
  5
188
330
18
100
AcDbEntity
  8
0
100
AcDbLine
 10
110.7539999999999
 20
232.308
 30
0.0
 11
111.9539999999999
 21
232.8
 31
0.0
  0
LINE
  5
189
330
18
100
AcDbEntity
  8
0
100
AcDbLine
 10
110.7539999999999
 20
231.5059999999999
 30
0.0
 11
111.9539999999999
 21
231.998
 31
0.0
  0
LINE
  5
18A
330
18
100
AcDbEntity
  8
0
100
AcDbLine
 10
110.7539999999999
 20
230.705
 30
0.0
 11
111.9539999999999
 21
231.197
 31
0.0
  0
LINE
  5
18B
330
18
100
AcDbEntity
  8
0
100
AcDbLine
 10
110.7539999999999
 20
229.904
 30
0.0
 11
111.9539999999999
 21
230.396
 31
0.0
  0
LINE
  5
18C
330
18
100
AcDbEntity
  8
0
100
AcDbLine
 10
110.7539999999999
 20
229.102
 30
0.0
 11
111.9539999999999
 21
229.594
 31
0.0
  0
LINE
  5
18D
330
18
100
AcDbEntity
  8
0
100
AcDbLine
 10
111.3539999999999
 20
240.113
 30
0.0
 11
111.661
 21
239.2009999999999
 31
0.0
  0
LINE
  5
18E
330
18
100
AcDbEntity
  8
0
100
AcDbLine
 10
111.3539999999999
 20
240.113
 30
0.0
 11
111.047
 21
239.2009999999999
 31
0.0
  0
LINE
  5
18F
330
18
100
AcDbEntity
  8
0
100
AcDbLine
 10
111.661
 20
228.112
 30
0.0
 11
111.661
 21
239.2009999999999
 31
0.0
  0
LINE
  5
190
330
18
100
AcDbEntity
  8
0
100
AcDbLine
 10
111.047
 20
228.112
 30
0.0
 11
111.047
 21
239.2009999999999
 31
0.0
  0
LINE
  5
191
330
18
100
AcDbEntity
  8
0
  6
AIGENLINE001
100
AcDbLine
 10
111.3539999999999
 20
227.2619999999999
 30
0.0
 11
111.3539999999999
 21
240.9289999999999
 31
0.0
  0
LINE
  5
192
330
18
100
AcDbEntity
  8
0
100
AcDbLine
 10
110.7539999999999
 20
228.3009999999999
 30
0.0
 11
111.9539999999999
 21
228.793
 31
0.0
  0
LINE
  5
193
330
18
100
AcDbEntity
  8
0
100
AcDbLine
 10
114.354
 20
238.7179999999999
 30
0.0
 11
115.554
 21
239.21
 31
0.0
  0
LINE
  5
194
330
18
100
AcDbEntity
  8
0
100
AcDbLine
 10
114.354
 20
237.917
 30
0.0
 11
115.554
 21
238.409
 31
0.0
  0
LINE
  5
195
330
18
100
AcDbEntity
  8
0
100
AcDbLine
 10
114.354
 20
237.115
 30
0.0
 11
115.554
 21
237.6079999999999
 31
0.0
  0
LINE
  5
196
330
18
100
AcDbEntity
  8
0
100
AcDbLine
 10
114.354
 20
236.314
 30
0.0
 11
115.554
 21
236.8059999999999
 31
0.0
  0
LINE
  5
197
330
18
100
AcDbEntity
  8
0
100
AcDbLine
 10
114.354
 20
235.5129999999999
 30
0.0
 11
115.554
 21
236.005
 31
0.0
  0
LINE
  5
198
330
18
100
AcDbEntity
  8
0
100
AcDbLine
 10
114.354
 20
234.712
 30
0.0
 11
115.554
 21
235.203
 31
0.0
  0
LINE
  5
199
330
18
100
AcDbEntity
  8
0
100
AcDbLine
 10
114.354
 20
233.91
 30
0.0
 11
115.554
 21
234.4019999999999
 31
0.0
  0
LINE
  5
19A
330
18
100
AcDbEntity
  8
0
100
AcDbLine
 10
114.354
 20
233.109
 30
0.0
 11
115.554
 21
233.6009999999999
 31
0.0
  0
LINE
  5
19B
330
18
100
AcDbEntity
  8
0
100
AcDbLine
 10
114.354
 20
232.308
 30
0.0
 11
115.554
 21
232.8
 31
0.0
  0
LINE
  5
19C
330
18
100
AcDbEntity
  8
0
100
AcDbLine
 10
114.354
 20
231.5059999999999
 30
0.0
 11
115.554
 21
231.998
 31
0.0
  0
LINE
  5
19D
330
18
100
AcDbEntity
  8
0
100
AcDbLine
 10
114.354
 20
230.705
 30
0.0
 11
115.554
 21
231.197
 31
0.0
  0
LINE
  5
19E
330
18
100
AcDbEntity
  8
0
100
AcDbLine
 10
114.354
 20
229.904
 30
0.0
 11
115.554
 21
230.396
 31
0.0
  0
LINE
  5
19F
330
18
100
AcDbEntity
  8
0
100
AcDbLine
 10
114.354
 20
229.102
 30
0.0
 11
115.554
 21
229.594
 31
0.0
  0
LINE
  5
1A0
330
18
100
AcDbEntity
  8
0
100
AcDbLine
 10
114.954
 20
240.113
 30
0.0
 11
115.261
 21
239.2009999999999
 31
0.0
  0
LINE
  5
1A1
330
18
100
AcDbEntity
  8
0
100
AcDbLine
 10
114.954
 20
240.113
 30
0.0
 11
114.647
 21
239.2009999999999
 31
0.0
  0
LINE
  5
1A2
330
18
100
AcDbEntity
  8
0
100
AcDbLine
 10
115.261
 20
228.112
 30
0.0
 11
115.261
 21
239.2009999999999
 31
0.0
  0
LINE
  5
1A3
330
18
100
AcDbEntity
  8
0
100
AcDbLine
 10
114.647
 20
228.112
 30
0.0
 11
114.647
 21
239.2009999999999
 31
0.0
  0
LINE
  5
1A4
330
18
100
AcDbEntity
  8
0
  6
AIGENLINE001
100
AcDbLine
 10
114.954
 20
227.2619999999999
 30
0.0
 11
114.954
 21
240.9289999999999
 31
0.0
  0
LINE
  5
1A5
330
18
100
AcDbEntity
  8
0
100
AcDbLine
 10
114.354
 20
228.3009999999999
 30
0.0
 11
115.554
 21
228.793
 31
0.0
  0
LINE
  5
1A6
330
18
100
AcDbEntity
  8
0
100
AcDbLine
 10
117.954
 20
238.7179999999999
 30
0.0
 11
119.154
 21
239.21
 31
0.0
  0
LINE
  5
1A7
330
18
100
AcDbEntity
  8
0
100
AcDbLine
 10
117.954
 20
237.917
 30
0.0
 11
119.154
 21
238.409
 31
0.0
  0
LINE
  5
1A8
330
18
100
AcDbEntity
  8
0
100
AcDbLine
 10
117.954
 20
237.115
 30
0.0
 11
119.154
 21
237.6079999999999
 31
0.0
  0
LINE
  5
1A9
330
18
100
AcDbEntity
  8
0
100
AcDbLine
 10
117.954
 20
236.314
 30
0.0
 11
119.154
 21
236.8059999999999
 31
0.0
  0
LINE
  5
1AA
330
18
100
AcDbEntity
  8
0
100
AcDbLine
 10
117.954
 20
235.5129999999999
 30
0.0
 11
119.154
 21
236.005
 31
0.0
  0
LINE
  5
1AB
330
18
100
AcDbEntity
  8
0
100
AcDbLine
 10
117.954
 20
234.712
 30
0.0
 11
119.154
 21
235.203
 31
0.0
  0
LINE
  5
1AC
330
18
100
AcDbEntity
  8
0
100
AcDbLine
 10
117.954
 20
233.91
 30
0.0
 11
119.154
 21
234.4019999999999
 31
0.0
  0
LINE
  5
1AD
330
18
100
AcDbEntity
  8
0
100
AcDbLine
 10
117.954
 20
233.109
 30
0.0
 11
119.154
 21
233.6009999999999
 31
0.0
  0
LINE
  5
1AE
330
18
100
AcDbEntity
  8
0
100
AcDbLine
 10
117.954
 20
232.308
 30
0.0
 11
119.154
 21
232.8
 31
0.0
  0
LINE
  5
1AF
330
18
100
AcDbEntity
  8
0
100
AcDbLine
 10
117.954
 20
231.5059999999999
 30
0.0
 11
119.154
 21
231.998
 31
0.0
  0
LINE
  5
1B0
330
18
100
AcDbEntity
  8
0
100
AcDbLine
 10
117.954
 20
230.705
 30
0.0
 11
119.154
 21
231.197
 31
0.0
  0
LINE
  5
1B1
330
18
100
AcDbEntity
  8
0
100
AcDbLine
 10
117.954
 20
229.904
 30
0.0
 11
119.154
 21
230.396
 31
0.0
  0
LINE
  5
1B2
330
18
100
AcDbEntity
  8
0
100
AcDbLine
 10
117.954
 20
229.102
 30
0.0
 11
119.154
 21
229.594
 31
0.0
  0
LINE
  5
1B3
330
18
100
AcDbEntity
  8
0
100
AcDbLine
 10
118.554
 20
240.113
 30
0.0
 11
118.861
 21
239.2009999999999
 31
0.0
  0
LINE
  5
1B4
330
18
100
AcDbEntity
  8
0
100
AcDbLine
 10
118.554
 20
240.113
 30
0.0
 11
118.247
 21
239.2009999999999
 31
0.0
  0
LINE
  5
1B5
330
18
100
AcDbEntity
  8
0
100
AcDbLine
 10
118.861
 20
228.112
 30
0.0
 11
118.861
 21
239.2009999999999
 31
0.0
  0
LINE
  5
1B6
330
18
100
AcDbEntity
  8
0
100
AcDbLine
 10
118.247
 20
228.112
 30
0.0
 11
118.247
 21
239.2009999999999
 31
0.0
  0
LINE
  5
1B7
330
18
100
AcDbEntity
  8
0
  6
AIGENLINE001
100
AcDbLine
 10
118.554
 20
227.2619999999999
 30
0.0
 11
118.554
 21
240.9289999999999
 31
0.0
  0
LINE
  5
1B8
330
18
100
AcDbEntity
  8
0
100
AcDbLine
 10
117.954
 20
228.3009999999999
 30
0.0
 11
119.154
 21
228.793
 31
0.0
  0
LINE
  5
1B9
330
18
100
AcDbEntity
  8
0
100
AcDbLine
 10
44.3554
 20
238.7179999999999
 30
0.0
 11
45.5553
 21
239.21
 31
0.0
  0
LINE
  5
1BA
330
18
100
AcDbEntity
  8
0
100
AcDbLine
 10
44.3554
 20
237.917
 30
0.0
 11
45.5553
 21
238.409
 31
0.0
  0
LINE
  5
1BB
330
18
100
AcDbEntity
  8
0
100
AcDbLine
 10
44.3554
 20
237.115
 30
0.0
 11
45.5553
 21
237.6069999999999
 31
0.0
  0
LINE
  5
1BC
330
18
100
AcDbEntity
  8
0
100
AcDbLine
 10
44.3554
 20
236.314
 30
0.0
 11
45.5553
 21
236.8059999999999
 31
0.0
  0
LINE
  5
1BD
330
18
100
AcDbEntity
  8
0
100
AcDbLine
 10
44.3554
 20
235.5129999999999
 30
0.0
 11
45.5553
 21
236.005
 31
0.0
  0
LINE
  5
1BE
330
18
100
AcDbEntity
  8
0
100
AcDbLine
 10
44.3554
 20
234.712
 30
0.0
 11
45.5553
 21
235.203
 31
0.0
  0
LINE
  5
1BF
330
18
100
AcDbEntity
  8
0
100
AcDbLine
 10
44.3554
 20
233.91
 30
0.0
 11
45.5553
 21
234.4019999999999
 31
0.0
  0
LINE
  5
1C0
330
18
100
AcDbEntity
  8
0
100
AcDbLine
 10
44.3554
 20
233.109
 30
0.0
 11
45.5553
 21
233.6009999999999
 31
0.0
  0
LINE
  5
1C1
330
18
100
AcDbEntity
  8
0
100
AcDbLine
 10
44.3554
 20
232.308
 30
0.0
 11
45.5553
 21
232.8
 31
0.0
  0
LINE
  5
1C2
330
18
100
AcDbEntity
  8
0
100
AcDbLine
 10
44.3554
 20
231.5059999999999
 30
0.0
 11
45.5553
 21
231.998
 31
0.0
  0
LINE
  5
1C3
330
18
100
AcDbEntity
  8
0
100
AcDbLine
 10
44.3554
 20
230.705
 30
0.0
 11
45.5553
 21
231.197
 31
0.0
  0
LINE
  5
1C4
330
18
100
AcDbEntity
  8
0
100
AcDbLine
 10
44.3554
 20
229.904
 30
0.0
 11
45.5553
 21
230.396
 31
0.0
  0
LINE
  5
1C5
330
18
100
AcDbEntity
  8
0
100
AcDbLine
 10
44.3554
 20
229.102
 30
0.0
 11
45.5553
 21
229.594
 31
0.0
  0
LINE
  5
1C6
330
18
100
AcDbEntity
  8
0
100
AcDbLine
 10
44.9553
 20
240.113
 30
0.0
 11
45.26209999999999
 21
239.2009999999999
 31
0.0
  0
LINE
  5
1C7
330
18
100
AcDbEntity
  8
0
100
AcDbLine
 10
44.9553
 20
240.113
 30
0.0
 11
44.6482
 21
239.2009999999999
 31
0.0
  0
LINE
  5
1C8
330
18
100
AcDbEntity
  8
0
100
AcDbLine
 10
45.26209999999999
 20
228.112
 30
0.0
 11
45.26209999999999
 21
239.2009999999999
 31
0.0
  0
LINE
  5
1C9
330
18
100
AcDbEntity
  8
0
100
AcDbLine
 10
44.6482
 20
228.112
 30
0.0
 11
44.6482
 21
239.2009999999999
 31
0.0
  0
LINE
  5
1CA
330
18
100
AcDbEntity
  8
0
  6
AIGENLINE001
100
AcDbLine
 10
44.9553
 20
227.2619999999999
 30
0.0
 11
44.9553
 21
240.9289999999999
 31
0.0
  0
LINE
  5
1CB
330
18
100
AcDbEntity
  8
0
100
AcDbLine
 10
44.3554
 20
228.3009999999999
 30
0.0
 11
45.5553
 21
228.793
 31
0.0
  0
LINE
  5
1CC
330
18
100
AcDbEntity
  8
0
100
AcDbLine
 10
47.9553
 20
238.7179999999999
 30
0.0
 11
49.1553
 21
239.21
 31
0.0
  0
LINE
  5
1CD
330
18
100
AcDbEntity
  8
0
100
AcDbLine
 10
47.9553
 20
237.917
 30
0.0
 11
49.1553
 21
238.409
 31
0.0
  0
LINE
  5
1CE
330
18
100
AcDbEntity
  8
0
100
AcDbLine
 10
47.9553
 20
237.115
 30
0.0
 11
49.1553
 21
237.6069999999999
 31
0.0
  0
LINE
  5
1CF
330
18
100
AcDbEntity
  8
0
100
AcDbLine
 10
47.9553
 20
236.314
 30
0.0
 11
49.1553
 21
236.8059999999999
 31
0.0
  0
LINE
  5
1D0
330
18
100
AcDbEntity
  8
0
100
AcDbLine
 10
47.9553
 20
235.5129999999999
 30
0.0
 11
49.1553
 21
236.005
 31
0.0
  0
LINE
  5
1D1
330
18
100
AcDbEntity
  8
0
100
AcDbLine
 10
47.9553
 20
234.712
 30
0.0
 11
49.1553
 21
235.203
 31
0.0
  0
LINE
  5
1D2
330
18
100
AcDbEntity
  8
0
100
AcDbLine
 10
47.9553
 20
233.91
 30
0.0
 11
49.1553
 21
234.4019999999999
 31
0.0
  0
LINE
  5
1D3
330
18
100
AcDbEntity
  8
0
100
AcDbLine
 10
47.9553
 20
233.109
 30
0.0
 11
49.1553
 21
233.6009999999999
 31
0.0
  0
LINE
  5
1D4
330
18
100
AcDbEntity
  8
0
100
AcDbLine
 10
47.9553
 20
232.308
 30
0.0
 11
49.1553
 21
232.8
 31
0.0
  0
LINE
  5
1D5
330
18
100
AcDbEntity
  8
0
100
AcDbLine
 10
47.9553
 20
231.5059999999999
 30
0.0
 11
49.1553
 21
231.998
 31
0.0
  0
LINE
  5
1D6
330
18
100
AcDbEntity
  8
0
100
AcDbLine
 10
47.9553
 20
230.705
 30
0.0
 11
49.1553
 21
231.197
 31
0.0
  0
LINE
  5
1D7
330
18
100
AcDbEntity
  8
0
100
AcDbLine
 10
47.9553
 20
229.904
 30
0.0
 11
49.1553
 21
230.396
 31
0.0
  0
LINE
  5
1D8
330
18
100
AcDbEntity
  8
0
100
AcDbLine
 10
47.9553
 20
229.102
 30
0.0
 11
49.1553
 21
229.594
 31
0.0
  0
LINE
  5
1D9
330
18
100
AcDbEntity
  8
0
100
AcDbLine
 10
48.5553
 20
240.113
 30
0.0
 11
48.8621
 21
239.2009999999999
 31
0.0
  0
LINE
  5
1DA
330
18
100
AcDbEntity
  8
0
100
AcDbLine
 10
48.5553
 20
240.113
 30
0.0
 11
48.2484
 21
239.2009999999999
 31
0.0
  0
LINE
  5
1DB
330
18
100
AcDbEntity
  8
0
100
AcDbLine
 10
48.8621
 20
228.112
 30
0.0
 11
48.8621
 21
239.2009999999999
 31
0.0
  0
LINE
  5
1DC
330
18
100
AcDbEntity
  8
0
100
AcDbLine
 10
48.2484
 20
228.112
 30
0.0
 11
48.2484
 21
239.2009999999999
 31
0.0
  0
LINE
  5
1DD
330
18
100
AcDbEntity
  8
0
  6
AIGENLINE001
100
AcDbLine
 10
48.5553
 20
227.2619999999999
 30
0.0
 11
48.5553
 21
240.9289999999999
 31
0.0
  0
LINE
  5
1DE
330
18
100
AcDbEntity
  8
0
100
AcDbLine
 10
47.9553
 20
228.3009999999999
 30
0.0
 11
49.1553
 21
228.793
 31
0.0
  0
ARC
  5
1DF
330
18
100
AcDbEntity
  8
0
100
AcDbCircle
 10
77.45545200000001
 20
213.1246089999999
 30
0.0
 40
3.078136999999999
100
AcDbArc
 50
60.834289
 51
119.165691
  0
LINE
  5
1E0
330
18
100
AcDbEntity
  8
0
100
AcDbLine
 10
77.4554
 20
213.012
 30
0.0
 11
76.11069999999999
 21
215.5229999999999
 31
0.0
  0
LINE
  5
1E1
330
18
100
AcDbEntity
  8
0
100
AcDbLine
 10
77.4554
 20
213.012
 30
0.0
 11
78.8002
 21
215.5229999999999
 31
0.0
  0
ARC
  5
1E2
330
18
100
AcDbEntity
  8
0
100
AcDbCircle
 10
72.45529499999999
 20
213.124453
 30
0.0
 40
3.078315
100
AcDbArc
 50
60.83430200000001
 51
119.1656779999999
  0
LINE
  5
1E3
330
18
100
AcDbEntity
  8
0
100
AcDbLine
 10
72.45529999999999
 20
213.012
 30
0.0
 11
71.11069999999999
 21
215.5229999999999
 31
0.0
  0
LINE
  5
1E4
330
18
100
AcDbEntity
  8
0
100
AcDbLine
 10
72.45529999999999
 20
213.012
 30
0.0
 11
73.8001
 21
215.5229999999999
 31
0.0
  0
ARC
  5
1E5
330
18
100
AcDbEntity
  8
0
100
AcDbCircle
 10
67.455224
 20
213.124453
 30
0.0
 40
3.078315
100
AcDbArc
 50
60.83430200000001
 51
119.1656779999999
  0
LINE
  5
1E6
330
18
100
AcDbEntity
  8
0
100
AcDbLine
 10
67.4552
 20
213.012
 30
0.0
 11
66.11060000000001
 21
215.5229999999999
 31
0.0
  0
LINE
  5
1E7
330
18
100
AcDbEntity
  8
0
100
AcDbLine
 10
67.4552
 20
213.012
 30
0.0
 11
68.79989999999999
 21
215.5229999999999
 31
0.0
  0
ARC
  5
1E8
330
18
100
AcDbEntity
  8
0
100
AcDbCircle
 10
62.455325
 20
213.124764
 30
0.0
 40
3.077958999999999
100
AcDbArc
 50
60.83427600000001
 51
119.165704
  0
LINE
  5
1E9
330
18
100
AcDbEntity
  8
0
100
AcDbLine
 10
62.4553
 20
213.012
 30
0.0
 11
61.1107
 21
215.5229999999999
 31
0.0
  0
LINE
  5
1EA
330
18
100
AcDbEntity
  8
0
100
AcDbLine
 10
62.4553
 20
213.012
 30
0.0
 11
63.8001
 21
215.5229999999999
 31
0.0
  0
LINE
  5
1EB
330
18
100
AcDbEntity
  8
0
100
AcDbLine
 10
60.1092
 20
209.412
 30
0.0
 11
79.9551
 21
209.412
 31
0.0
  0
LINE
  5
1EC
330
18
100
AcDbEntity
  8
0
100
AcDbLine
 10
59.1552
 20
215.112
 30
0.0
 11
59.1552
 21
210.1119999999999
 31
0.0
  0
ARC
  5
1ED
330
18
100
AcDbEntity
  8
0
100
AcDbCircle
 10
60.129897
 20
210.44085
 30
0.0
 40
1.028572
100
AcDbArc
 50
198.6345739999999
 51
268.847015
  0
LINE
  5
1EE
330
18
100
AcDbEntity
  8
0
100
AcDbLine
 10
78.955
 20
215.812
 30
0.0
 11
79.9551
 21
215.812
 31
0.0
  0
LINE
  5
1EF
330
18
100
AcDbEntity
  8
0
100
AcDbLine
 10
73.95459999999999
 20
215.812
 30
0.0
 11
75.95539999999999
 21
215.812
 31
0.0
  0
LINE
  5
1F0
330
18
100
AcDbEntity
  8
0
100
AcDbLine
 10
68.9554
 20
215.812
 30
0.0
 11
70.9551
 21
215.812
 31
0.0
  0
LINE
  5
1F1
330
18
100
AcDbEntity
  8
0
100
AcDbLine
 10
63.9555
 20
215.812
 30
0.0
 11
65.9556
 21
215.812
 31
0.0
  0
LINE
  5
1F2
330
18
100
AcDbEntity
  8
0
100
AcDbLine
 10
60.1092
 20
215.812
 30
0.0
 11
60.9546
 21
215.812
 31
0.0
  0
ARC
  5
1F3
330
18
100
AcDbEntity
  8
0
100
AcDbCircle
 10
60.12884599999999
 20
214.785712
 30
0.0
 40
1.026956999999999
100
AcDbArc
 50
91.09610199999998
 51
161.449212
  0
LINE
  5
1F4
330
18
100
AcDbEntity
  8
0
100
AcDbLine
 10
40.755
 20
213.712
 30
0.0
 11
40.755
 21
225.912
 31
0.0
  0
LINE
  5
1F5
330
18
100
AcDbEntity
  8
0
100
AcDbLine
 10
40.7547
 20
213.712
 30
0.0
 11
49.1551
 21
213.712
 31
0.0
  0
LINE
  5
1F6
330
18
100
AcDbEntity
  8
0
100
AcDbLine
 10
51.4552
 20
225.912
 30
0.0
 11
51.4552
 21
228.112
 31
0.0
  0
LINE
  5
1F7
330
18
100
AcDbEntity
  8
0
100
AcDbLine
 10
43.4558
 20
225.912
 30
0.0
 11
51.4552
 21
225.912
 31
0.0
  0
LINE
  5
1F8
330
18
100
AcDbEntity
  8
0
100
AcDbLine
 10
43.4558
 20
228.112
 30
0.0
 11
51.4552
 21
228.112
 31
0.0
  0
LINE
  5
1F9
330
18
100
AcDbEntity
  8
0
100
AcDbLine
 10
49.1553
 20
213.712
 30
0.0
 11
49.1553
 21
225.912
 31
0.0
  0
LINE
  5
1FA
330
18
100
AcDbEntity
  8
0
100
AcDbLine
 10
40.5552
 20
215.113
 30
0.0
 11
40.5552
 21
213.7299999999999
 31
0.0
  0
LINE
  5
1FB
330
18
100
AcDbEntity
  8
0
100
AcDbLine
 10
40.5552
 20
211.4959999999999
 30
0.0
 11
40.5552
 21
210.1119999999999
 31
0.0
  0
LINE
  5
1FC
330
18
100
AcDbEntity
  8
0
100
AcDbLine
 10
49.1553
 20
215.112
 30
0.0
 11
59.1549
 21
215.112
 31
0.0
  0
LINE
  5
1FD
330
18
100
AcDbEntity
  8
0
100
AcDbLine
 10
39.95559999999999
 20
215.112
 30
0.0
 11
40.755
 21
215.112
 31
0.0
  0
LINE
  5
1FE
330
18
100
AcDbEntity
  8
0
100
AcDbLine
 10
39.5532
 20
210.1119999999999
 30
0.0
 11
59.1552
 21
210.1119999999999
 31
0.0
  0
LINE
  5
1FF
330
18
100
AcDbEntity
  8
0
100
AcDbLine
 10
142.9079999999999
 20
192.257
 30
0.0
 11
142.9079999999999
 21
199.877
 31
0.0
  0
LINE
  5
200
330
18
100
AcDbEntity
  8
0
100
AcDbLine
 10
145.12
 20
199.9029999999999
 30
0.0
 11
142.9079999999999
 21
199.31
 31
0.0
  0
LINE
  5
201
330
18
100
AcDbEntity
  8
0
100
AcDbLine
 10
142.9079999999999
 20
199.31
 30
0.0
 11
145.12
 21
198.717
 31
0.0
  0
LINE
  5
202
330
18
100
AcDbEntity
  8
0
100
AcDbLine
 10
145.12
 20
198.717
 30
0.0
 11
145.12
 21
199.9029999999999
 31
0.0
  0
LINE
  5
203
330
18
100
AcDbEntity
  8
0
100
AcDbLine
 10
158.6959999999999
 20
198.732
 30
0.0
 11
160.9079999999999
 21
199.324
 31
0.0
  0
LINE
  5
204
330
18
100
AcDbEntity
  8
0
100
AcDbLine
 10
160.9079999999999
 20
199.324
 30
0.0
 11
158.6959999999999
 21
199.917
 31
0.0
  0
LINE
  5
205
330
18
100
AcDbEntity
  8
0
100
AcDbLine
 10
158.6959999999999
 20
199.917
 30
0.0
 11
158.6959999999999
 21
198.732
 31
0.0
  0
LINE
  5
206
330
18
100
AcDbEntity
  8
0
100
AcDbLine
 10
142.9079999999999
 20
199.317
 30
0.0
 11
160.9079999999999
 21
199.317
 31
0.0
  0
LINE
  5
207
330
18
100
AcDbEntity
  8
0
100
AcDbLine
 10
160.9079999999999
 20
193.557
 30
0.0
 11
160.9079999999999
 21
199.877
 31
0.0
  0
ARC
  5
208
330
18
100
AcDbEntity
  8
0
100
AcDbCircle
 10
145.9173149999999
 20
137.996928
 30
0.0
 40
3.080454999999999
100
AcDbArc
 50
330.8601959999999
 51
29.139804
  0
LINE
  5
209
330
18
100
AcDbEntity
  8
0
100
AcDbLine
 10
145.8079999999999
 20
137.997
 30
0.0
 11
148.3179999999999
 21
136.652
 31
0.0
  0
LINE
  5
20A
330
18
100
AcDbEntity
  8
0
100
AcDbLine
 10
145.8079999999999
 20
137.997
 30
0.0
 11
148.3179999999999
 21
139.342
 31
0.0
  0
ARC
  5
20B
330
18
100
AcDbEntity
  8
0
100
AcDbCircle
 10
145.9171589999999
 20
132.996943
 30
0.0
 40
3.080633
100
AcDbArc
 50
330.8602089999999
 51
29.139791
  0
LINE
  5
20C
330
18
100
AcDbEntity
  8
0
100
AcDbLine
 10
145.8079999999999
 20
132.997
 30
0.0
 11
148.3179999999999
 21
131.652
 31
0.0
  0
LINE
  5
20D
330
18
100
AcDbEntity
  8
0
100
AcDbLine
 10
145.8079999999999
 20
132.997
 30
0.0
 11
148.3179999999999
 21
134.342
 31
0.0
  0
ARC
  5
20E
330
18
100
AcDbEntity
  8
0
100
AcDbCircle
 10
145.918406
 20
127.997561
 30
0.0
 40
3.079208
100
AcDbArc
 50
330.860106
 51
29.139894
  0
LINE
  5
20F
330
18
100
AcDbEntity
  8
0
100
AcDbLine
 10
145.8079999999999
 20
127.9989999999999
 30
0.0
 11
148.3179999999999
 21
126.6539999999999
 31
0.0
  0
LINE
  5
210
330
18
100
AcDbEntity
  8
0
100
AcDbLine
 10
145.8079999999999
 20
127.9989999999999
 30
0.0
 11
148.3179999999999
 21
129.342
 31
0.0
  0
ARC
  5
211
330
18
100
AcDbEntity
  8
0
100
AcDbCircle
 10
145.9170029999999
 20
122.9980929999999
 30
0.0
 40
3.080811
100
AcDbArc
 50
330.860222
 51
29.13977800000001
  0
LINE
  5
212
330
18
100
AcDbEntity
  8
0
100
AcDbLine
 10
145.8079999999999
 20
122.9979999999999
 30
0.0
 11
148.3179999999999
 21
121.6529999999999
 31
0.0
  0
LINE
  5
213
330
18
100
AcDbEntity
  8
0
100
AcDbLine
 10
145.8079999999999
 20
122.9979999999999
 30
0.0
 11
148.3179999999999
 21
124.3429999999999
 31
0.0
  0
LINE
  5
214
330
18
100
AcDbEntity
  8
0
100
AcDbLine
 10
142.208
 20
120.652
 30
0.0
 11
142.208
 21
140.497
 31
0.0
  0
LINE
  5
215
330
18
100
AcDbEntity
  8
0
100
AcDbLine
 10
147.9079999999999
 20
119.6979999999999
 30
0.0
 11
142.9079999999999
 21
119.6979999999999
 31
0.0
  0
ARC
  5
216
330
18
100
AcDbEntity
  8
0
100
AcDbCircle
 10
143.2361649999999
 20
120.6731329999999
 30
0.0
 40
1.028821999999999
100
AcDbArc
 50
181.149982
 51
251.375658
  0
LINE
  5
217
330
18
100
AcDbEntity
  8
0
100
AcDbLine
 10
148.608
 20
139.496
 30
0.0
 11
148.608
 21
140.497
 31
0.0
  0
LINE
  5
218
330
18
100
AcDbEntity
  8
0
100
AcDbLine
 10
148.608
 20
134.497
 30
0.0
 11
148.608
 21
136.497
 31
0.0
  0
LINE
  5
219
330
18
100
AcDbEntity
  8
0
100
AcDbLine
 10
148.608
 20
129.497
 30
0.0
 11
148.608
 21
131.497
 31
0.0
  0
LINE
  5
21A
330
18
100
AcDbEntity
  8
0
100
AcDbLine
 10
148.608
 20
124.4979999999999
 30
0.0
 11
148.608
 21
126.499
 31
0.0
  0
LINE
  5
21B
330
18
100
AcDbEntity
  8
0
100
AcDbLine
 10
148.608
 20
120.652
 30
0.0
 11
148.608
 21
121.4979999999999
 31
0.0
  0
ARC
  5
21C
330
18
100
AcDbEntity
  8
0
100
AcDbCircle
 10
147.5803439999999
 20
120.6723489999999
 30
0.0
 40
1.027737
100
AcDbArc
 50
288.58184
 51
358.89256
  0
LINE
  5
21D
330
18
100
AcDbEntity
  8
0
100
AcDbLine
 10
147.9079999999999
 20
74.89619999999999
 30
0.0
 11
147.9079999999999
 21
119.6979999999999
 31
0.0
  0
LINE
  5
21E
330
18
100
AcDbEntity
  8
0
100
AcDbLine
 10
142.9079999999999
 20
74.4924
 30
0.0
 11
142.9079999999999
 21
119.6979999999999
 31
0.0
  0
LINE
  5
21F
330
18
100
AcDbEntity
  8
0
100
AcDbLine
 10
171.513
 20
190.697
 30
0.0
 11
172.005
 21
189.497
 31
0.0
  0
LINE
  5
220
330
18
100
AcDbEntity
  8
0
100
AcDbLine
 10
170.712
 20
190.697
 30
0.0
 11
171.204
 21
189.497
 31
0.0
  0
LINE
  5
221
330
18
100
AcDbEntity
  8
0
100
AcDbLine
 10
169.91
 20
190.697
 30
0.0
 11
170.402
 21
189.497
 31
0.0
  0
LINE
  5
222
330
18
100
AcDbEntity
  8
0
100
AcDbLine
 10
169.109
 20
190.697
 30
0.0
 11
169.601
 21
189.497
 31
0.0
  0
LINE
  5
223
330
18
100
AcDbEntity
  8
0
100
AcDbLine
 10
168.3079999999999
 20
190.697
 30
0.0
 11
168.8
 21
189.497
 31
0.0
  0
LINE
  5
224
330
18
100
AcDbEntity
  8
0
100
AcDbLine
 10
167.507
 20
190.697
 30
0.0
 11
167.999
 21
189.497
 31
0.0
  0
LINE
  5
225
330
18
100
AcDbEntity
  8
0
100
AcDbLine
 10
166.706
 20
190.697
 30
0.0
 11
167.1979999999999
 21
189.497
 31
0.0
  0
LINE
  5
226
330
18
100
AcDbEntity
  8
0
100
AcDbLine
 10
165.904
 20
190.697
 30
0.0
 11
166.3959999999999
 21
189.497
 31
0.0
  0
LINE
  5
227
330
18
100
AcDbEntity
  8
0
100
AcDbLine
 10
165.1029999999999
 20
190.697
 30
0.0
 11
165.5949999999999
 21
189.497
 31
0.0
  0
LINE
  5
228
330
18
100
AcDbEntity
  8
0
100
AcDbLine
 10
164.3009999999999
 20
190.697
 30
0.0
 11
164.793
 21
189.497
 31
0.0
  0
LINE
  5
229
330
18
100
AcDbEntity
  8
0
100
AcDbLine
 10
163.4999999999999
 20
190.697
 30
0.0
 11
163.992
 21
189.497
 31
0.0
  0
LINE
  5
22A
330
18
100
AcDbEntity
  8
0
100
AcDbLine
 10
162.6989999999999
 20
190.697
 30
0.0
 11
163.1909999999999
 21
189.497
 31
0.0
  0
LINE
  5
22B
330
18
100
AcDbEntity
  8
0
100
AcDbLine
 10
161.898
 20
190.697
 30
0.0
 11
162.3899999999999
 21
189.497
 31
0.0
  0
LINE
  5
22C
330
18
100
AcDbEntity
  8
0
100
AcDbLine
 10
172.9079999999999
 20
190.097
 30
0.0
 11
171.9959999999999
 21
189.7899999999999
 31
0.0
  0
LINE
  5
22D
330
18
100
AcDbEntity
  8
0
100
AcDbLine
 10
172.9079999999999
 20
190.097
 30
0.0
 11
171.9959999999999
 21
190.404
 31
0.0
  0
LINE
  5
22E
330
18
100
AcDbEntity
  8
0
100
AcDbLine
 10
160.9079999999999
 20
189.7899999999999
 30
0.0
 11
171.9959999999999
 21
189.7899999999999
 31
0.0
  0
LINE
  5
22F
330
18
100
AcDbEntity
  8
0
100
AcDbLine
 10
160.9079999999999
 20
190.404
 30
0.0
 11
171.9959999999999
 21
190.404
 31
0.0
  0
LINE
  5
230
330
18
100
AcDbEntity
  8
0
  6
AIGENLINE001
100
AcDbLine
 10
160.057
 20
190.097
 30
0.0
 11
173.7249999999999
 21
190.097
 31
0.0
  0
LINE
  5
231
330
18
100
AcDbEntity
  8
0
100
AcDbLine
 10
161.096
 20
190.697
 30
0.0
 11
161.5879999999999
 21
189.497
 31
0.0
  0
LINE
  5
232
330
18
100
AcDbEntity
  8
0
100
AcDbLine
 10
171.513
 20
187.0969999999999
 30
0.0
 11
172.005
 21
185.897
 31
0.0
  0
LINE
  5
233
330
18
100
AcDbEntity
  8
0
100
AcDbLine
 10
170.712
 20
187.0969999999999
 30
0.0
 11
171.204
 21
185.897
 31
0.0
  0
LINE
  5
234
330
18
100
AcDbEntity
  8
0
100
AcDbLine
 10
169.91
 20
187.0969999999999
 30
0.0
 11
170.402
 21
185.897
 31
0.0
  0
LINE
  5
235
330
18
100
AcDbEntity
  8
0
100
AcDbLine
 10
169.109
 20
187.0969999999999
 30
0.0
 11
169.601
 21
185.897
 31
0.0
  0
LINE
  5
236
330
18
100
AcDbEntity
  8
0
100
AcDbLine
 10
168.3079999999999
 20
187.0969999999999
 30
0.0
 11
168.8
 21
185.897
 31
0.0
  0
LINE
  5
237
330
18
100
AcDbEntity
  8
0
100
AcDbLine
 10
167.507
 20
187.0969999999999
 30
0.0
 11
167.999
 21
185.897
 31
0.0
  0
LINE
  5
238
330
18
100
AcDbEntity
  8
0
100
AcDbLine
 10
166.706
 20
187.0969999999999
 30
0.0
 11
167.1979999999999
 21
185.897
 31
0.0
  0
LINE
  5
239
330
18
100
AcDbEntity
  8
0
100
AcDbLine
 10
165.904
 20
187.0969999999999
 30
0.0
 11
166.3959999999999
 21
185.897
 31
0.0
  0
LINE
  5
23A
330
18
100
AcDbEntity
  8
0
100
AcDbLine
 10
165.1029999999999
 20
187.0969999999999
 30
0.0
 11
165.5949999999999
 21
185.897
 31
0.0
  0
LINE
  5
23B
330
18
100
AcDbEntity
  8
0
100
AcDbLine
 10
164.3009999999999
 20
187.0969999999999
 30
0.0
 11
164.793
 21
185.897
 31
0.0
  0
LINE
  5
23C
330
18
100
AcDbEntity
  8
0
100
AcDbLine
 10
163.4999999999999
 20
187.0969999999999
 30
0.0
 11
163.992
 21
185.897
 31
0.0
  0
LINE
  5
23D
330
18
100
AcDbEntity
  8
0
100
AcDbLine
 10
162.6989999999999
 20
187.0969999999999
 30
0.0
 11
163.1909999999999
 21
185.897
 31
0.0
  0
LINE
  5
23E
330
18
100
AcDbEntity
  8
0
100
AcDbLine
 10
161.898
 20
187.0969999999999
 30
0.0
 11
162.3899999999999
 21
185.897
 31
0.0
  0
LINE
  5
23F
330
18
100
AcDbEntity
  8
0
100
AcDbLine
 10
172.9079999999999
 20
186.497
 30
0.0
 11
171.9959999999999
 21
186.19
 31
0.0
  0
LINE
  5
240
330
18
100
AcDbEntity
  8
0
100
AcDbLine
 10
172.9079999999999
 20
186.497
 30
0.0
 11
171.9959999999999
 21
186.804
 31
0.0
  0
LINE
  5
241
330
18
100
AcDbEntity
  8
0
100
AcDbLine
 10
160.9079999999999
 20
186.19
 30
0.0
 11
171.9959999999999
 21
186.19
 31
0.0
  0
LINE
  5
242
330
18
100
AcDbEntity
  8
0
100
AcDbLine
 10
160.9079999999999
 20
186.804
 30
0.0
 11
171.9959999999999
 21
186.804
 31
0.0
  0
LINE
  5
243
330
18
100
AcDbEntity
  8
0
  6
AIGENLINE001
100
AcDbLine
 10
160.057
 20
186.497
 30
0.0
 11
173.7249999999999
 21
186.497
 31
0.0
  0
LINE
  5
244
330
18
100
AcDbEntity
  8
0
100
AcDbLine
 10
161.096
 20
187.0969999999999
 30
0.0
 11
161.5879999999999
 21
185.897
 31
0.0
  0
LINE
  5
245
330
18
100
AcDbEntity
  8
0
100
AcDbLine
 10
171.513
 20
183.497
 30
0.0
 11
172.005
 21
182.2969999999999
 31
0.0
  0
LINE
  5
246
330
18
100
AcDbEntity
  8
0
100
AcDbLine
 10
170.712
 20
183.497
 30
0.0
 11
171.204
 21
182.2969999999999
 31
0.0
  0
LINE
  5
247
330
18
100
AcDbEntity
  8
0
100
AcDbLine
 10
169.91
 20
183.497
 30
0.0
 11
170.402
 21
182.2969999999999
 31
0.0
  0
LINE
  5
248
330
18
100
AcDbEntity
  8
0
100
AcDbLine
 10
169.109
 20
183.497
 30
0.0
 11
169.601
 21
182.2969999999999
 31
0.0
  0
LINE
  5
249
330
18
100
AcDbEntity
  8
0
100
AcDbLine
 10
168.3079999999999
 20
183.497
 30
0.0
 11
168.8
 21
182.2969999999999
 31
0.0
  0
LINE
  5
24A
330
18
100
AcDbEntity
  8
0
100
AcDbLine
 10
167.507
 20
183.497
 30
0.0
 11
167.999
 21
182.2969999999999
 31
0.0
  0
LINE
  5
24B
330
18
100
AcDbEntity
  8
0
100
AcDbLine
 10
166.706
 20
183.497
 30
0.0
 11
167.1979999999999
 21
182.2969999999999
 31
0.0
  0
LINE
  5
24C
330
18
100
AcDbEntity
  8
0
100
AcDbLine
 10
165.904
 20
183.497
 30
0.0
 11
166.3959999999999
 21
182.2969999999999
 31
0.0
  0
LINE
  5
24D
330
18
100
AcDbEntity
  8
0
100
AcDbLine
 10
165.1029999999999
 20
183.497
 30
0.0
 11
165.5949999999999
 21
182.2969999999999
 31
0.0
  0
LINE
  5
24E
330
18
100
AcDbEntity
  8
0
100
AcDbLine
 10
164.3009999999999
 20
183.497
 30
0.0
 11
164.793
 21
182.2969999999999
 31
0.0
  0
LINE
  5
24F
330
18
100
AcDbEntity
  8
0
100
AcDbLine
 10
163.4999999999999
 20
183.497
 30
0.0
 11
163.992
 21
182.2969999999999
 31
0.0
  0
LINE
  5
250
330
18
100
AcDbEntity
  8
0
100
AcDbLine
 10
162.6989999999999
 20
183.497
 30
0.0
 11
163.1909999999999
 21
182.2969999999999
 31
0.0
  0
LINE
  5
251
330
18
100
AcDbEntity
  8
0
100
AcDbLine
 10
161.898
 20
183.497
 30
0.0
 11
162.3899999999999
 21
182.2969999999999
 31
0.0
  0
LINE
  5
252
330
18
100
AcDbEntity
  8
0
100
AcDbLine
 10
172.9079999999999
 20
182.897
 30
0.0
 11
171.9959999999999
 21
182.59
 31
0.0
  0
LINE
  5
253
330
18
100
AcDbEntity
  8
0
100
AcDbLine
 10
172.9079999999999
 20
182.897
 30
0.0
 11
171.9959999999999
 21
183.204
 31
0.0
  0
LINE
  5
254
330
18
100
AcDbEntity
  8
0
100
AcDbLine
 10
160.9079999999999
 20
182.59
 30
0.0
 11
171.9959999999999
 21
182.59
 31
0.0
  0
LINE
  5
255
330
18
100
AcDbEntity
  8
0
100
AcDbLine
 10
160.9079999999999
 20
183.204
 30
0.0
 11
171.9959999999999
 21
183.204
 31
0.0
  0
LINE
  5
256
330
18
100
AcDbEntity
  8
0
  6
AIGENLINE001
100
AcDbLine
 10
160.057
 20
182.897
 30
0.0
 11
173.7249999999999
 21
182.897
 31
0.0
  0
LINE
  5
257
330
18
100
AcDbEntity
  8
0
100
AcDbLine
 10
161.096
 20
183.497
 30
0.0
 11
161.5879999999999
 21
182.2969999999999
 31
0.0
  0
ARC
  5
258
330
18
100
AcDbEntity
  8
0
100
AcDbCircle
 10
145.9170029999999
 20
142.996482
 30
0.0
 40
3.080811
100
AcDbArc
 50
330.860222
 51
29.13977800000001
  0
LINE
  5
259
330
18
100
AcDbEntity
  8
0
100
AcDbLine
 10
145.8079999999999
 20
142.996
 30
0.0
 11
148.3179999999999
 21
144.341
 31
0.0
  0
LINE
  5
25A
330
18
100
AcDbEntity
  8
0
100
AcDbLine
 10
145.8079999999999
 20
142.996
 30
0.0
 11
148.3179999999999
 21
141.652
 31
0.0
  0
ARC
  5
25B
330
18
100
AcDbEntity
  8
0
100
AcDbCircle
 10
145.9170029999999
 20
147.996553
 30
0.0
 40
3.080811
100
AcDbArc
 50
330.860222
 51
29.13977800000001
  0
LINE
  5
25C
330
18
100
AcDbEntity
  8
0
100
AcDbLine
 10
145.8079999999999
 20
147.997
 30
0.0
 11
148.3179999999999
 21
149.341
 31
0.0
  0
LINE
  5
25D
330
18
100
AcDbEntity
  8
0
100
AcDbLine
 10
145.8079999999999
 20
147.997
 30
0.0
 11
148.3179999999999
 21
146.652
 31
0.0
  0
ARC
  5
25E
330
18
100
AcDbEntity
  8
0
100
AcDbCircle
 10
145.9171589999999
 20
152.99671
 30
0.0
 40
3.080633
100
AcDbArc
 50
330.8602089999999
 51
29.139791
  0
LINE
  5
25F
330
18
100
AcDbEntity
  8
0
100
AcDbLine
 10
145.8079999999999
 20
152.997
 30
0.0
 11
148.3179999999999
 21
154.341
 31
0.0
  0
LINE
  5
260
330
18
100
AcDbEntity
  8
0
100
AcDbLine
 10
145.8079999999999
 20
152.997
 30
0.0
 11
148.3179999999999
 21
151.652
 31
0.0
  0
ARC
  5
261
330
18
100
AcDbEntity
  8
0
100
AcDbCircle
 10
145.9185689999999
 20
157.996695
 30
0.0
 40
3.079359999999999
100
AcDbArc
 50
330.848834
 51
29.151166
  0
LINE
  5
262
330
18
100
AcDbEntity
  8
0
100
AcDbLine
 10
145.8079999999999
 20
157.997
 30
0.0
 11
148.3179999999999
 21
159.341
 31
0.0
  0
LINE
  5
263
330
18
100
AcDbEntity
  8
0
100
AcDbLine
 10
145.8079999999999
 20
157.997
 30
0.0
 11
148.3179999999999
 21
156.652
 31
0.0
  0
LINE
  5
264
330
18
100
AcDbEntity
  8
0
100
AcDbLine
 10
142.208
 20
160.3429999999999
 30
0.0
 11
142.208
 21
140.497
 31
0.0
  0
LINE
  5
265
330
18
100
AcDbEntity
  8
0
100
AcDbLine
 10
147.9079999999999
 20
161.2969999999999
 30
0.0
 11
142.9079999999999
 21
161.2969999999999
 31
0.0
  0
ARC
  5
266
330
18
100
AcDbEntity
  8
0
100
AcDbCircle
 10
143.2363879999999
 20
160.32148
 30
0.0
 40
1.029058999999999
100
AcDbArc
 50
108.633005
 51
178.811751
  0
LINE
  5
267
330
18
100
AcDbEntity
  8
0
100
AcDbLine
 10
148.608
 20
141.497
 30
0.0
 11
148.608
 21
140.497
 31
0.0
  0
LINE
  5
268
330
18
100
AcDbEntity
  8
0
100
AcDbLine
 10
148.608
 20
146.497
 30
0.0
 11
148.608
 21
144.497
 31
0.0
  0
LINE
  5
269
330
18
100
AcDbEntity
  8
0
100
AcDbLine
 10
148.608
 20
151.497
 30
0.0
 11
148.608
 21
149.497
 31
0.0
  0
LINE
  5
26A
330
18
100
AcDbEntity
  8
0
100
AcDbLine
 10
148.608
 20
156.496
 30
0.0
 11
148.608
 21
154.496
 31
0.0
  0
LINE
  5
26B
330
18
100
AcDbEntity
  8
0
100
AcDbLine
 10
148.608
 20
160.3429999999999
 30
0.0
 11
148.608
 21
159.497
 31
0.0
  0
ARC
  5
26C
330
18
100
AcDbEntity
  8
0
100
AcDbCircle
 10
147.579957
 20
160.322145
 30
0.0
 40
1.028140999999999
100
AcDbArc
 50
1.152266
 51
71.402939
  0
LINE
  5
26D
330
18
100
AcDbEntity
  8
0
100
AcDbLine
 10
146.5079999999999
 20
190.697
 30
0.0
 11
158.708
 21
190.697
 31
0.0
  0
LINE
  5
26E
330
18
100
AcDbEntity
  8
0
100
AcDbLine
 10
146.5079999999999
 20
190.697
 30
0.0
 11
146.5079999999999
 21
182.2969999999999
 31
0.0
  0
LINE
  5
26F
330
18
100
AcDbEntity
  8
0
100
AcDbLine
 10
158.708
 20
179.997
 30
0.0
 11
160.9079999999999
 21
179.997
 31
0.0
  0
LINE
  5
270
330
18
100
AcDbEntity
  8
0
100
AcDbLine
 10
158.708
 20
192.997
 30
0.0
 11
160.9079999999999
 21
192.997
 31
0.0
  0
LINE
  5
271
330
18
100
AcDbEntity
  8
0
100
AcDbLine
 10
158.708
 20
192.997
 30
0.0
 11
158.708
 21
179.997
 31
0.0
  0
LINE
  5
272
330
18
100
AcDbEntity
  8
0
100
AcDbLine
 10
160.9079999999999
 20
192.997
 30
0.0
 11
160.9079999999999
 21
179.997
 31
0.0
  0
LINE
  5
273
330
18
100
AcDbEntity
  8
0
100
AcDbLine
 10
146.5079999999999
 20
182.2969999999999
 30
0.0
 11
158.708
 21
182.2969999999999
 31
0.0
  0
LINE
  5
274
330
18
100
AcDbEntity
  8
0
100
AcDbLine
 10
147.9079999999999
 20
191.097
 30
0.0
 11
142.9079999999999
 21
191.097
 31
0.0
  0
LINE
  5
275
330
18
100
AcDbEntity
  8
0
100
AcDbLine
 10
147.9079999999999
 20
191.697
 30
0.0
 11
142.9079999999999
 21
191.697
 31
0.0
  0
LINE
  5
276
330
18
100
AcDbEntity
  8
0
100
AcDbLine
 10
147.9079999999999
 20
182.2969999999999
 30
0.0
 11
147.9079999999999
 21
161.2969999999999
 31
0.0
  0
LINE
  5
277
330
18
100
AcDbEntity
  8
0
100
AcDbLine
 10
147.9079999999999
 20
191.697
 30
0.0
 11
147.9079999999999
 21
190.697
 31
0.0
  0
LINE
  5
278
330
18
100
AcDbEntity
  8
0
100
AcDbLine
 10
142.9079999999999
 20
191.697
 30
0.0
 11
142.9079999999999
 21
161.2969999999999
 31
0.0
  0
LINE
  5
279
330
18
100
AcDbEntity
  8
_________2
100
AcDbLine
 10
205.301
 20
127.411
 30
0.0
 11
183.551
 21
127.411
 31
0.0
  0
LINE
  5
27A
330
18
100
AcDbEntity
  8
_________2
100
AcDbLine
 10
100.2999999999999
 20
-4.09108
 30
0.0
 11
100.2999999999999
 21
-21.07099999999999
 31
0.0
  0
LINE
  5
27B
330
18
100
AcDbEntity
  8
_________2
100
AcDbLine
 10
100.2999999999999
 20
275.9309999999999
 30
0.0
 11
100.2999999999999
 21
258.911
 31
0.0
  0
LINE
  5
27C
330
18
100
AcDbEntity
  8
_________2
100
AcDbLine
 10
17.04939999999999
 20
127.411
 30
0.0
 11
-4.70103
 21
127.411
 31
0.0
  0
LINE
  5
27D
330
18
100
AcDbEntity
  8
_________2
100
AcDbLine
 10
76.7408
 20
29.8047
 30
0.0
 11
74.55459999999999
 21
29.8047
 31
0.0
  0
LINE
  5
27E
330
18
100
AcDbEntity
  8
_________2
100
AcDbLine
 10
77.2335
 20
29.8047
 30
0.0
 11
76.9813
 21
29.8047
 31
0.0
  0
LINE
  5
27F
330
18
100
AcDbEntity
  8
_________2
100
AcDbLine
 10
77.7262
 20
29.8047
 30
0.0
 11
80.6511
 21
29.8047
 31
0.0
  0
LINE
  5
280
330
18
100
AcDbEntity
  8
_________2
100
AcDbLine
 10
77.2335
 20
29.8047
 30
0.0
 11
77.48569999999999
 21
29.8047
 31
0.0
  0
LINE
  5
281
330
18
100
AcDbEntity
  8
_________2
100
AcDbLine
 10
70.8373
 20
29.8047
 30
0.0
 11
68.6503
 21
29.8047
 31
0.0
  0
LINE
  5
282
330
18
100
AcDbEntity
  8
_________2
100
AcDbLine
 10
71.3293
 20
29.8047
 30
0.0
 11
71.07779999999999
 21
29.8047
 31
0.0
  0
LINE
  5
283
330
18
100
AcDbEntity
  8
_________2
100
AcDbLine
 10
71.3293
 20
30.2974
 30
0.0
 11
71.3293
 21
32.4844
 31
0.0
  0
LINE
  5
284
330
18
100
AcDbEntity
  8
_________2
100
AcDbLine
 10
71.3293
 20
29.8047
 30
0.0
 11
71.3293
 21
30.0573
 31
0.0
  0
LINE
  5
285
330
18
100
AcDbEntity
  8
_________2
100
AcDbLine
 10
71.8219
 20
29.8047
 30
0.0
 11
74.0089
 21
29.8047
 31
0.0
  0
LINE
  5
286
330
18
100
AcDbEntity
  8
_________2
100
AcDbLine
 10
71.3293
 20
29.8047
 30
0.0
 11
71.5814
 21
29.8047
 31
0.0
  0
LINE
  5
287
330
18
100
AcDbEntity
  8
_________2
100
AcDbLine
 10
71.3293
 20
29.3128
 30
0.0
 11
71.3293
 21
27.1262
 31
0.0
  0
LINE
  5
288
330
18
100
AcDbEntity
  8
_________2
100
AcDbLine
 10
71.3293
 20
29.8047
 30
0.0
 11
71.3293
 21
29.5532
 31
0.0
  0
LINE
  5
289
330
18
100
AcDbEntity
  8
_________2
100
AcDbLine
 10
75.0403
 20
28.5852
 30
0.0
 11
80.21829999999999
 21
27.7204
 31
0.0
  0
LINE
  5
28A
330
18
100
AcDbEntity
  8
_________2
100
AcDbLine
 10
75.0403
 20
31.0247
 30
0.0
 11
80.21829999999999
 21
31.8901
 31
0.0
  0
LINE
  5
28B
330
18
100
AcDbEntity
  8
_________2
100
AcDbLine
 10
80.21829999999999
 20
27.7204
 30
0.0
 11
80.21829999999999
 21
31.8901
 31
0.0
  0
LINE
  5
28C
330
18
100
AcDbEntity
  8
_________2
100
AcDbLine
 10
75.0403
 20
28.5852
 30
0.0
 11
75.0403
 21
31.0247
 31
0.0
  0
ARC
  5
28D
330
18
100
AcDbEntity
  8
_________2
100
AcDbCircle
 10
71.282674
 20
29.757801
 30
0.0
 40
1.267714
100
AcDbArc
 50
2.122084
 51
87.89408399999999
  0
ARC
  5
28E
330
18
100
AcDbEntity
  8
_________2
100
AcDbCircle
 10
71.37581299999999
 20
29.758546
 30
0.0
 40
1.266968
100
AcDbArc
 50
92.10578299999999
 51
177.91037
  0
ARC
  5
28F
330
18
100
AcDbEntity
  8
_________2
100
AcDbCircle
 10
71.376186
 20
29.851671
 30
0.0
 40
1.267368
100
AcDbArc
 50
182.122036
 51
267.877993
  0
ARC
  5
290
330
18
100
AcDbEntity
  8
_________2
100
AcDbCircle
 10
71.28236899999999
 20
29.852348
 30
0.0
 40
1.268043999999999
100
AcDbArc
 50
272.119164
 51
357.8484849999999
  0
ARC
  5
291
330
18
100
AcDbEntity
  8
_________2
100
AcDbCircle
 10
71.24889
 20
29.72473199999999
 30
0.0
 40
2.166831
100
AcDbArc
 50
2.116143999999999
 51
87.874379
  0
ARC
  5
292
330
18
100
AcDbEntity
  8
_________2
100
AcDbCircle
 10
71.408928
 20
29.726146
 30
0.0
 40
2.165392999999999
100
AcDbArc
 50
92.108509
 51
177.919865
  0
ARC
  5
293
330
18
100
AcDbEntity
  8
_________2
100
AcDbCircle
 10
71.409267
 20
29.884752
 30
0.0
 40
2.165783
100
AcDbArc
 50
182.117133
 51
267.882897
  0
ARC
  5
294
330
18
100
AcDbEntity
  8
_________2
100
AcDbCircle
 10
71.24928699999999
 20
29.88542999999999
 30
0.0
 40
2.166459
100
AcDbArc
 50
272.115468
 51
357.865604
  0
TEXT
  5
295
330
18
100
AcDbEntity
  8
_________2
100
AcDbText
 10
104.605
 20
1.67949
 30
0.0
 40
3.09234
  1
図番
 41
0.5
100
AcDbText
  0
LINE
  5
296
330
18
100
AcDbEntity
  8
_________2
100
AcDbLine
 10
103.55
 20
5.908719999999999
 30
0.0
 11
183.551
 21
5.908719999999999
 31
0.0
  0
TEXT
  5
297
330
18
100
AcDbEntity
  8
_________2
100
AcDbText
 10
104.605
 20
11.67929999999999
 30
0.0
 40
3.09234
  1
品番
 41
0.5
100
AcDbText
  0
TEXT
  5
298
330
18
100
AcDbEntity
  8
_________2
100
AcDbText
 10
104.605
 20
31.8184
 30
0.0
 40
3.09234
  1
名称
 41
0.5
100
AcDbText
  0
TEXT
  5
299
330
18
100
AcDbEntity
  8
_________2
100
AcDbText
 10
91.84495833333334
 20
26.8223
 30
0.0
 40
3.65458
  1
mm
 41
0.5
 72
     1
 11
93.36769999999999
 21
26.8223
 31
0.0
100
AcDbText
  0
TEXT
  5
29A
330
18
100
AcDbEntity
  8
_________2
100
AcDbText
 10
85.64299999999999
 20
31.8184
 30
0.0
 40
3.09234
  1
単位
 41
0.5
100
AcDbText
  0
TEXT
  5
29B
330
18
100
AcDbEntity
  8
_________2
100
AcDbText
 10
85.64299999999999
 20
19.41079999999999
 30
0.0
 40
3.09234
  1
尺度
 41
0.5
100
AcDbText
  0
TEXT
  5
29C
330
18
100
AcDbEntity
  8
_________2
100
AcDbText
 10
90.54855866666668
 20
13.21819999999999
 30
0.0
 40
3.65458
  1
1 ： 5
 41
0.5
 72
     1
 11
93.9595
 21
13.21819999999999
 31
0.0
100
AcDbText
  0
TEXT
  5
29D
330
18
100
AcDbEntity
  8
_________2
100
AcDbText
 10
136.33455
 20
9.1082
 30
0.0
 40
3.9357
  1
EC357007
 41
0.5
 72
     1
 11
143.55
 21
9.1082
 31
0.0
100
AcDbText
  0
TEXT
  5
29E
330
18
100
AcDbEntity
  8
_________2
100
AcDbText
 10
136.33455
 20
-0.8926299999999999
 30
0.0
 40
3.9357
  1
EC357007
 41
0.5
 72
     1
 11
143.55
 21
-0.8926299999999999
 31
0.0
100
AcDbText
  0
TEXT
  5
29F
330
18
100
AcDbEntity
  8
_________2
100
AcDbText
 10
109.179
 20
24.2261
 30
0.0
 40
3.9357
  1
システム02  L型バスグリップ〈Rタイプ〉
 41
0.5
100
AcDbText
  0
TEXT
  5
2A0
330
18
100
AcDbEntity
  8
_________2
100
AcDbText
 10
39.303281
 20
13.6034
 30
0.0
 40
3.65458
  1
田尻
 41
0.5
 72
     1
 11
41.3133
 21
13.6034
 31
0.0
100
AcDbText
  0
TEXT
  5
2A1
330
18
100
AcDbEntity
  8
_________2
100
AcDbText
 10
20.79019066666667
 20
13.6034
 30
0.0
 40
3.65458
  1
石原
 41
0.5
 72
     1
 11
22.7393
 21
13.6034
 31
0.0
100
AcDbText
  0
TEXT
  5
2A2
330
18
100
AcDbEntity
  8
_________2
100
AcDbText
 10
67.7856
 20
13.21819999999999
 30
0.0
 40
3.65458
  1
09.10.01
 41
0.5
100
AcDbText
  0
TEXT
  5
2A3
330
18
100
AcDbEntity
  8
_________2
100
AcDbText
 10
66.5929
 20
19.41079999999999
 30
0.0
 40
3.09234
  1
日付
 41
0.5
100
AcDbText
  0
TEXT
  5
2A4
330
18
100
AcDbEntity
  8
_________2
100
AcDbText
 10
29.63919999999999
 20
19.41079999999999
 30
0.0
 40
3.09234
  1
検図
 41
0.5
100
AcDbText
  0
TEXT
  5
2A5
330
18
100
AcDbEntity
  8
_________2
100
AcDbText
 10
18.0209
 20
5.21143
 30
0.0
 40
3.09234
  1
備考
 41
0.5
100
AcDbText
  0
TEXT
  5
2A6
330
18
100
AcDbEntity
  8
_________2
100
AcDbText
 10
18.0209
 20
19.41079999999999
 30
0.0
 40
3.09234
  1
製図
 41
0.5
100
AcDbText
  0
TEXT
  5
2A7
330
18
100
AcDbEntity
  8
_________2
100
AcDbText
 10
23.863231
 20
27.9368
 30
0.0
 40
4.497939999999999
  1
セラトレーディング株式会社
 41
0.5
 72
     1
 11
41.1803
 21
27.9368
 31
0.0
100
AcDbText
  0
LINE
  5
2A8
330
18
100
AcDbEntity
  8
_________2
100
AcDbLine
 10
183.551
 20
-4.09108
 30
0.0
 11
17.04939999999999
 21
-4.09108
 31
0.0
  0
LINE
  5
2A9
330
18
100
AcDbEntity
  8
_________2
100
AcDbLine
 10
17.04939999999999
 20
-4.09108
 30
0.0
 11
17.04939999999999
 21
258.911
 31
0.0
  0
LINE
  5
2AA
330
18
100
AcDbEntity
  8
_________2
100
AcDbLine
 10
17.04939999999999
 20
258.911
 30
0.0
 11
183.551
 21
258.911
 31
0.0
  0
LINE
  5
2AB
330
18
100
AcDbEntity
  8
_________2
100
AcDbLine
 10
183.551
 20
258.911
 30
0.0
 11
183.551
 21
-4.09108
 31
0.0
  0
LINE
  5
2AC
330
18
100
AcDbEntity
  8
_________2
100
AcDbLine
 10
65.5497
 20
9.409299999999999
 30
0.0
 11
65.5497
 21
35.9091
 31
0.0
  0
LINE
  5
2AD
330
18
100
AcDbEntity
  8
_________2
100
AcDbLine
 10
84.54959999999999
 20
9.409299999999999
 30
0.0
 11
84.54959999999999
 21
35.9091
 31
0.0
  0
LINE
  5
2AE
330
18
100
AcDbEntity
  8
_________2
100
AcDbLine
 10
103.55
 20
-4.09108
 30
0.0
 11
103.55
 21
35.9091
 31
0.0
  0
LINE
  5
2AF
330
18
100
AcDbEntity
  8
_________2
100
AcDbLine
 10
28.54919999999999
 20
9.409299999999999
 30
0.0
 11
28.54919999999999
 21
23.4092
 31
0.0
  0
LINE
  5
2B0
330
18
100
AcDbEntity
  8
_________2
100
AcDbLine
 10
17.04939999999999
 20
9.409299999999999
 30
0.0
 11
103.55
 21
9.409299999999999
 31
0.0
  0
LINE
  5
2B1
330
18
100
AcDbEntity
  8
_________2
100
AcDbLine
 10
17.04939999999999
 20
23.4092
 30
0.0
 11
103.55
 21
23.4092
 31
0.0
  0
LINE
  5
2B2
330
18
100
AcDbEntity
  8
_________2
100
AcDbLine
 10
103.55
 20
15.9085
 30
0.0
 11
183.551
 21
15.9085
 31
0.0
  0
LINE
  5
2B3
330
18
100
AcDbEntity
  8
_________2
100
AcDbLine
 10
17.04939999999999
 20
35.9091
 30
0.0
 11
183.551
 21
35.9091
 31
0.0
  0
ENDSEC
  0
SECTION
  2
OBJECTS
  0
DICTIONARY
  5
C
330
0
100
AcDbDictionary
281
     1
  3
ACAD_GROUP
350
D
  3
ACAD_LAYOUT
350
2B9
  3
ACAD_MLINESTYLE
350
1B
  3
ACAD_PLOTSETTINGS
350
2BA
  3
ACAD_PLOTSTYLENAME
350
2B7
  0
DICTIONARY
  5
D
102
{ACAD_REACTORS
330
C
102
}
330
C
100
AcDbDictionary
281
     1
  0
DICTIONARY
  5
2B9
102
{ACAD_REACTORS
330
C
102
}
330
C
100
AcDbDictionary
281
     1
  3
Model
350
2BB
  3
ﾚｲｱｳﾄ1
350
2BC
  0
DICTIONARY
  5
1B
102
{ACAD_REACTORS
330
C
102
}
330
C
100
AcDbDictionary
281
     1
  3
STANDARD
350
1C
  0
DICTIONARY
  5
2BA
102
{ACAD_REACTORS
330
C
102
}
330
C
100
AcDbDictionary
281
     1
  0
ACDBDICTIONARYWDFLT
  5
2B7
102
{ACAD_REACTORS
330
C
102
}
330
C
100
AcDbDictionary
281
     1
  3
Normal
350
2B8
100
AcDbDictionaryWithDefault
340
2B8
  0
LAYOUT
  5
2BB
102
{ACAD_REACTORS
330
2B9
102
}
330
2B9
100
AcDbPlotSettings
  1

  2
DocuPrint2060
  4

  6

 40
0.0
 41
0.0
 42
0.0
 43
0.0
 44
0.0
 45
0.0
 46
0.0
 47
0.0
 48
0.0
 49
0.0
140
0.0
141
0.0
142
1.0
143
1.0
 70
  1712
 72
     0
 73
     0
 74
     0
  7

 75
     0
147
1.0
148
0.0
149
0.0
100
AcDbLayout
  1
Model
 70
     1
 71
     0
 10
0.0
 20
0.0
 11
12.0
 21
9.0
 12
0.0
 22
0.0
 32
0.0
 14
0.0
 24
0.0
 34
0.0
 15
0.0
 25
0.0
 35
0.0
146
0.0
 13
0.0
 23
0.0
 33
0.0
 16
1.0
 26
0.0
 36
0.0
 17
0.0
 27
1.0
 37
0.0
 76
     0
330
18
  0
LAYOUT
  5
2BC
102
{ACAD_REACTORS
330
2B9
102
}
330
2B9
100
AcDbPlotSettings
  1

  2
DocuPrint2060
  4

  6

 40
0.0
 41
0.0
 42
0.0
 43
0.0
 44
0.0
 45
0.0
 46
0.0
 47
0.0
 48
0.0
 49
0.0
140
0.0
141
0.0
142
1.0
143
1.0
 70
   688
 72
     0
 73
     0
 74
     5
  7

 75
    16
147
1.0
148
0.0
149
0.0
100
AcDbLayout
  1
ﾚｲｱｳﾄ1
 70
     1
 71
     1
 10
0.0
 20
0.0
 11
12.0
 21
9.0
 12
0.0
 22
0.0
 32
0.0
 14
1.000000000000000E+20
 24
1.000000000000000E+20
 34
1.000000000000000E+20
 15
-1.000000000000000E+20
 25
-1.000000000000000E+20
 35
-1.000000000000000E+20
146
0.0
 13
0.0
 23
0.0
 33
0.0
 16
1.0
 26
0.0
 36
0.0
 17
0.0
 27
1.0
 37
0.0
 76
     0
330
15
  0
MLINESTYLE
  5
1C
102
{ACAD_REACTORS
330
1B
102
}
330
1B
100
AcDbMlineStyle
  2
STANDARD
 70
     0
  3

 62
   256
 51
90.0
 52
90.0
 71
     2
 49
0.5
 62
   256
  6
BYLAYER
 49
-0.5
 62
   256
  6
BYLAYER
  0
ACDBPLACEHOLDER
  5
2B8
102
{ACAD_REACTORS
330
2B7
102
}
330
2B7
  0
ENDSEC
  0
EOF
