  0
SECTION
  2
HEADER
  9
$ACADVER
  1
AC1014
  9
$ACADMAINTVER
 70
     9
  9
$DWGCODEPAGE
  3
ANSI_932
  9
$INSBASE
 10
0.0
 20
0.0
 30
0.0
  9
$EXTMIN
 10
-891.0
 20
-630.0
 30
0.0
  9
$EXTMAX
 10
891.0
 20
630.0
 30
0.0
  9
$LIMMIN
 10
-297.0
 20
-210.0
  9
$LIMMAX
 10
297.0
 20
210.0
  9
$ORTHOMODE
 70
     0
  9
$REGENMODE
 70
     1
  9
$FILLMODE
 70
     1
  9
$QTEXTMODE
 70
     0
  9
$MIRRTEXT
 70
     1
  9
$DRAGMODE
 70
     2
  9
$LTSCALE
 40
1.0
  9
$OSMODE
 70
    37
  9
$ATTMODE
 70
     1
  9
$TEXTSIZE
 40
0.2
  9
$TRACEWID
 40
0.05
  9
$TEXTSTYLE
  7
STANDARD
  9
$CLAYER
  8
0
  9
$CELTYPE
  6
BYLAYER
  9
$CECOLOR
 62
   256
  9
$CELTSCALE
 40
1.0
  9
$DELOBJ
 70
     1
  9
$DISPSILH
 70
     0
  9
$DIMSCALE
 40
1.0
  9
$DIMASZ
 40
2.5
  9
$DIMEXO
 40
0.0625
  9
$DIMDLI
 40
0.38
  9
$DIMRND
 40
0.0
  9
$DIMDLE
 40
0.0
  9
$DIMEXE
 40
0.18
  9
$DIMTP
 40
0.0
  9
$DIMTM
 40
0.0
  9
$DIMTXT
 40
0.18
  9
$DIMCEN
 40
0.09
  9
$DIMTSZ
 40
0.0
  9
$DIMTOL
 70
     0
  9
$DIMLIM
 70
     0
  9
$DIMTIH
 70
     1
  9
$DIMTOH
 70
     1
  9
$DIMSE1
 70
     0
  9
$DIMSE2
 70
     0
  9
$DIMTAD
 70
     3
  9
$DIMZIN
 70
     0
  9
$DIMBLK
  1

  9
$DIMASO
 70
     1
  9
$DIMSHO
 70
     1
  9
$DIMPOST
  1

  9
$DIMAPOST
  1

  9
$DIMALT
 70
     0
  9
$DIMALTD
 70
     2
  9
$DIMALTF
 40
25.4
  9
$DIMLFAC
 40
1.0
  9
$DIMTOFL
 70
     0
  9
$DIMTVP
 40
0.0
  9
$DIMTIX
 70
     0
  9
$DIMSOXD
 70
     0
  9
$DIMSAH
 70
     0
  9
$DIMBLK1
  1

  9
$DIMBLK2
  1

  9
$DIMSTYLE
  2
STANDARD
  9
$DIMCLRD
 70
     0
  9
$DIMCLRE
 70
     0
  9
$DIMCLRT
 70
     0
  9
$DIMTFAC
 40
1.0
  9
$DIMGAP
 40
0.09
  9
$DIMJUST
 70
     0
  9
$DIMSD1
 70
     0
  9
$DIMSD2
 70
     0
  9
$DIMTOLJ
 70
     1
  9
$DIMTZIN
 70
     0
  9
$DIMALTZ
 70
     0
  9
$DIMALTTZ
 70
     0
  9
$DIMFIT
 70
     3
  9
$DIMUPT
 70
     0
  9
$DIMUNIT
 70
     2
  9
$DIMDEC
 70
     4
  9
$DIMTDEC
 70
     4
  9
$DIMALTU
 70
     2
  9
$DIMALTTD
 70
     2
  9
$DIMTXSTY
  7
STANDARD
  9
$DIMAUNIT
 70
     0
  9
$LUNITS
 70
     2
  9
$LUPREC
 70
     4
  9
$SKETCHINC
 40
0.1
  9
$FILLETRAD
 40
0.5
  9
$AUNITS
 70
     0
  9
$AUPREC
 70
     0
  9
$MENU
  1
.
  9
$ELEVATION
 40
0.0
  9
$PELEVATION
 40
0.0
  9
$THICKNESS
 40
0.0
  9
$LIMCHECK
 70
     0
  9
$CHAMFERA
 40
0.5
  9
$CHAMFERB
 40
0.5
  9
$CHAMFERC
 40
1.0
  9
$CHAMFERD
 40
0.0
  9
$SKPOLY
 70
     0
  9
$TDCREATE
 40
2455593.670410729
  9
$TDUPDATE
 40
2455593.670410741
  9
$TDINDWG
 40
0.0000000116
  9
$TDUSRTIMER
 40
0.0000000116
  9
$USRTIMER
 70
     1
  9
$ANGBASE
 50
0.0
  9
$ANGDIR
 70
     0
  9
$PDMODE
 70
     0
  9
$PDSIZE
 40
1.0
  9
$PLINEWID
 40
0.0
  9
$COORDS
 70
     1
  9
$SPLFRAME
 70
     0
  9
$SPLINETYPE
 70
     6
  9
$SPLINESEGS
 70
     8
  9
$ATTDIA
 70
     0
  9
$ATTREQ
 70
     1
  9
$HANDLING
 70
     1
  9
$HANDSEED
  5
739
  9
$SURFTAB1
 70
     6
  9
$SURFTAB2
 70
     6
  9
$SURFTYPE
 70
     6
  9
$SURFU
 70
     6
  9
$SURFV
 70
     6
  9
$UCSNAME
  2

  9
$UCSORG
 10
0.0
 20
0.0
 30
0.0
  9
$UCSXDIR
 10
1.0
 20
0.0
 30
0.0
  9
$UCSYDIR
 10
0.0
 20
1.0
 30
0.0
  9
$PUCSNAME
  2

  9
$PUCSORG
 10
0.0
 20
0.0
 30
0.0
  9
$PUCSXDIR
 10
1.0
 20
0.0
 30
0.0
  9
$PUCSYDIR
 10
0.0
 20
1.0
 30
0.0
  9
$USERI1
 70
     0
  9
$USERI2
 70
     0
  9
$USERI3
 70
     0
  9
$USERI4
 70
     0
  9
$USERI5
 70
     0
  9
$USERR1
 40
0.0
  9
$USERR2
 40
0.0
  9
$USERR3
 40
0.0
  9
$USERR4
 40
0.0
  9
$USERR5
 40
0.0
  9
$WORLDVIEW
 70
     1
  9
$SHADEDGE
 70
     3
  9
$SHADEDIF
 70
    70
  9
$TILEMODE
 70
     1
  9
$MAXACTVP
 70
    64
  9
$PINSBASE
 10
0.0
 20
0.0
 30
0.0
  9
$PLIMCHECK
 70
     0
  9
$PEXTMIN
 10
1.000000000000000E+20
 20
1.000000000000000E+20
 30
1.000000000000000E+20
  9
$PEXTMAX
 10
-1.000000000000000E+20
 20
-1.000000000000000E+20
 30
-1.000000000000000E+20
  9
$PLIMMIN
 10
0.0
 20
0.0
  9
$PLIMMAX
 10
12.0
 20
9.0
  9
$UNITMODE
 70
     0
  9
$VISRETAIN
 70
     0
  9
$PLINEGEN
 70
     1
  9
$PSLTSCALE
 70
     0
  9
$TREEDEPTH
 70
  3020
  9
$PICKSTYLE
 70
     1
  9
$CMLSTYLE
  2
STANDARD
  9
$CMLJUST
 70
     0
  9
$CMLSCALE
 40
1.0
  9
$PROXYGRAPHICS
 70
     0
  9
$MEASUREMENT
 70
     1
  0
ENDSEC
  0
SECTION
  2
CLASSES
  0
CLASS
  1
ACDBDICTIONARYWDFLT
  2
AcDbDictionaryWithDefault
  3
ObjectDBX Classes
 90
        0
280
     0
281
     0
  0
CLASS
  1
XRECORD
  2
AcDbXrecord
  3
AutoCAD 2000
 90
        0
280
     0
281
     0
  0
CLASS
  1
LWPOLYLINE
  2
AcDbPolyline
  3
AutoCAD 2000
 90
        0
280
     0
281
     1
  0
CLASS
  1
HATCH
  2
AcDbHatch
  3
AutoCAD 2000
 90
        0
280
     0
281
     1
  0
CLASS
  1
ACDBPLACEHOLDER
  2
AcDbPlaceHolder
  3
ObjectDBX Classes
 90
        0
280
     0
281
     0
  0
CLASS
  1
LAYOUT
  2
AcDbLayout
  3
ObjectDBX Classes
 90
        0
280
     0
281
     0
  0
ENDSEC
  0
SECTION
  2
TABLES
  0
TABLE
  2
VPORT
  5
8
330
0
100
AcDbSymbolTable
 70
     1
  0
VPORT
  5
29
330
8
100
AcDbSymbolTableRecord
100
AcDbViewportTableRecord
  2
*ACTIVE
 70
     0
 10
0.0
 20
0.0
 11
1.0
 21
1.0
 12
0.0
 22
0.0
 13
0.0
 23
0.0
 14
0.5
 24
0.5
 15
0.5
 25
0.5
 16
0.0
 26
0.0
 36
1.0
 17
-0.0000000000000036
 27
0.0
 37
0.0
 40
428.4
 41
1.414285714285714
 42
50.0
 43
0.0
 44
0.0
 50
0.0
 51
0.0
 71
     0
 72
  1000
 73
     1
 74
     1
 75
     0
 76
     0
 77
     0
 78
     0
  0
ENDTAB
  0
TABLE
  2
LTYPE
  5
5
330
0
100
AcDbSymbolTable
 70
    28
  0
LTYPE
  5
14
330
5
100
AcDbSymbolTableRecord
100
AcDbLinetypeTableRecord
  2
BYBLOCK
 70
     0
  3

 72
    65
 73
     0
 40
0.0
  0
LTYPE
  5
15
330
5
100
AcDbSymbolTableRecord
100
AcDbLinetypeTableRecord
  2
BYLAYER
 70
     0
  3

 72
    65
 73
     0
 40
0.0
  0
LTYPE
  5
16
330
5
100
AcDbSymbolTableRecord
100
AcDbLinetypeTableRecord
  2
CONTINUOUS
 70
     0
  3
Solid line
 72
    65
 73
     0
 40
0.0
  0
LTYPE
  5
2B
330
5
100
AcDbSymbolTableRecord
100
AcDbLinetypeTableRecord
  2
HIDDENX2
 70
     0
  3
CADPAC LINETYPE
 72
    65
 73
     2
 40
9.717899848465777
 49
7.288424886349333
 74
     0
 49
-2.429474962116444
 74
     0
  0
LTYPE
  5
2C
330
5
100
AcDbSymbolTableRecord
100
AcDbLinetypeTableRecord
  2
HIDDEN
 70
     0
  3
CADPAC LINETYPE
 72
    65
 73
     2
 40
7.288424886349333
 49
4.858949924232888
 74
     0
 49
-2.429474962116444
 74
     0
  0
LTYPE
  5
2D
330
5
100
AcDbSymbolTableRecord
100
AcDbLinetypeTableRecord
  2
HIDDEN2
 70
     0
  3
CADPAC LINETYPE
 72
    65
 73
     2
 40
6.073687405291111
 49
3.644212443174666
 74
     0
 49
-2.429474962116444
 74
     0
  0
LTYPE
  5
2E
330
5
100
AcDbSymbolTableRecord
100
AcDbLinetypeTableRecord
  2
DASHED
 70
     0
  3
CADPAC LINETYPE
 72
    65
 73
     2
 40
6.802529893926021
 49
4.858949924232888
 74
     0
 49
-1.943579969693133
 74
     0
  0
LTYPE
  5
2F
330
5
100
AcDbSymbolTableRecord
100
AcDbLinetypeTableRecord
  2
DASHED2
 70
     0
  3
CADPAC LINETYPE
 72
    65
 73
     2
 40
4.373054931809577
 49
2.915369954539699
 74
     0
 49
-1.457684977269878
 74
     0
  0
LTYPE
  5
30
330
5
100
AcDbSymbolTableRecord
100
AcDbLinetypeTableRecord
  2
DASHEDX2
 70
     0
  3
CADPAC LINETYPE
 72
    65
 73
     2
 40
11.66147981815891
 49
9.717899848465777
 74
     0
 49
-1.943579969693133
 74
     0
  0
LTYPE
  5
31
330
5
100
AcDbSymbolTableRecord
100
AcDbLinetypeTableRecord
  2
DOTX2
 70
     0
  3
CADPAC LINETYPE
 72
    65
 73
     2
 40
4.251581183703763
 49
0.0
 74
     0
 49
-4.251581183703763
 74
     0
  0
LTYPE
  5
32
330
5
100
AcDbSymbolTableRecord
100
AcDbLinetypeTableRecord
  2
DOT
 70
     0
  3
CADPAC LINETYPE
 72
    65
 73
     2
 40
3.401264946963011
 49
0.0
 74
     0
 49
-3.401264946963011
 74
     0
  0
LTYPE
  5
33
330
5
100
AcDbSymbolTableRecord
100
AcDbLinetypeTableRecord
  2
DOT2
 70
     0
  3
CADPAC LINETYPE
 72
    65
 73
     2
 40
2.550948710222258
 49
0.0
 74
     0
 49
-2.550948710222258
 74
     0
  0
LTYPE
  5
34
330
5
100
AcDbSymbolTableRecord
100
AcDbLinetypeTableRecord
  2
CENTERX2
 70
     0
  3
CADPAC LINETYPE
 72
    65
 73
     4
 40
14.57684977269867
 49
6.073687405291111
 74
     0
 49
-3.036843702645555
 74
     0
 49
2.429474962116444
 74
     0
 49
-3.036843702645555
 74
     0
  0
LTYPE
  5
35
330
5
100
AcDbSymbolTableRecord
100
AcDbLinetypeTableRecord
  2
CENTER
 70
     0
  3
CADPAC LINETYPE
 72
    65
 73
     4
 40
11.17558482573564
 49
4.858949924232888
 74
     0
 49
-2.429474962116444
 74
     0
 49
1.457684977269867
 74
     0
 49
-2.429474962116444
 74
     0
  0
LTYPE
  5
36
330
5
100
AcDbSymbolTableRecord
100
AcDbLinetypeTableRecord
  2
CENTER2
 70
     0
  3
CADPAC LINETYPE
 72
    65
 73
     4
 40
7.774319878772621
 49
3.644212443174666
 74
     0
 49
-1.822106221587333
 74
     0
 49
0.4858949924232889
 74
     0
 49
-1.822106221587333
 74
     0
  0
LTYPE
  5
37
330
5
100
AcDbSymbolTableRecord
100
AcDbLinetypeTableRecord
  2
DASHDOTX2
 70
     0
  3
CADPAC LINETYPE
 72
    65
 73
     4
 40
23.32295963631776
 49
11.66147981815897
 74
     0
 49
-3.887159939386265
 74
     0
 49
3.887159939386265
 74
     0
 49
-3.887159939386265
 74
     0
  0
LTYPE
  5
38
330
5
100
AcDbSymbolTableRecord
100
AcDbLinetypeTableRecord
  2
DASHDOT
 70
     0
  3
CADPAC LINETYPE
 72
    65
 73
     4
 40
11.66147981815885
 49
5.830739909079455
 74
     0
 49
-1.943579969693133
 74
     0
 49
1.943579969693133
 74
     0
 49
-1.943579969693133
 74
     0
  0
LTYPE
  5
39
330
5
100
AcDbSymbolTableRecord
100
AcDbLinetypeTableRecord
  2
DASHDOT2
 70
     0
  3
CADPAC LINETYPE
 72
    65
 73
     4
 40
7.482782883318603
 49
4.373054931809591
 74
     0
 49
-1.45768497726985
 74
     0
 49
0.1943579969693133
 74
     0
 49
-1.45768497726985
 74
     0
  0
LTYPE
  5
3A
330
5
100
AcDbSymbolTableRecord
100
AcDbLinetypeTableRecord
  2
DIVIDEX2
 70
     0
  3
CADPAC LINETYPE
 72
    65
 73
     6
 40
31.09727951509029
 49
11.66147981815897
 74
     0
 49
-3.887159939386265
 74
     0
 49
3.887159939386265
 74
     0
 49
-3.887159939386265
 74
     0
 49
3.887159939386265
 74
     0
 49
-3.887159939386265
 74
     0
  0
LTYPE
  5
3B
330
5
100
AcDbSymbolTableRecord
100
AcDbLinetypeTableRecord
  2
DIVIDE
 70
     0
  3
CADPAC LINETYPE
 72
    65
 73
     6
 40
15.54863975754512
 49
5.830739909079455
 74
     0
 49
-1.943579969693133
 74
     0
 49
1.943579969693133
 74
     0
 49
-1.943579969693133
 74
     0
 49
1.943579969693133
 74
     0
 49
-1.943579969693133
 74
     0
  0
LTYPE
  5
3C
330
5
100
AcDbSymbolTableRecord
100
AcDbLinetypeTableRecord
  2
DIVIDE2
 70
     0
  3
CADPAC LINETYPE
 72
    65
 73
     6
 40
11.66147981815884
 49
4.373054931809591
 74
     0
 49
-1.45768497726985
 74
     0
 49
1.45768497726985
 74
     0
 49
-1.45768497726985
 74
     0
 49
1.45768497726985
 74
     0
 49
-1.45768497726985
 74
     0
  0
LTYPE
  5
3D
330
5
100
AcDbSymbolTableRecord
100
AcDbLinetypeTableRecord
  2
BORDERX2
 70
     0
  3
CADPAC LINETYPE
 72
    65
 73
     6
 40
21.25790591851889
 49
6.073687405291111
 74
     0
 49
-3.036843702645555
 74
     0
 49
6.073687405291111
 74
     0
 49
-3.036843702645555
 74
     0
 49
0.0
 74
     0
 49
-3.036843702645555
 74
     0
  0
LTYPE
  5
3E
330
5
100
AcDbSymbolTableRecord
100
AcDbLinetypeTableRecord
  2
BORDER
 70
     0
  3
CADPAC LINETYPE
 72
    65
 73
     6
 40
17.00632473481511
 49
4.858949924232888
 74
     0
 49
-2.429474962116444
 74
     0
 49
4.858949924232888
 74
     0
 49
-2.429474962116444
 74
     0
 49
0.0
 74
     0
 49
-2.429474962116444
 74
     0
  0
LTYPE
  5
3F
330
5
100
AcDbSymbolTableRecord
100
AcDbLinetypeTableRecord
  2
BORDER2
 70
     0
  3
CADPAC LINETYPE
 72
    65
 73
     6
 40
12.63326980300548
 49
3.887159939386265
 74
     0
 49
-2.429474962116444
 74
     0
 49
1.457684977269878
 74
     0
 49
-2.429474962116444
 74
     0
 49
0.0
 74
     0
 49
-2.429474962116444
 74
     0
  0
LTYPE
  5
40
330
5
100
AcDbSymbolTableRecord
100
AcDbLinetypeTableRecord
  2
PHANTOMX2
 70
     0
  3
CADPAC LINETYPE
 72
    65
 73
     6
 40
18.22106221587333
 49
6.073687405291111
 74
     0
 49
-2.429474962116444
 74
     0
 49
2.429474962116444
 74
     0
 49
-2.429474962116444
 74
     0
 49
2.429474962116444
 74
     0
 49
-2.429474962116444
 74
     0
  0
LTYPE
  5
41
330
5
100
AcDbSymbolTableRecord
100
AcDbLinetypeTableRecord
  2
PHANTOM
 70
     0
  3
CADPAC LINETYPE
 72
    65
 73
     6
 40
15.06274476512196
 49
4.858949924232888
 74
     0
 49
-2.429474962116444
 74
     0
 49
1.457684977269867
 74
     0
 49
-2.429474962116444
 74
     0
 49
1.457684977269867
 74
     0
 49
-2.429474962116444
 74
     0
  0
LTYPE
  5
42
330
5
100
AcDbSymbolTableRecord
100
AcDbLinetypeTableRecord
  2
PHANTOM2
 70
     0
  3
CADPAC LINETYPE
 72
    65
 73
     6
 40
12.87621729921715
 49
3.644212443174666
 74
     0
 49
-2.429474962116444
 74
     0
 49
0.9717899848465778
 74
     0
 49
-2.429474962116444
 74
     0
 49
0.9717899848465778
 74
     0
 49
-2.429474962116444
 74
     0
  0
LTYPE
  5
43
330
5
100
AcDbSymbolTableRecord
100
AcDbLinetypeTableRecord
  2
ACAD_ISO06W100
 70
     0
  3
CADPAC LINETYPE
 72
    65
 73
     8
 40
25.75243459843438
 49
11.66147981815897
 74
     0
 49
-2.429474962116444
 74
     0
 49
1.457684977269878
 74
     0
 49
-2.429474962116444
 74
     0
 49
1.457684977269878
 74
     0
 49
-2.429474962116444
 74
     0
 49
1.457684977269878
 74
     0
 49
-2.429474962116444
 74
     0
  0
LTYPE
  5
44
330
5
100
AcDbSymbolTableRecord
100
AcDbLinetypeTableRecord
  2
ACAD_ISO13W100
 70
     0
  3
CADPAC LINETYPE
 72
    65
 73
     8
 40
19.43579969693155
 49
4.858949924232888
 74
     0
 49
-2.429474962116444
 74
     0
 49
4.858949924232888
 74
     0
 49
-2.429474962116444
 74
     0
 49
0.0
 74
     0
 49
-2.429474962116444
 74
     0
 49
0.0
 74
     0
 49
-2.429474962116444
 74
     0
  0
LTYPE
  5
45
330
5
100
AcDbSymbolTableRecord
100
AcDbLinetypeTableRecord
  2
ACAD_ISO14W100
 70
     0
  3
CADPAC LINETYPE
 72
    65
 73
     8
 40
14.57684977269867
 49
4.858949924232888
 74
     0
 49
-2.429474962116444
 74
     0
 49
0.0
 74
     0
 49
-2.429474962116444
 74
     0
 49
0.0
 74
     0
 49
-2.429474962116444
 74
     0
 49
0.0
 74
     0
 49
-2.429474962116444
 74
     0
  0
ENDTAB
  0
TABLE
  2
LAYER
  5
2
330
0
100
AcDbSymbolTable
 70
     4
  0
LAYER
  5
10
330
2
100
AcDbSymbolTableRecord
100
AcDbLayerTableRecord
  2
0
 70
     0
 62
     7
  6
CONTINUOUS
  0
LAYER
  5
46
330
2
100
AcDbSymbolTableRecord
100
AcDbLayerTableRecord
  2
LAYER0014
 70
     0
 62
     7
  6
CONTINUOUS
  0
LAYER
  5
47
330
2
100
AcDbSymbolTableRecord
100
AcDbLayerTableRecord
  2
LAYER0015
 70
     0
 62
     7
  6
CONTINUOUS
  0
LAYER
  5
48
330
2
100
AcDbSymbolTableRecord
100
AcDbLayerTableRecord
  2
ZUWAKU
 70
     0
 62
     7
  6
CONTINUOUS
  0
ENDTAB
  0
TABLE
  2
STYLE
  5
3
330
0
100
AcDbSymbolTable
 70
     2
  0
STYLE
  5
11
330
3
100
AcDbSymbolTableRecord
100
AcDbTextStyleTableRecord
  2
STANDARD
 70
     0
 40
0.0
 41
1.0
 50
0.0
 71
     0
 42
0.2
  3
txt
  4

  0
STYLE
  5
227
330
3
100
AcDbSymbolTableRecord
100
AcDbTextStyleTableRecord
  2
FDASTYLE0
 70
     0
 40
3.0
 41
0.6666666666666604
 50
0.0
 71
     0
 42
0.2
  3
txt.shx
  4
bigfont
  0
ENDTAB
  0
TABLE
  2
VIEW
  5
6
330
0
100
AcDbSymbolTable
 70
     0
  0
ENDTAB
  0
TABLE
  2
UCS
  5
7
330
0
100
AcDbSymbolTable
 70
     0
  0
ENDTAB
  0
TABLE
  2
APPID
  5
9
330
0
100
AcDbSymbolTable
 70
     2
  0
APPID
  5
12
330
9
100
AcDbSymbolTableRecord
100
AcDbRegAppTableRecord
  2
ACAD
 70
     0
  0
APPID
  5
2A
330
9
100
AcDbSymbolTableRecord
100
AcDbRegAppTableRecord
  2
DAFUSIONOUT
 70
     0
  0
ENDTAB
  0
TABLE
  2
DIMSTYLE
  5
A
330
0
100
AcDbSymbolTable
 70
     1
  0
DIMSTYLE
105
27
330
A
100
AcDbSymbolTableRecord
100
AcDbDimStyleTableRecord
  2
STANDARD
 70
     0
  3

  4

  5

  6

  7

 40
1.0
 41
0.18
 42
0.0625
 43
0.38
 44
0.18
 45
0.0
 46
0.0
 47
0.0
 48
0.0
140
0.18
141
0.09
142
0.0
143
25.4
144
1.0
145
0.0
146
1.0
147
0.09
 71
     0
 72
     0
 73
     1
 74
     1
 75
     0
 76
     0
 77
     0
 78
     0
170
     0
171
     2
172
     0
173
     0
174
     0
175
     0
176
     0
177
     0
178
     0
270
     2
271
     4
272
     4
273
     2
274
     2
340
11
275
     0
280
     0
281
     0
282
     0
283
     1
284
     0
285
     0
286
     0
287
     3
288
     0
  0
ENDTAB
  0
TABLE
  2
BLOCK_RECORD
  5
1
330
0
100
AcDbSymbolTable
 70
    44
  0
BLOCK_RECORD
  5
1F
330
1
100
AcDbSymbolTableRecord
100
AcDbBlockTableRecord
  2
*MODEL_SPACE
  0
BLOCK_RECORD
  5
1B
330
1
100
AcDbSymbolTableRecord
100
AcDbBlockTableRecord
  2
*PAPER_SPACE
  0
BLOCK_RECORD
  5
4A
330
1
100
AcDbSymbolTableRecord
100
AcDbBlockTableRecord
  2
DC_GROUP_1
  0
BLOCK_RECORD
  5
4D
330
1
100
AcDbSymbolTableRecord
100
AcDbBlockTableRecord
  2
DC_GROUP_2
  0
BLOCK_RECORD
  5
50
330
1
100
AcDbSymbolTableRecord
100
AcDbBlockTableRecord
  2
DC_GROUP_3
  0
BLOCK_RECORD
  5
53
330
1
100
AcDbSymbolTableRecord
100
AcDbBlockTableRecord
  2
DC_GROUP_4
  0
BLOCK_RECORD
  5
56
330
1
100
AcDbSymbolTableRecord
100
AcDbBlockTableRecord
  2
DC_GROUP_5
  0
BLOCK_RECORD
  5
59
330
1
100
AcDbSymbolTableRecord
100
AcDbBlockTableRecord
  2
DC_GROUP_6
  0
BLOCK_RECORD
  5
5C
330
1
100
AcDbSymbolTableRecord
100
AcDbBlockTableRecord
  2
DC_GROUP_7
  0
BLOCK_RECORD
  5
5F
330
1
100
AcDbSymbolTableRecord
100
AcDbBlockTableRecord
  2
DC_GROUP_8
  0
BLOCK_RECORD
  5
62
330
1
100
AcDbSymbolTableRecord
100
AcDbBlockTableRecord
  2
DC_GROUP_9
  0
BLOCK_RECORD
  5
65
330
1
100
AcDbSymbolTableRecord
100
AcDbBlockTableRecord
  2
DC_GROUP_10
  0
BLOCK_RECORD
  5
68
330
1
100
AcDbSymbolTableRecord
100
AcDbBlockTableRecord
  2
DC_GROUP_11
  0
BLOCK_RECORD
  5
6B
330
1
100
AcDbSymbolTableRecord
100
AcDbBlockTableRecord
  2
DC_GROUP_12
  0
BLOCK_RECORD
  5
6E
330
1
100
AcDbSymbolTableRecord
100
AcDbBlockTableRecord
  2
DC_GROUP_13
  0
BLOCK_RECORD
  5
71
330
1
100
AcDbSymbolTableRecord
100
AcDbBlockTableRecord
  2
DC_GROUP_14
  0
BLOCK_RECORD
  5
74
330
1
100
AcDbSymbolTableRecord
100
AcDbBlockTableRecord
  2
DC_GROUP_15
  0
BLOCK_RECORD
  5
77
330
1
100
AcDbSymbolTableRecord
100
AcDbBlockTableRecord
  2
DC_GROUP_16
  0
BLOCK_RECORD
  5
7A
330
1
100
AcDbSymbolTableRecord
100
AcDbBlockTableRecord
  2
DC_GROUP_17
  0
BLOCK_RECORD
  5
7D
330
1
100
AcDbSymbolTableRecord
100
AcDbBlockTableRecord
  2
DC_GROUP_18
  0
BLOCK_RECORD
  5
80
330
1
100
AcDbSymbolTableRecord
100
AcDbBlockTableRecord
  2
DC_GROUP_19
  0
BLOCK_RECORD
  5
83
330
1
100
AcDbSymbolTableRecord
100
AcDbBlockTableRecord
  2
DA_IMAGEDIMGROUP_1
  0
BLOCK_RECORD
  5
86
330
1
100
AcDbSymbolTableRecord
100
AcDbBlockTableRecord
  2
DA_IMAGEDIMGROUP_2
  0
BLOCK_RECORD
  5
89
330
1
100
AcDbSymbolTableRecord
100
AcDbBlockTableRecord
  2
DC_GROUP_20
  0
BLOCK_RECORD
  5
8C
330
1
100
AcDbSymbolTableRecord
100
AcDbBlockTableRecord
  2
DC_GROUP_21
  0
BLOCK_RECORD
  5
8F
330
1
100
AcDbSymbolTableRecord
100
AcDbBlockTableRecord
  2
DC_GROUP_22
  0
BLOCK_RECORD
  5
92
330
1
100
AcDbSymbolTableRecord
100
AcDbBlockTableRecord
  2
DC_GROUP_23
  0
BLOCK_RECORD
  5
95
330
1
100
AcDbSymbolTableRecord
100
AcDbBlockTableRecord
  2
DC_GROUP_24
  0
BLOCK_RECORD
  5
98
330
1
100
AcDbSymbolTableRecord
100
AcDbBlockTableRecord
  2
DC_GROUP_25
  0
BLOCK_RECORD
  5
9B
330
1
100
AcDbSymbolTableRecord
100
AcDbBlockTableRecord
  2
DC_GROUP_26
  0
BLOCK_RECORD
  5
9E
330
1
100
AcDbSymbolTableRecord
100
AcDbBlockTableRecord
  2
DC_GROUP_27
  0
BLOCK_RECORD
  5
A1
330
1
100
AcDbSymbolTableRecord
100
AcDbBlockTableRecord
  2
DC_GROUP_28
  0
BLOCK_RECORD
  5
A4
330
1
100
AcDbSymbolTableRecord
100
AcDbBlockTableRecord
  2
DC_GROUP_29
  0
BLOCK_RECORD
  5
A7
330
1
100
AcDbSymbolTableRecord
100
AcDbBlockTableRecord
  2
DC_GROUP_30
  0
BLOCK_RECORD
  5
AA
330
1
100
AcDbSymbolTableRecord
100
AcDbBlockTableRecord
  2
DC_GROUP_31
  0
BLOCK_RECORD
  5
AD
330
1
100
AcDbSymbolTableRecord
100
AcDbBlockTableRecord
  2
DA_IMAGEDIMGROUP_3
  0
BLOCK_RECORD
  5
B0
330
1
100
AcDbSymbolTableRecord
100
AcDbBlockTableRecord
  2
DC_GROUP_32
  0
BLOCK_RECORD
  5
B3
330
1
100
AcDbSymbolTableRecord
100
AcDbBlockTableRecord
  2
DA_IMAGEDIMGROUP_4
  0
BLOCK_RECORD
  5
B6
330
1
100
AcDbSymbolTableRecord
100
AcDbBlockTableRecord
  2
DC_GROUP_33
  0
BLOCK_RECORD
  5
B9
330
1
100
AcDbSymbolTableRecord
100
AcDbBlockTableRecord
  2
DC_GROUP_34
  0
BLOCK_RECORD
  5
BC
330
1
100
AcDbSymbolTableRecord
100
AcDbBlockTableRecord
  2
DA_IMAGEDIMGROUP_5
  0
BLOCK_RECORD
  5
BF
330
1
100
AcDbSymbolTableRecord
100
AcDbBlockTableRecord
  2
DA_IMAGEDIMGROUP_6
  0
BLOCK_RECORD
  5
C2
330
1
100
AcDbSymbolTableRecord
100
AcDbBlockTableRecord
  2
DC_GROUP_35
  0
BLOCK_RECORD
  5
C5
330
1
100
AcDbSymbolTableRecord
100
AcDbBlockTableRecord
  2
DA_IMAGEDIMGROUP_7
  0
BLOCK_RECORD
  5
24B
330
1
100
AcDbSymbolTableRecord
100
AcDbBlockTableRecord
  2
_OPEN30
  0
ENDTAB
  0
ENDSEC
  0
SECTION
  2
BLOCKS
  0
BLOCK
  5
20
330
1F
100
AcDbEntity
  8
0
100
AcDbBlockBegin
  2
*MODEL_SPACE
 70
     0
 71
     0
 10
0.0
 20
0.0
 30
0.0
  3
*MODEL_SPACE
  1

  0
ENDBLK
  5
21
330
1F
100
AcDbEntity
  8
0
100
AcDbBlockEnd
  0
BLOCK
  5
1C
330
1B
100
AcDbEntity
 67
     1
  8
0
100
AcDbBlockBegin
  2
*PAPER_SPACE
 70
     0
 71
     0
 10
0.0
 20
0.0
 30
0.0
  3
*PAPER_SPACE
  1

  0
ENDBLK
  5
1D
330
1B
100
AcDbEntity
 67
     1
  8
0
100
AcDbBlockEnd
  0
BLOCK
  5
4B
330
4A
100
AcDbEntity
  8
0
100
AcDbBlockBegin
  2
DC_GROUP_1
 70
     0
 71
     0
 10
0.0
 20
0.0
 30
0.0
  3
DC_GROUP_1
  1

  0
INSERT
  5
C8
330
4A
100
AcDbEntity
  8
ZUWAKU
  6
CONTINUOUS
100
AcDbBlockReference
  2
DC_GROUP_2
 10
0.0
 20
0.0
 30
0.0
  0
INSERT
  5
C9
330
4A
100
AcDbEntity
  8
ZUWAKU
  6
CONTINUOUS
100
AcDbBlockReference
  2
DC_GROUP_3
 10
0.0
 20
0.0
 30
0.0
  0
INSERT
  5
CA
330
4A
100
AcDbEntity
  8
ZUWAKU
  6
CONTINUOUS
100
AcDbBlockReference
  2
DC_GROUP_4
 10
0.0
 20
0.0
 30
0.0
  0
INSERT
  5
CB
330
4A
100
AcDbEntity
  8
ZUWAKU
  6
CONTINUOUS
100
AcDbBlockReference
  2
DC_GROUP_5
 10
0.0
 20
0.0
 30
0.0
  0
INSERT
  5
CC
330
4A
100
AcDbEntity
  8
ZUWAKU
  6
CONTINUOUS
100
AcDbBlockReference
  2
DC_GROUP_6
 10
0.0
 20
0.0
 30
0.0
  0
INSERT
  5
CD
330
4A
100
AcDbEntity
  8
ZUWAKU
  6
CONTINUOUS
100
AcDbBlockReference
  2
DC_GROUP_7
 10
0.0
 20
0.0
 30
0.0
  0
INSERT
  5
CE
330
4A
100
AcDbEntity
  8
ZUWAKU
  6
CONTINUOUS
100
AcDbBlockReference
  2
DC_GROUP_8
 10
0.0
 20
0.0
 30
0.0
  0
INSERT
  5
CF
330
4A
100
AcDbEntity
  8
ZUWAKU
  6
CONTINUOUS
100
AcDbBlockReference
  2
DC_GROUP_9
 10
0.0
 20
0.0
 30
0.0
  0
INSERT
  5
D0
330
4A
100
AcDbEntity
  8
ZUWAKU
  6
CONTINUOUS
100
AcDbBlockReference
  2
DC_GROUP_10
 10
0.0
 20
0.0
 30
0.0
  0
INSERT
  5
D1
330
4A
100
AcDbEntity
  8
ZUWAKU
  6
CONTINUOUS
100
AcDbBlockReference
  2
DC_GROUP_11
 10
0.0
 20
0.0
 30
0.0
  0
INSERT
  5
D2
330
4A
100
AcDbEntity
  8
ZUWAKU
  6
CONTINUOUS
100
AcDbBlockReference
  2
DC_GROUP_12
 10
0.0
 20
0.0
 30
0.0
  0
LINE
  5
D3
330
4A
100
AcDbEntity
  8
ZUWAKU
  6
CONTINUOUS
 62
     7
100
AcDbLine
 10
228.1163728456568
 20
-193.5305456568976
 30
0.0
 11
236.7163728456568
 21
-193.5305456568976
 31
0.0
  0
ENDBLK
  5
4C
330
4A
100
AcDbEntity
  8
0
100
AcDbBlockEnd
  0
BLOCK
  5
4E
330
4D
100
AcDbEntity
  8
0
100
AcDbBlockBegin
  2
DC_GROUP_2
 70
     0
 71
     0
 10
0.0
 20
0.0
 30
0.0
  3
DC_GROUP_2
  1

  0
LINE
  5
D4
330
4D
100
AcDbEntity
  8
ZUWAKU
  6
CONTINUOUS
 62
     7
100
AcDbLine
 10
175.3592354484195
 20
-192.8811630926134
 30
0.0
 11
177.6044571676503
 21
-192.8811630926134
 31
0.0
  0
LINE
  5
D5
330
4D
100
AcDbEntity
  8
ZUWAKU
  6
CONTINUOUS
 62
     7
100
AcDbLine
 10
181.6463728456568
 20
-192.8811630926134
 30
0.0
 11
184.0463728456568
 21
-192.8811630926134
 31
0.0
  0
LINE
  5
D6
330
4D
100
AcDbEntity
  8
ZUWAKU
  6
CONTINUOUS
 62
     7
100
AcDbLine
 10
175.4748453043754
 20
-192.3811630926134
 30
0.0
 11
177.7710992879299
 21
-192.3811630926134
 31
0.0
  0
LINE
  5
D7
330
4D
100
AcDbEntity
  8
ZUWAKU
  6
CONTINUOUS
 62
     7
100
AcDbLine
 10
181.6463728456568
 20
-192.3811630926134
 30
0.0
 11
184.0463728456568
 21
-192.3811630926134
 31
0.0
  0
LINE
  5
D8
330
4D
100
AcDbEntity
  8
ZUWAKU
  6
CONTINUOUS
 62
     7
100
AcDbLine
 10
175.5379102201919
 20
-191.8811630926134
 30
0.0
 11
177.8994109398541
 21
-191.8811630926134
 31
0.0
  0
LINE
  5
D9
330
4D
100
AcDbEntity
  8
ZUWAKU
  6
CONTINUOUS
 62
     7
100
AcDbLine
 10
181.6463728456568
 20
-191.8811630926134
 30
0.0
 11
184.0463728456568
 21
-191.8811630926134
 31
0.0
  0
LINE
  5
DA
330
4D
100
AcDbEntity
  8
ZUWAKU
  6
CONTINUOUS
 62
     7
100
AcDbLine
 10
175.5504194596917
 20
-191.3811630926134
 30
0.0
 11
177.9914082030457
 21
-191.3811630926134
 31
0.0
  0
LINE
  5
DB
330
4D
100
AcDbEntity
  8
ZUWAKU
  6
CONTINUOUS
 62
     7
100
AcDbLine
 10
181.6463728456568
 20
-191.3811630926134
 30
0.0
 11
184.0463728456568
 21
-191.3811630926134
 31
0.0
  0
LINE
  5
DC
330
4D
100
AcDbEntity
  8
ZUWAKU
  6
CONTINUOUS
 62
     7
100
AcDbLine
 10
170.0836271543432
 20
-190.8811630926134
 30
0.0
 11
184.0463728456568
 21
-190.8811630926134
 31
0.0
  0
LINE
  5
DD
330
4D
100
AcDbEntity
  8
ZUWAKU
  6
CONTINUOUS
 62
     7
100
AcDbLine
 10
170.0836271543432
 20
-190.3811630926134
 30
0.0
 11
184.0463728456568
 21
-190.3811630926134
 31
0.0
  0
LINE
  5
DE
330
4D
100
AcDbEntity
  8
ZUWAKU
  6
CONTINUOUS
 62
     7
100
AcDbLine
 10
170.0836271543432
 20
-189.8811630926134
 30
0.0
 11
184.0463728456568
 21
-189.8811630926134
 31
0.0
  0
LINE
  5
DF
330
4D
100
AcDbEntity
  8
ZUWAKU
  6
CONTINUOUS
 62
     7
100
AcDbLine
 10
175.5463728456568
 20
-189.3811630926134
 30
0.0
 11
177.9463728456568
 21
-189.3811630926134
 31
0.0
  0
LINE
  5
E0
330
4D
100
AcDbEntity
  8
ZUWAKU
  6
CONTINUOUS
 62
     7
100
AcDbLine
 10
175.5463728456568
 20
-188.8811630926134
 30
0.0
 11
177.9463728456568
 21
-188.8811630926134
 31
0.0
  0
LINE
  5
E1
330
4D
100
AcDbEntity
  8
ZUWAKU
  6
CONTINUOUS
 62
     7
100
AcDbLine
 10
175.5463728456568
 20
-188.3811630926134
 30
0.0
 11
177.9463728456568
 21
-188.3811630926134
 31
0.0
  0
LINE
  5
E2
330
4D
100
AcDbEntity
  8
ZUWAKU
  6
CONTINUOUS
 62
     7
100
AcDbLine
 10
171.9463728456568
 20
-193.3811630926134
 30
0.0
 11
179.9463728456568
 21
-193.3811630926134
 31
0.0
  0
LINE
  5
E3
330
4D
100
AcDbEntity
  8
ZUWAKU
  6
CONTINUOUS
 62
     7
100
AcDbLine
 10
181.6463728456568
 20
-193.3811630926134
 30
0.0
 11
184.0463728456568
 21
-193.3811630926134
 31
0.0
  0
LINE
  5
E4
330
4D
100
AcDbEntity
  8
ZUWAKU
  6
CONTINUOUS
 62
     7
100
AcDbLine
 10
171.9463728456568
 20
-193.8811630926134
 30
0.0
 11
179.9463728456568
 21
-193.8811630926134
 31
0.0
  0
LINE
  5
E5
330
4D
100
AcDbEntity
  8
ZUWAKU
  6
CONTINUOUS
 62
     7
100
AcDbLine
 10
181.6463728456568
 20
-193.8811630926134
 30
0.0
 11
184.0463728456568
 21
-193.8811630926134
 31
0.0
  0
LINE
  5
E6
330
4D
100
AcDbEntity
  8
ZUWAKU
  6
CONTINUOUS
 62
     7
100
AcDbLine
 10
171.9463728456568
 20
-194.3811630926134
 30
0.0
 11
179.9463728456568
 21
-194.3811630926134
 31
0.0
  0
LINE
  5
E7
330
4D
100
AcDbEntity
  8
ZUWAKU
  6
CONTINUOUS
 62
     7
100
AcDbLine
 10
181.6463728456568
 20
-194.3811630926134
 30
0.0
 11
184.0463728456568
 21
-194.3811630926134
 31
0.0
  0
LINE
  5
E8
330
4D
100
AcDbEntity
  8
ZUWAKU
  6
CONTINUOUS
 62
     7
100
AcDbLine
 10
190.104536355518
 20
-194.3811630926134
 30
0.0
 11
193.3417405120595
 21
-194.3811630926134
 31
0.0
  0
LINE
  5
E9
330
4D
100
AcDbEntity
  8
ZUWAKU
  6
CONTINUOUS
 62
     7
100
AcDbLine
 10
174.2411678828188
 20
-194.8811630926134
 30
0.0
 11
176.4776944172558
 21
-194.8811630926134
 31
0.0
  0
LINE
  5
EA
330
4D
100
AcDbEntity
  8
ZUWAKU
  6
CONTINUOUS
 62
     7
100
AcDbLine
 10
181.6463728456568
 20
-194.8811630926134
 30
0.0
 11
184.0463728456568
 21
-194.8811630926134
 31
0.0
  0
LINE
  5
EB
330
4D
100
AcDbEntity
  8
ZUWAKU
  6
CONTINUOUS
 62
     7
100
AcDbLine
 10
189.3963228939548
 20
-194.8811630926134
 30
0.0
 11
192.8333876979017
 21
-194.8811630926134
 31
0.0
  0
LINE
  5
EC
330
4D
100
AcDbEntity
  8
ZUWAKU
  6
CONTINUOUS
 62
     7
100
AcDbLine
 10
173.7119175651887
 20
-195.3811630926134
 30
0.0
 11
176.0448863676931
 21
-195.3811630926134
 31
0.0
  0
LINE
  5
ED
330
4D
100
AcDbEntity
  8
ZUWAKU
  6
CONTINUOUS
 62
     7
100
AcDbLine
 10
181.6463728456568
 20
-195.3811630926134
 30
0.0
 11
184.0463728456568
 21
-195.3811630926134
 31
0.0
  0
LINE
  5
EE
330
4D
100
AcDbEntity
  8
ZUWAKU
  6
CONTINUOUS
 62
     7
100
AcDbLine
 10
188.525375517766
 20
-195.3811630926134
 30
0.0
 11
192.2480747417856
 21
-195.3811630926134
 31
0.0
  0
LINE
  5
EF
330
4D
100
AcDbEntity
  8
ZUWAKU
  6
CONTINUOUS
 62
     7
100
AcDbLine
 10
172.9727859789347
 20
-195.8811630926134
 30
0.0
 11
175.5227474875504
 21
-195.8811630926134
 31
0.0
  0
LINE
  5
F0
330
4D
100
AcDbEntity
  8
ZUWAKU
  6
CONTINUOUS
 62
     7
100
AcDbLine
 10
181.6463728456568
 20
-195.8811630926134
 30
0.0
 11
184.0463728456568
 21
-195.8811630926134
 31
0.0
  0
LINE
  5
F1
330
4D
100
AcDbEntity
  8
ZUWAKU
  6
CONTINUOUS
 62
     7
100
AcDbLine
 10
187.3681459252262
 20
-195.8811630926134
 30
0.0
 11
191.5628740626163
 21
-195.8811630926134
 31
0.0
  0
LINE
  5
F2
330
4D
100
AcDbEntity
  8
ZUWAKU
  6
CONTINUOUS
 62
     7
100
AcDbLine
 10
171.6634620288218
 20
-196.3811630926134
 30
0.0
 11
174.8781414630214
 21
-196.3811630926134
 31
0.0
  0
LINE
  5
F3
330
4D
100
AcDbEntity
  8
ZUWAKU
  6
CONTINUOUS
 62
     7
100
AcDbLine
 10
181.6463728456568
 20
-196.3811630926134
 30
0.0
 11
184.0463728456568
 21
-196.3811630926134
 31
0.0
  0
LINE
  5
F4
330
4D
100
AcDbEntity
  8
ZUWAKU
  6
CONTINUOUS
 62
     7
100
AcDbLine
 10
185.3155311692083
 20
-196.3811630926134
 30
0.0
 11
190.7373451587009
 21
-196.3811630926134
 31
0.0
  0
LINE
  5
F5
330
4D
100
AcDbEntity
  8
ZUWAKU
  6
CONTINUOUS
 62
     7
100
AcDbLine
 10
170.0836271543432
 20
-196.8811630926134
 30
0.0
 11
174.0415029750878
 21
-196.8811630926134
 31
0.0
  0
LINE
  5
F6
330
4D
100
AcDbEntity
  8
ZUWAKU
  6
CONTINUOUS
 62
     7
100
AcDbLine
 10
181.6748475825431
 20
-196.8811630926134
 30
0.0
 11
189.6856413090584
 21
-196.8811630926134
 31
0.0
  0
LINE
  5
F7
330
4D
100
AcDbEntity
  8
ZUWAKU
  6
CONTINUOUS
 62
     7
100
AcDbLine
 10
170.0836271543432
 20
-197.3811630926134
 30
0.0
 11
172.7969893345456
 21
-197.3811630926134
 31
0.0
  0
LINE
  5
F8
330
4D
100
AcDbEntity
  8
ZUWAKU
  6
CONTINUOUS
 62
     7
100
AcDbLine
 10
183.2282777975827
 20
-197.3811630926134
 30
0.0
 11
188.1322110940188
 21
-197.3811630926134
 31
0.0
  0
ENDBLK
  5
4F
330
4D
100
AcDbEntity
  8
0
100
AcDbBlockEnd
  0
BLOCK
  5
51
330
50
100
AcDbEntity
  8
0
100
AcDbBlockBegin
  2
DC_GROUP_3
 70
     0
 71
     0
 10
0.0
 20
0.0
 30
0.0
  3
DC_GROUP_3
  1

  0
LINE
  5
F9
330
50
100
AcDbEntity
  8
ZUWAKU
  6
CONTINUOUS
 62
     7
100
AcDbLine
 10
186.0463728456568
 20
-192.6694543431024
 30
0.0
 11
197.4463728456568
 21
-192.6694543431024
 31
0.0
  0
LINE
  5
FA
330
50
100
AcDbEntity
  8
ZUWAKU
  6
CONTINUOUS
 62
     7
100
AcDbLine
 10
186.0463728456568
 20
-192.1694543431024
 30
0.0
 11
197.4463728456568
 21
-192.1694543431024
 31
0.0
  0
LINE
  5
FB
330
50
100
AcDbEntity
  8
ZUWAKU
  6
CONTINUOUS
 62
     7
100
AcDbLine
 10
186.0463728456568
 20
-193.1694543431024
 30
0.0
 11
197.4463728456568
 21
-193.1694543431024
 31
0.0
  0
ENDBLK
  5
52
330
50
100
AcDbEntity
  8
0
100
AcDbBlockEnd
  0
BLOCK
  5
54
330
53
100
AcDbEntity
  8
0
100
AcDbBlockBegin
  2
DC_GROUP_4
 70
     0
 71
     0
 10
0.0
 20
0.0
 30
0.0
  3
DC_GROUP_4
  1

  0
LINE
  5
FC
330
53
100
AcDbEntity
  8
ZUWAKU
  6
CONTINUOUS
 62
     7
100
AcDbLine
 10
199.8762688606991
 20
-193.55
 30
0.0
 11
202.4463728456568
 21
-193.55
 31
0.0
  0
LINE
  5
FD
330
53
100
AcDbEntity
  8
ZUWAKU
  6
CONTINUOUS
 62
     7
100
AcDbLine
 10
202.9880098163495
 20
-193.55
 30
0.0
 11
203.6463728456568
 21
-193.55
 31
0.0
  0
LINE
  5
FE
330
53
100
AcDbEntity
  8
ZUWAKU
  6
CONTINUOUS
 62
     7
100
AcDbLine
 10
200.0401914483943
 20
-193.05
 30
0.0
 11
203.6463728456568
 21
-193.05
 31
0.0
  0
LINE
  5
FF
330
53
100
AcDbEntity
  8
ZUWAKU
  6
CONTINUOUS
 62
     7
100
AcDbLine
 10
200.1573329194075
 20
-192.55
 30
0.0
 11
203.4671913310034
 21
-192.55
 31
0.0
  0
LINE
  5
100
330
53
100
AcDbEntity
  8
ZUWAKU
  6
CONTINUOUS
 62
     7
100
AcDbLine
 10
200.2304485357685
 20
-192.05
 30
0.0
 11
202.7171913310033
 21
-192.05
 31
0.0
  0
LINE
  5
101
330
53
100
AcDbEntity
  8
ZUWAKU
  6
CONTINUOUS
 62
     7
100
AcDbLine
 10
198.9463728456568
 20
-191.55
 30
0.0
 11
203.6463728456568
 21
-191.55
 31
0.0
  0
LINE
  5
102
330
53
100
AcDbEntity
  8
ZUWAKU
  6
CONTINUOUS
 62
     7
100
AcDbLine
 10
198.9463728456568
 20
-191.05
 30
0.0
 11
203.6463728456568
 21
-191.05
 31
0.0
  0
LINE
  5
103
330
53
100
AcDbEntity
  8
ZUWAKU
  6
CONTINUOUS
 62
     7
100
AcDbLine
 10
201.0463728456568
 20
-190.55
 30
0.0
 11
202.4463728456568
 21
-190.55
 31
0.0
  0
LINE
  5
104
330
53
100
AcDbEntity
  8
ZUWAKU
  6
CONTINUOUS
 62
     7
100
AcDbLine
 10
201.0463728456568
 20
-190.05
 30
0.0
 11
202.4463728456568
 21
-190.05
 31
0.0
  0
LINE
  5
105
330
53
100
AcDbEntity
  8
ZUWAKU
  6
CONTINUOUS
 62
     7
100
AcDbLine
 10
199.6613057869596
 20
-194.05
 30
0.0
 11
202.4463728456568
 21
-194.05
 31
0.0
  0
LINE
  5
106
330
53
100
AcDbEntity
  8
ZUWAKU
  6
CONTINUOUS
 62
     7
100
AcDbLine
 10
199.3888857047598
 20
-194.55
 30
0.0
 11
202.4463728456568
 21
-194.55
 31
0.0
  0
LINE
  5
107
330
53
100
AcDbEntity
  8
ZUWAKU
  6
CONTINUOUS
 62
     7
100
AcDbLine
 10
199.0492091213338
 20
-195.05
 30
0.0
 11
202.4463728456568
 21
-195.05
 31
0.0
  0
LINE
  5
108
330
53
100
AcDbEntity
  8
ZUWAKU
  6
CONTINUOUS
 62
     7
100
AcDbLine
 10
198.8463728456568
 20
-195.55
 30
0.0
 11
200.0627654424019
 21
-195.55
 31
0.0
  0
LINE
  5
109
330
53
100
AcDbEntity
  8
ZUWAKU
  6
CONTINUOUS
 62
     7
100
AcDbLine
 10
200.8463728456568
 20
-195.55
 30
0.0
 11
202.4463728456568
 21
-195.55
 31
0.0
  0
LINE
  5
10A
330
53
100
AcDbEntity
  8
ZUWAKU
  6
CONTINUOUS
 62
     7
100
AcDbLine
 10
198.8463728456568
 20
-196.05
 30
0.0
 11
199.5135150512066
 21
-196.05
 31
0.0
  0
LINE
  5
10B
330
53
100
AcDbEntity
  8
ZUWAKU
  6
CONTINUOUS
 62
     7
100
AcDbLine
 10
200.8463728456568
 20
-196.05
 30
0.0
 11
202.4463728456568
 21
-196.05
 31
0.0
  0
LINE
  5
10C
330
53
100
AcDbEntity
  8
ZUWAKU
  6
CONTINUOUS
 62
     7
100
AcDbLine
 10
200.8463728456568
 20
-196.55
 30
0.0
 11
202.4463728456568
 21
-196.55
 31
0.0
  0
LINE
  5
10D
330
53
100
AcDbEntity
  8
ZUWAKU
  6
CONTINUOUS
 62
     7
100
AcDbLine
 10
200.8463728456568
 20
-197.05
 30
0.0
 11
202.4463728456568
 21
-197.05
 31
0.0
  0
ENDBLK
  5
55
330
53
100
AcDbEntity
  8
0
100
AcDbBlockEnd
  0
BLOCK
  5
57
330
56
100
AcDbEntity
  8
0
100
AcDbBlockBegin
  2
DC_GROUP_5
 70
     0
 71
     0
 10
0.0
 20
0.0
 30
0.0
  3
DC_GROUP_5
  1

  0
LINE
  5
10E
330
56
100
AcDbEntity
  8
ZUWAKU
  6
CONTINUOUS
 62
     7
100
AcDbLine
 10
204.1463728456568
 20
-193.55
 30
0.0
 11
211.2463728456568
 21
-193.55
 31
0.0
  0
LINE
  5
10F
330
56
100
AcDbEntity
  8
ZUWAKU
  6
CONTINUOUS
 62
     7
100
AcDbLine
 10
204.1463728456568
 20
-193.05
 30
0.0
 11
211.2463728456568
 21
-193.05
 31
0.0
  0
LINE
  5
110
330
56
100
AcDbEntity
  8
ZUWAKU
  6
CONTINUOUS
 62
     7
100
AcDbLine
 10
206.6463728456568
 20
-192.55
 30
0.0
 11
208.4463728456568
 21
-192.55
 31
0.0
  0
LINE
  5
111
330
56
100
AcDbEntity
  8
ZUWAKU
  6
CONTINUOUS
 62
     7
100
AcDbLine
 10
206.6463728456568
 20
-192.05
 30
0.0
 11
208.4463728456568
 21
-192.05
 31
0.0
  0
LINE
  5
112
330
56
100
AcDbEntity
  8
ZUWAKU
  6
CONTINUOUS
 62
     7
100
AcDbLine
 10
204.1463728456568
 20
-191.55
 30
0.0
 11
211.0463728456568
 21
-191.55
 31
0.0
  0
LINE
  5
113
330
56
100
AcDbEntity
  8
ZUWAKU
  6
CONTINUOUS
 62
     7
100
AcDbLine
 10
204.1463728456568
 20
-191.05
 30
0.0
 11
211.0463728456568
 21
-191.05
 31
0.0
  0
LINE
  5
114
330
56
100
AcDbEntity
  8
ZUWAKU
  6
CONTINUOUS
 62
     7
100
AcDbLine
 10
204.1463728456568
 20
-190.55
 30
0.0
 11
205.7063728456568
 21
-190.55
 31
0.0
  0
LINE
  5
115
330
56
100
AcDbEntity
  8
ZUWAKU
  6
CONTINUOUS
 62
     7
100
AcDbLine
 10
206.6463728456568
 20
-190.55
 30
0.0
 11
208.4463728456568
 21
-190.55
 31
0.0
  0
LINE
  5
116
330
56
100
AcDbEntity
  8
ZUWAKU
  6
CONTINUOUS
 62
     7
100
AcDbLine
 10
204.1463728456568
 20
-190.05
 30
0.0
 11
205.7063728456568
 21
-190.05
 31
0.0
  0
LINE
  5
117
330
56
100
AcDbEntity
  8
ZUWAKU
  6
CONTINUOUS
 62
     7
100
AcDbLine
 10
206.6463728456568
 20
-190.05
 30
0.0
 11
208.4463728456568
 21
-190.05
 31
0.0
  0
LINE
  5
118
330
56
100
AcDbEntity
  8
ZUWAKU
  6
CONTINUOUS
 62
     7
100
AcDbLine
 10
205.3786611924532
 20
-194.05
 30
0.0
 11
209.9774938194927
 21
-194.05
 31
0.0
  0
LINE
  5
119
330
56
100
AcDbEntity
  8
ZUWAKU
  6
CONTINUOUS
 62
     7
100
AcDbLine
 10
205.2022203023616
 20
-194.55
 30
0.0
 11
210.0839164239199
 21
-194.55
 31
0.0
  0
LINE
  5
11A
330
56
100
AcDbEntity
  8
ZUWAKU
  6
CONTINUOUS
 62
     7
100
AcDbLine
 10
204.9444907322737
 20
-195.05
 30
0.0
 11
210.2607865985839
 21
-195.05
 31
0.0
  0
LINE
  5
11B
330
56
100
AcDbEntity
  8
ZUWAKU
  6
CONTINUOUS
 62
     7
100
AcDbLine
 10
204.5849898652322
 20
-195.55
 30
0.0
 11
206.5512574302935
 21
-195.55
 31
0.0
  0
LINE
  5
11C
330
56
100
AcDbEntity
  8
ZUWAKU
  6
CONTINUOUS
 62
     7
100
AcDbLine
 10
206.6463728456568
 20
-195.55
 30
0.0
 11
210.519029431235
 21
-195.55
 31
0.0
  0
LINE
  5
11D
330
56
100
AcDbEntity
  8
ZUWAKU
  6
CONTINUOUS
 62
     7
100
AcDbLine
 10
204.0811039379163
 20
-196.05
 30
0.0
 11
206.0931405813734
 21
-196.05
 31
0.0
  0
LINE
  5
11E
330
56
100
AcDbEntity
  8
ZUWAKU
  6
CONTINUOUS
 62
     7
100
AcDbLine
 10
206.6463728456568
 20
-196.05
 30
0.0
 11
208.4463728456568
 21
-196.05
 31
0.0
  0
LINE
  5
11F
330
56
100
AcDbEntity
  8
ZUWAKU
  6
CONTINUOUS
 62
     7
100
AcDbLine
 10
208.7557665128225
 20
-196.05
 30
0.0
 11
210.8792055022369
 21
-196.05
 31
0.0
  0
LINE
  5
120
330
56
100
AcDbEntity
  8
ZUWAKU
  6
CONTINUOUS
 62
     7
100
AcDbLine
 10
203.8463728456568
 20
-196.55
 30
0.0
 11
205.5096133195874
 21
-196.55
 31
0.0
  0
LINE
  5
121
330
56
100
AcDbEntity
  8
ZUWAKU
  6
CONTINUOUS
 62
     7
100
AcDbLine
 10
206.6463728456568
 20
-196.55
 30
0.0
 11
208.4463728456568
 21
-196.55
 31
0.0
  0
LINE
  5
122
330
56
100
AcDbEntity
  8
ZUWAKU
  6
CONTINUOUS
 62
     7
100
AcDbLine
 10
209.2599871032927
 20
-196.55
 30
0.0
 11
211.2463728456568
 21
-196.55
 31
0.0
  0
LINE
  5
123
330
56
100
AcDbEntity
  8
ZUWAKU
  6
CONTINUOUS
 62
     7
100
AcDbLine
 10
203.8463728456568
 20
-197.05
 30
0.0
 11
204.7238286865397
 21
-197.05
 31
0.0
  0
LINE
  5
124
330
56
100
AcDbEntity
  8
ZUWAKU
  6
CONTINUOUS
 62
     7
100
AcDbLine
 10
206.6463728456568
 20
-197.05
 30
0.0
 11
208.4463728456568
 21
-197.05
 31
0.0
  0
LINE
  5
125
330
56
100
AcDbEntity
  8
ZUWAKU
  6
CONTINUOUS
 62
     7
100
AcDbLine
 10
210.0271619874551
 20
-197.05
 30
0.0
 11
211.2463728456568
 21
-197.05
 31
0.0
  0
ENDBLK
  5
58
330
56
100
AcDbEntity
  8
0
100
AcDbBlockEnd
  0
BLOCK
  5
5A
330
59
100
AcDbEntity
  8
0
100
AcDbBlockBegin
  2
DC_GROUP_6
 70
     0
 71
     0
 10
0.0
 20
0.0
 30
0.0
  3
DC_GROUP_6
  1

  0
LINE
  5
126
330
59
100
AcDbEntity
  8
ZUWAKU
  6
CONTINUOUS
 62
     7
100
AcDbLine
 10
220.1463728456568
 20
-193.55
 30
0.0
 11
222.2963728456568
 21
-193.55
 31
0.0
  0
LINE
  5
127
330
59
100
AcDbEntity
  8
ZUWAKU
  6
CONTINUOUS
 62
     7
100
AcDbLine
 10
220.1463728456568
 20
-193.05
 30
0.0
 11
222.2963728456568
 21
-193.05
 31
0.0
  0
LINE
  5
128
330
59
100
AcDbEntity
  8
ZUWAKU
  6
CONTINUOUS
 62
     7
100
AcDbLine
 10
220.1463728456568
 20
-192.55
 30
0.0
 11
222.2963728456568
 21
-192.55
 31
0.0
  0
LINE
  5
129
330
59
100
AcDbEntity
  8
ZUWAKU
  6
CONTINUOUS
 62
     7
100
AcDbLine
 10
220.1463728456568
 20
-192.05
 30
0.0
 11
222.2963728456568
 21
-192.05
 31
0.0
  0
LINE
  5
12A
330
59
100
AcDbEntity
  8
ZUWAKU
  6
CONTINUOUS
 62
     7
100
AcDbLine
 10
212.6463728456568
 20
-191.55
 30
0.0
 11
225.2163728456568
 21
-191.55
 31
0.0
  0
LINE
  5
12B
330
59
100
AcDbEntity
  8
ZUWAKU
  6
CONTINUOUS
 62
     7
100
AcDbLine
 10
212.6463728456568
 20
-191.05
 30
0.0
 11
225.2163728456568
 21
-191.05
 31
0.0
  0
LINE
  5
12C
330
59
100
AcDbEntity
  8
ZUWAKU
  6
CONTINUOUS
 62
     7
100
AcDbLine
 10
220.1463728456568
 20
-190.55
 30
0.0
 11
222.2963728456568
 21
-190.55
 31
0.0
  0
LINE
  5
12D
330
59
100
AcDbEntity
  8
ZUWAKU
  6
CONTINUOUS
 62
     7
100
AcDbLine
 10
223.6963728456568
 20
-190.55
 30
0.0
 11
225.2163728456568
 21
-190.55
 31
0.0
  0
LINE
  5
12E
330
59
100
AcDbEntity
  8
ZUWAKU
  6
CONTINUOUS
 62
     7
100
AcDbLine
 10
220.1463728456568
 20
-190.05
 30
0.0
 11
222.2963728456568
 21
-190.05
 31
0.0
  0
LINE
  5
12F
330
59
100
AcDbEntity
  8
ZUWAKU
  6
CONTINUOUS
 62
     7
100
AcDbLine
 10
223.6963728456568
 20
-190.05
 30
0.0
 11
225.2163728456568
 21
-190.05
 31
0.0
  0
LINE
  5
130
330
59
100
AcDbEntity
  8
ZUWAKU
  6
CONTINUOUS
 62
     7
100
AcDbLine
 10
220.1463728456568
 20
-194.05
 30
0.0
 11
222.2963728456568
 21
-194.05
 31
0.0
  0
LINE
  5
131
330
59
100
AcDbEntity
  8
ZUWAKU
  6
CONTINUOUS
 62
     7
100
AcDbLine
 10
220.1463728456568
 20
-194.55
 30
0.0
 11
222.2963728456568
 21
-194.55
 31
0.0
  0
LINE
  5
132
330
59
100
AcDbEntity
  8
ZUWAKU
  6
CONTINUOUS
 62
     7
100
AcDbLine
 10
220.1463728456568
 20
-195.05
 30
0.0
 11
222.2963728456568
 21
-195.05
 31
0.0
  0
LINE
  5
133
330
59
100
AcDbEntity
  8
ZUWAKU
  6
CONTINUOUS
 62
     7
100
AcDbLine
 10
223.6358445034737
 20
-195.05
 30
0.0
 11
225.0814320923754
 21
-195.05
 31
0.0
  0
LINE
  5
134
330
59
100
AcDbEntity
  8
ZUWAKU
  6
CONTINUOUS
 62
     7
100
AcDbLine
 10
220.1463728456568
 20
-195.55
 30
0.0
 11
222.2963728456568
 21
-195.55
 31
0.0
  0
LINE
  5
135
330
59
100
AcDbEntity
  8
ZUWAKU
  6
CONTINUOUS
 62
     7
100
AcDbLine
 10
223.4214609952618
 20
-195.55
 30
0.0
 11
224.8352302649021
 21
-195.55
 31
0.0
  0
LINE
  5
136
330
59
100
AcDbEntity
  8
ZUWAKU
  6
CONTINUOUS
 62
     7
100
AcDbLine
 10
220.1463728456568
 20
-196.05
 30
0.0
 11
222.2963728456568
 21
-196.05
 31
0.0
  0
LINE
  5
137
330
59
100
AcDbEntity
  8
ZUWAKU
  6
CONTINUOUS
 62
     7
100
AcDbLine
 10
222.9946600818465
 20
-196.05
 30
0.0
 11
224.490775923055
 21
-196.05
 31
0.0
  0
LINE
  5
138
330
59
100
AcDbEntity
  8
ZUWAKU
  6
CONTINUOUS
 62
     7
100
AcDbLine
 10
220.1463728456568
 20
-196.55
 30
0.0
 11
224.0097616138391
 21
-196.55
 31
0.0
  0
LINE
  5
139
330
59
100
AcDbEntity
  8
ZUWAKU
  6
CONTINUOUS
 62
     7
100
AcDbLine
 10
220.1463728456568
 20
-197.05
 30
0.0
 11
223.2918248912179
 21
-197.05
 31
0.0
  0
ENDBLK
  5
5B
330
59
100
AcDbEntity
  8
0
100
AcDbBlockEnd
  0
BLOCK
  5
5D
330
5C
100
AcDbEntity
  8
0
100
AcDbBlockBegin
  2
DC_GROUP_7
 70
     0
 71
     0
 10
0.0
 20
0.0
 30
0.0
  3
DC_GROUP_7
  1

  0
LINE
  5
13A
330
5C
100
AcDbEntity
  8
ZUWAKU
  6
CONTINUOUS
 62
     7
100
AcDbLine
 10
215.3463728456568
 20
-195.25
 30
0.0
 11
217.4463728456568
 21
-195.25
 31
0.0
  0
LINE
  5
13B
330
5C
100
AcDbEntity
  8
ZUWAKU
  6
CONTINUOUS
 62
     7
100
AcDbLine
 10
215.3463728456568
 20
-194.75
 30
0.0
 11
217.4463728456568
 21
-194.75
 31
0.0
  0
LINE
  5
13C
330
5C
100
AcDbEntity
  8
ZUWAKU
  6
CONTINUOUS
 62
     7
100
AcDbLine
 10
215.3463728456568
 20
-194.25
 30
0.0
 11
217.4463728456568
 21
-194.25
 31
0.0
  0
LINE
  5
13D
330
5C
100
AcDbEntity
  8
ZUWAKU
  6
CONTINUOUS
 62
     7
100
AcDbLine
 10
212.6463728456568
 20
-193.75
 30
0.0
 11
219.2463728456568
 21
-193.75
 31
0.0
  0
LINE
  5
13E
330
5C
100
AcDbEntity
  8
ZUWAKU
  6
CONTINUOUS
 62
     7
100
AcDbLine
 10
212.6463728456568
 20
-193.25
 30
0.0
 11
219.2463728456568
 21
-193.25
 31
0.0
  0
LINE
  5
13F
330
5C
100
AcDbEntity
  8
ZUWAKU
  6
CONTINUOUS
 62
     7
100
AcDbLine
 10
212.6463728456568
 20
-195.75
 30
0.0
 11
219.2463728456568
 21
-195.75
 31
0.0
  0
LINE
  5
140
330
5C
100
AcDbEntity
  8
ZUWAKU
  6
CONTINUOUS
 62
     7
100
AcDbLine
 10
212.6463728456568
 20
-196.25
 30
0.0
 11
219.2463728456568
 21
-196.25
 31
0.0
  0
LINE
  5
141
330
5C
100
AcDbEntity
  8
ZUWAKU
  6
CONTINUOUS
 62
     7
100
AcDbLine
 10
212.6463728456568
 20
-196.75
 30
0.0
 11
218.8256932440106
 21
-196.75
 31
0.0
  0
LINE
  5
142
330
5C
100
AcDbEntity
  8
ZUWAKU
  6
CONTINUOUS
 62
     7
100
AcDbLine
 10
212.6463728456568
 20
-197.25
 30
0.0
 11
216.4087996408371
 21
-197.25
 31
0.0
  0
ENDBLK
  5
5E
330
5C
100
AcDbEntity
  8
0
100
AcDbBlockEnd
  0
BLOCK
  5
60
330
5F
100
AcDbEntity
  8
0
100
AcDbBlockBegin
  2
DC_GROUP_8
 70
     0
 71
     0
 10
0.0
 20
0.0
 30
0.0
  3
DC_GROUP_8
  1

  0
LINE
  5
143
330
5F
100
AcDbEntity
  8
ZUWAKU
  6
CONTINUOUS
 62
     7
100
AcDbLine
 10
247.9163728456568
 20
-193.55
 30
0.0
 11
249.8163728456568
 21
-193.55
 31
0.0
  0
LINE
  5
144
330
5F
100
AcDbEntity
  8
ZUWAKU
  6
CONTINUOUS
 62
     7
100
AcDbLine
 10
247.9163728456568
 20
-193.05
 30
0.0
 11
249.8163728456568
 21
-193.05
 31
0.0
  0
LINE
  5
145
330
5F
100
AcDbEntity
  8
ZUWAKU
  6
CONTINUOUS
 62
     7
100
AcDbLine
 10
247.9163728456568
 20
-192.55
 30
0.0
 11
249.8163728456568
 21
-192.55
 31
0.0
  0
LINE
  5
146
330
5F
100
AcDbEntity
  8
ZUWAKU
  6
CONTINUOUS
 62
     7
100
AcDbLine
 10
246.1163728456568
 20
-192.05
 30
0.0
 11
251.4163728456568
 21
-192.05
 31
0.0
  0
LINE
  5
147
330
5F
100
AcDbEntity
  8
ZUWAKU
  6
CONTINUOUS
 62
     7
100
AcDbLine
 10
246.1163728456568
 20
-191.55
 30
0.0
 11
251.4163728456568
 21
-191.55
 31
0.0
  0
LINE
  5
148
330
5F
100
AcDbEntity
  8
ZUWAKU
  6
CONTINUOUS
 62
     7
100
AcDbLine
 10
246.1163728456568
 20
-191.05
 30
0.0
 11
251.4163728456568
 21
-191.05
 31
0.0
  0
LINE
  5
149
330
5F
100
AcDbEntity
  8
ZUWAKU
  6
CONTINUOUS
 62
     7
100
AcDbLine
 10
247.9163728456568
 20
-190.55
 30
0.0
 11
249.8163728456568
 21
-190.55
 31
0.0
  0
LINE
  5
14A
330
5F
100
AcDbEntity
  8
ZUWAKU
  6
CONTINUOUS
 62
     7
100
AcDbLine
 10
247.9163728456568
 20
-190.05
 30
0.0
 11
249.8163728456568
 21
-190.05
 31
0.0
  0
LINE
  5
14B
330
5F
100
AcDbEntity
  8
ZUWAKU
  6
CONTINUOUS
 62
     7
100
AcDbLine
 10
247.9163728456568
 20
-194.05
 30
0.0
 11
249.8163728456568
 21
-194.05
 31
0.0
  0
LINE
  5
14C
330
5F
100
AcDbEntity
  8
ZUWAKU
  6
CONTINUOUS
 62
     7
100
AcDbLine
 10
247.9163728456568
 20
-194.55
 30
0.0
 11
249.8163728456568
 21
-194.55
 31
0.0
  0
LINE
  5
14D
330
5F
100
AcDbEntity
  8
ZUWAKU
  6
CONTINUOUS
 62
     7
100
AcDbLine
 10
247.9163728456568
 20
-195.05
 30
0.0
 11
249.8163728456568
 21
-195.05
 31
0.0
  0
LINE
  5
14E
330
5F
100
AcDbEntity
  8
ZUWAKU
  6
CONTINUOUS
 62
     7
100
AcDbLine
 10
245.9163728456568
 20
-195.55
 30
0.0
 11
251.9163728456568
 21
-195.55
 31
0.0
  0
LINE
  5
14F
330
5F
100
AcDbEntity
  8
ZUWAKU
  6
CONTINUOUS
 62
     7
100
AcDbLine
 10
245.9163728456568
 20
-196.05
 30
0.0
 11
251.9163728456568
 21
-196.05
 31
0.0
  0
LINE
  5
150
330
5F
100
AcDbEntity
  8
ZUWAKU
  6
CONTINUOUS
 62
     7
100
AcDbLine
 10
245.9163728456568
 20
-196.55
 30
0.0
 11
251.9163728456568
 21
-196.55
 31
0.0
  0
LINE
  5
151
330
5F
100
AcDbEntity
  8
ZUWAKU
  6
CONTINUOUS
 62
     7
100
AcDbLine
 10
245.9163728456568
 20
-197.05
 30
0.0
 11
251.9163728456568
 21
-197.05
 31
0.0
  0
ENDBLK
  5
61
330
5F
100
AcDbEntity
  8
0
100
AcDbBlockEnd
  0
BLOCK
  5
63
330
62
100
AcDbEntity
  8
0
100
AcDbBlockBegin
  2
DC_GROUP_9
 70
     0
 71
     0
 10
0.0
 20
0.0
 30
0.0
  3
DC_GROUP_9
  1

  0
LINE
  5
152
330
62
100
AcDbEntity
  8
ZUWAKU
  6
CONTINUOUS
 62
     7
100
AcDbLine
 10
228.03659593608
 20
-191.1512995588781
 30
0.0
 11
232.1827745314139
 21
-191.1512995588781
 31
0.0
  0
LINE
  5
153
330
62
100
AcDbEntity
  8
ZUWAKU
  6
CONTINUOUS
 62
     7
100
AcDbLine
 10
232.2537677038454
 20
-191.1512995588781
 30
0.0
 11
236.419704031706
 21
-191.1512995588781
 31
0.0
  0
LINE
  5
154
330
62
100
AcDbEntity
  8
ZUWAKU
  6
CONTINUOUS
 62
     7
100
AcDbLine
 10
229.147730764762
 20
-190.6512995588781
 30
0.0
 11
235.2936103080192
 21
-190.6512995588781
 31
0.0
  0
LINE
  5
155
330
62
100
AcDbEntity
  8
ZUWAKU
  6
CONTINUOUS
 62
     7
100
AcDbLine
 10
229.8808204717105
 20
-190.1512995588781
 30
0.0
 11
234.5550444732114
 21
-190.1512995588781
 31
0.0
  0
LINE
  5
156
330
62
100
AcDbEntity
  8
ZUWAKU
  6
CONTINUOUS
 62
     7
100
AcDbLine
 10
226.7163728456568
 20
-191.6512995588781
 30
0.0
 11
231.2655682998408
 21
-191.6512995588781
 31
0.0
  0
LINE
  5
157
330
62
100
AcDbEntity
  8
ZUWAKU
  6
CONTINUOUS
 62
     7
100
AcDbLine
 10
233.2687259431705
 20
-191.6512995588781
 30
0.0
 11
238.7163728456568
 21
-191.6512995588781
 31
0.0
  0
LINE
  5
158
330
62
100
AcDbEntity
  8
ZUWAKU
  6
CONTINUOUS
 62
     7
100
AcDbLine
 10
226.7163728456568
 20
-192.1512995588781
 30
0.0
 11
230.0110681543286
 21
-192.1512995588781
 31
0.0
  0
LINE
  5
159
330
62
100
AcDbEntity
  8
ZUWAKU
  6
CONTINUOUS
 62
     7
100
AcDbLine
 10
234.6396032344489
 20
-192.1512995588781
 30
0.0
 11
238.7163728456568
 21
-192.1512995588781
 31
0.0
  0
ENDBLK
  5
64
330
62
100
AcDbEntity
  8
0
100
AcDbBlockEnd
  0
BLOCK
  5
66
330
65
100
AcDbEntity
  8
0
100
AcDbBlockBegin
  2
DC_GROUP_10
 70
     0
 71
     0
 10
0.0
 20
0.0
 30
0.0
  3
DC_GROUP_10
  1

  0
LINE
  5
15A
330
65
100
AcDbEntity
  8
ZUWAKU
  6
CONTINUOUS
 62
     7
100
AcDbLine
 10
241.9372031523923
 20
-193.55
 30
0.0
 11
244.5309087734352
 21
-193.55
 31
0.0
  0
LINE
  5
15B
330
65
100
AcDbEntity
  8
ZUWAKU
  6
CONTINUOUS
 62
     7
100
AcDbLine
 10
242.5235540538986
 20
-193.05
 30
0.0
 11
244.7616456754909
 21
-193.05
 31
0.0
  0
LINE
  5
15C
330
65
100
AcDbEntity
  8
ZUWAKU
  6
CONTINUOUS
 62
     7
100
AcDbLine
 10
242.8899766640403
 20
-192.55
 30
0.0
 11
245.0505367479891
 21
-192.55
 31
0.0
  0
LINE
  5
15D
330
65
100
AcDbEntity
  8
ZUWAKU
  6
CONTINUOUS
 62
     7
100
AcDbLine
 10
240.1163728456568
 20
-192.05
 30
0.0
 11
245.2631269437853
 21
-192.05
 31
0.0
  0
LINE
  5
15E
330
65
100
AcDbEntity
  8
ZUWAKU
  6
CONTINUOUS
 62
     7
100
AcDbLine
 10
240.1163728456568
 20
-191.55
 30
0.0
 11
245.4102932726119
 21
-191.55
 31
0.0
  0
LINE
  5
15F
330
65
100
AcDbEntity
  8
ZUWAKU
  6
CONTINUOUS
 62
     7
100
AcDbLine
 10
240.1163728456568
 20
-191.05
 30
0.0
 11
245.4983642039967
 21
-191.05
 31
0.0
  0
LINE
  5
160
330
65
100
AcDbEntity
  8
ZUWAKU
  6
CONTINUOUS
 62
     7
100
AcDbLine
 10
242.1163728456568
 20
-190.55
 30
0.0
 11
243.7163728456568
 21
-190.55
 31
0.0
  0
LINE
  5
161
330
65
100
AcDbEntity
  8
ZUWAKU
  6
CONTINUOUS
 62
     7
100
AcDbLine
 10
242.1163728456568
 20
-190.05
 30
0.0
 11
243.7163728456568
 21
-190.05
 31
0.0
  0
LINE
  5
162
330
65
100
AcDbEntity
  8
ZUWAKU
  6
CONTINUOUS
 62
     7
100
AcDbLine
 10
240.1163728456568
 20
-194.05
 30
0.0
 11
245.5163728456569
 21
-194.05
 31
0.0
  0
LINE
  5
163
330
65
100
AcDbEntity
  8
ZUWAKU
  6
CONTINUOUS
 62
     7
100
AcDbLine
 10
240.1163728456568
 20
-194.55
 30
0.0
 11
243.7163728456568
 21
-194.55
 31
0.0
  0
LINE
  5
164
330
65
100
AcDbEntity
  8
ZUWAKU
  6
CONTINUOUS
 62
     7
100
AcDbLine
 10
243.9937661375371
 20
-194.55
 30
0.0
 11
245.5163728456569
 21
-194.55
 31
0.0
  0
LINE
  5
165
330
65
100
AcDbEntity
  8
ZUWAKU
  6
CONTINUOUS
 62
     7
100
AcDbLine
 10
240.1163728456568
 20
-195.05
 30
0.0
 11
240.7391757382088
 21
-195.05
 31
0.0
  0
LINE
  5
166
330
65
100
AcDbEntity
  8
ZUWAKU
  6
CONTINUOUS
 62
     7
100
AcDbLine
 10
242.1163728456568
 20
-195.05
 30
0.0
 11
243.7163728456568
 21
-195.05
 31
0.0
  0
LINE
  5
167
330
65
100
AcDbEntity
  8
ZUWAKU
  6
CONTINUOUS
 62
     7
100
AcDbLine
 10
242.1163728456568
 20
-195.55
 30
0.0
 11
243.7163728456568
 21
-195.55
 31
0.0
  0
LINE
  5
168
330
65
100
AcDbEntity
  8
ZUWAKU
  6
CONTINUOUS
 62
     7
100
AcDbLine
 10
242.1163728456568
 20
-196.05
 30
0.0
 11
243.7163728456568
 21
-196.05
 31
0.0
  0
LINE
  5
169
330
65
100
AcDbEntity
  8
ZUWAKU
  6
CONTINUOUS
 62
     7
100
AcDbLine
 10
242.1163728456568
 20
-196.55
 30
0.0
 11
243.7163728456568
 21
-196.55
 31
0.0
  0
LINE
  5
16A
330
65
100
AcDbEntity
  8
ZUWAKU
  6
CONTINUOUS
 62
     7
100
AcDbLine
 10
242.1163728456568
 20
-197.05
 30
0.0
 11
243.7163728456568
 21
-197.05
 31
0.0
  0
ENDBLK
  5
67
330
65
100
AcDbEntity
  8
0
100
AcDbBlockEnd
  0
BLOCK
  5
69
330
68
100
AcDbEntity
  8
0
100
AcDbBlockBegin
  2
DC_GROUP_11
 70
     0
 71
     0
 10
0.0
 20
0.0
 30
0.0
  3
DC_GROUP_11
  1

  0
LINE
  5
16B
330
68
100
AcDbEntity
  8
ZUWAKU
  6
CONTINUOUS
 62
     7
100
AcDbLine
 10
240.1163728456568
 20
-194.0361668241051
 30
0.0
 11
240.2999359294301
 21
-194.0361668241051
 31
0.0
  0
LINE
  5
16C
330
68
100
AcDbEntity
  8
ZUWAKU
  6
CONTINUOUS
 62
     7
100
AcDbLine
 10
240.1163728456568
 20
-195.0524216486367
 30
0.0
 11
240.5835787514163
 21
-195.0524216486367
 31
0.0
  0
LINE
  5
16D
330
68
100
AcDbEntity
  8
ZUWAKU
  6
CONTINUOUS
 62
     7
100
AcDbLine
 10
240.1163728456568
 20
-190.8694543431024
 30
0.0
 11
240.1163728456568
 21
-192.0694543431024
 31
0.0
  0
LINE
  5
16E
330
68
100
AcDbEntity
  8
ZUWAKU
  6
CONTINUOUS
 62
     7
100
AcDbLine
 10
243.7163728456568
 20
-189.6694543431024
 30
0.0
 11
243.7163728456568
 21
-190.8694543431024
 31
0.0
  0
LINE
  5
16F
330
68
100
AcDbEntity
  8
ZUWAKU
  6
CONTINUOUS
 62
     7
100
AcDbLine
 10
245.9163728456568
 20
-197.4305456568976
 30
0.0
 11
251.9163728456568
 21
-197.4305456568976
 31
0.0
  0
LINE
  5
170
330
68
100
AcDbEntity
  8
ZUWAKU
  6
CONTINUOUS
 62
     7
100
AcDbLine
 10
242.1163728456568
 20
-194.8116802321412
 30
0.0
 11
242.1163728456568
 21
-197.4305456568976
 31
0.0
  0
LINE
  5
171
330
68
100
AcDbEntity
  8
ZUWAKU
  6
CONTINUOUS
 62
     7
100
AcDbLine
 10
240.1163728456568
 20
-192.0694543431024
 30
0.0
 11
243.1163728456568
 21
-192.0694543431024
 31
0.0
  0
LINE
  5
172
330
68
100
AcDbEntity
  8
ZUWAKU
  6
CONTINUOUS
 62
     7
100
AcDbLine
 10
243.7163728456568
 20
-190.8694543431024
 30
0.0
 11
245.5163728456569
 21
-190.8694543431024
 31
0.0
  0
LINE
  5
173
330
68
100
AcDbEntity
  8
ZUWAKU
  6
CONTINUOUS
 62
     7
100
AcDbLine
 10
240.1163728456568
 20
-190.8694543431024
 30
0.0
 11
242.1163728456568
 21
-190.8694543431024
 31
0.0
  0
LINE
  5
174
330
68
100
AcDbEntity
  8
ZUWAKU
  6
CONTINUOUS
 62
     7
100
AcDbLine
 10
249.8163728456568
 20
-192.0694543431024
 30
0.0
 11
251.4163728456568
 21
-192.0694543431024
 31
0.0
  0
LINE
  5
175
330
68
100
AcDbEntity
  8
ZUWAKU
  6
CONTINUOUS
 62
     7
100
AcDbLine
 10
249.8163728456568
 20
-190.8694543431024
 30
0.0
 11
251.4163728456568
 21
-190.8694543431024
 31
0.0
  0
LINE
  5
176
330
68
100
AcDbEntity
  8
ZUWAKU
  6
CONTINUOUS
 62
     7
100
AcDbLine
 10
249.8163728456568
 20
-192.0694543431024
 30
0.0
 11
249.8163728456568
 21
-195.4694543431024
 31
0.0
  0
LINE
  5
177
330
68
100
AcDbEntity
  8
ZUWAKU
  6
CONTINUOUS
 62
     7
100
AcDbLine
 10
249.8163728456568
 20
-195.4694543431024
 30
0.0
 11
251.9163728456568
 21
-195.4694543431024
 31
0.0
  0
LINE
  5
178
330
68
100
AcDbEntity
  8
ZUWAKU
  6
CONTINUOUS
 62
     7
100
AcDbLine
 10
242.1163728456568
 20
-189.6694543431024
 30
0.0
 11
243.7163728456568
 21
-189.6694543431024
 31
0.0
  0
LINE
  5
179
330
68
100
AcDbEntity
  8
ZUWAKU
  6
CONTINUOUS
 62
     7
100
AcDbLine
 10
245.9163728456568
 20
-195.4694543431024
 30
0.0
 11
247.9163728456568
 21
-195.4694543431024
 31
0.0
  0
LINE
  5
17A
330
68
100
AcDbEntity
  8
ZUWAKU
  6
CONTINUOUS
 62
     7
100
AcDbLine
 10
247.9163728456568
 20
-192.0694543431024
 30
0.0
 11
247.9163728456568
 21
-195.4694543431024
 31
0.0
  0
LINE
  5
17B
330
68
100
AcDbEntity
  8
ZUWAKU
  6
CONTINUOUS
 62
     7
100
AcDbLine
 10
246.1163728456568
 20
-192.0694543431024
 30
0.0
 11
247.9163728456568
 21
-192.0694543431024
 31
0.0
  0
LINE
  5
17C
330
68
100
AcDbEntity
  8
ZUWAKU
  6
CONTINUOUS
 62
     7
100
AcDbLine
 10
247.9163728456568
 20
-189.6694543431024
 30
0.0
 11
249.8163728456568
 21
-189.6694543431024
 31
0.0
  0
LINE
  5
17D
330
68
100
AcDbEntity
  8
ZUWAKU
  6
CONTINUOUS
 62
     7
100
AcDbLine
 10
246.1163728456568
 20
-190.8694543431024
 30
0.0
 11
247.9163728456568
 21
-190.8694543431024
 31
0.0
  0
LINE
  5
17E
330
68
100
AcDbEntity
  8
ZUWAKU
  6
CONTINUOUS
 62
     7
100
AcDbLine
 10
242.1163728456568
 20
-197.4305456568976
 30
0.0
 11
243.7163728456568
 21
-197.4305456568976
 31
0.0
  0
LINE
  5
17F
330
68
100
AcDbEntity
  8
ZUWAKU
  6
CONTINUOUS
 62
     7
100
AcDbLine
 10
251.9163728456568
 20
-195.4694543431024
 30
0.0
 11
251.9163728456568
 21
-197.4305456568976
 31
0.0
  0
LINE
  5
180
330
68
100
AcDbEntity
  8
ZUWAKU
  6
CONTINUOUS
 62
     7
100
AcDbLine
 10
234.5163728456568
 20
-195.8305456568976
 30
0.0
 11
234.3163728456569
 21
-195.6305456568977
 31
0.0
  0
LINE
  5
181
330
68
100
AcDbEntity
  8
ZUWAKU
  6
CONTINUOUS
 62
     7
100
AcDbLine
 10
249.8163728456568
 20
-189.6694543431024
 30
0.0
 11
249.8163728456568
 21
-190.8694543431024
 31
0.0
  0
LINE
  5
182
330
68
100
AcDbEntity
  8
ZUWAKU
  6
CONTINUOUS
 62
     7
100
AcDbLine
 10
251.4163728456568
 20
-190.8694543431024
 30
0.0
 11
251.4163728456568
 21
-192.0694543431024
 31
0.0
  0
LINE
  5
183
330
68
100
AcDbEntity
  8
ZUWAKU
  6
CONTINUOUS
 62
     7
100
AcDbLine
 10
245.9163728456568
 20
-195.4694543431024
 30
0.0
 11
245.9163728456568
 21
-197.4305456568976
 31
0.0
  0
LINE
  5
184
330
68
100
AcDbEntity
  8
ZUWAKU
  6
CONTINUOUS
 62
     7
100
AcDbLine
 10
238.7163728456568
 20
-196.6305456568976
 30
0.0
 11
238.7163728456568
 21
-197.4305456568976
 31
0.0
  0
LINE
  5
185
330
68
100
AcDbEntity
  8
ZUWAKU
  6
CONTINUOUS
 62
     7
100
AcDbLine
 10
247.9163728456568
 20
-189.6694543431024
 30
0.0
 11
247.9163728456568
 21
-190.8694543431024
 31
0.0
  0
LINE
  5
186
330
68
100
AcDbEntity
  8
ZUWAKU
  6
CONTINUOUS
 62
     7
100
AcDbLine
 10
231.1163728456567
 20
-195.6305456568975
 30
0.0
 11
230.7163728456567
 21
-196.4305456568976
 31
0.0
  0
LINE
  5
187
330
68
100
AcDbEntity
  8
ZUWAKU
  6
CONTINUOUS
 62
     7
100
AcDbLine
 10
231.1163728456568
 20
-195.6305456568976
 30
0.0
 11
234.3163728456568
 21
-195.6305456568976
 31
0.0
  0
LINE
  5
188
330
68
100
AcDbEntity
  8
ZUWAKU
  6
CONTINUOUS
 62
     7
100
AcDbLine
 10
236.9163728456568
 20
-195.6305456568976
 30
0.0
 11
238.7163728456568
 21
-195.6305456568976
 31
0.0
  0
LINE
  5
189
330
68
100
AcDbEntity
  8
ZUWAKU
  6
CONTINUOUS
 62
     7
100
AcDbLine
 10
228.7163728456567
 20
-195.6305456568975
 30
0.0
 11
227.7163728456567
 21
-197.4305456568975
 31
0.0
  0
LINE
  5
18A
330
68
100
AcDbEntity
  8
ZUWAKU
  6
CONTINUOUS
 62
     7
100
AcDbLine
 10
246.1163728456568
 20
-190.8694543431024
 30
0.0
 11
246.1163728456568
 21
-192.0694543431024
 31
0.0
  0
LINE
  5
18B
330
68
100
AcDbEntity
  8
ZUWAKU
  6
CONTINUOUS
 62
     7
100
AcDbLine
 10
238.7163728456568
 20
-191.4305456568976
 30
0.0
 11
238.7163728456568
 21
-192.6331447746538
 31
0.0
  0
LINE
  5
18C
330
68
100
AcDbEntity
  8
ZUWAKU
  6
CONTINUOUS
 62
     7
100
AcDbLine
 10
226.7163728456568
 20
-191.4305456568976
 30
0.0
 11
226.7163728456568
 21
-192.6331447746538
 31
0.0
  0
LINE
  5
18D
330
68
100
AcDbEntity
  8
ZUWAKU
  6
CONTINUOUS
 62
     7
100
AcDbLine
 10
245.5163728456569
 20
-194.0305456568976
 30
0.0
 11
245.5163728456569
 21
-195.0305456568976
 31
0.0
  0
LINE
  5
18E
330
68
100
AcDbEntity
  8
ZUWAKU
  6
CONTINUOUS
 62
     7
100
AcDbLine
 10
242.1163728456568
 20
-189.6694543431024
 30
0.0
 11
242.1163728456568
 21
-190.8694543431024
 31
0.0
  0
LINE
  5
18F
330
68
100
AcDbEntity
  8
ZUWAKU
  6
CONTINUOUS
 62
     7
100
AcDbLine
 10
226.7163728456568
 20
-192.6331447746538
 30
0.0
 11
226.9443544232267
 21
-192.6331447746538
 31
0.0
  0
LINE
  5
190
330
68
100
AcDbEntity
  8
ZUWAKU
  6
CONTINUOUS
 62
     7
100
AcDbLine
 10
243.7163728456568
 20
-194.5305456568976
 30
0.0
 11
243.7163728456568
 21
-197.4305456568976
 31
0.0
  0
LINE
  5
191
330
68
100
AcDbEntity
  8
ZUWAKU
  6
CONTINUOUS
 62
     7
100
AcDbLine
 10
230.7163728456568
 20
-196.4305456568976
 30
0.0
 11
232.4092420950863
 21
-196.4305456568976
 31
0.0
  0
LINE
  5
192
330
68
100
AcDbEntity
  8
ZUWAKU
  6
CONTINUOUS
 62
     7
100
AcDbLine
 10
226.7163728456568
 20
-195.6305456568976
 30
0.0
 11
228.7163728456568
 21
-195.6305456568976
 31
0.0
  0
LINE
  5
193
330
68
100
AcDbEntity
  8
ZUWAKU
  6
CONTINUOUS
 62
     7
100
AcDbLine
 10
226.7163728456568
 20
-194.6305456568976
 30
0.0
 11
238.7163728456568
 21
-194.6305456568976
 31
0.0
  0
LINE
  5
194
330
68
100
AcDbEntity
  8
ZUWAKU
  6
CONTINUOUS
 62
     7
100
AcDbLine
 10
228.1163728456568
 20
-194.0305456568976
 30
0.0
 11
236.7163728456568
 21
-194.0305456568976
 31
0.0
  0
LINE
  5
195
330
68
100
AcDbEntity
  8
ZUWAKU
  6
CONTINUOUS
 62
     7
100
AcDbLine
 10
237.4495181016829
 20
-192.6331447746538
 30
0.0
 11
238.7163728456568
 21
-192.6331447746538
 31
0.0
  0
LINE
  5
196
330
68
100
AcDbEntity
  8
ZUWAKU
  6
CONTINUOUS
 62
     7
100
AcDbLine
 10
228.1163728456568
 20
-193.0305456568976
 30
0.0
 11
236.7163728456568
 21
-193.0305456568976
 31
0.0
  0
LINE
  5
197
330
68
100
AcDbEntity
  8
ZUWAKU
  6
CONTINUOUS
 62
     7
100
AcDbLine
 10
236.7163728456568
 20
-193.0305456568976
 30
0.0
 11
236.7163728456568
 21
-194.0305456568976
 31
0.0
  0
LINE
  5
198
330
68
100
AcDbEntity
  8
ZUWAKU
  6
CONTINUOUS
 62
     7
100
AcDbLine
 10
228.1163728456568
 20
-193.0305456568976
 30
0.0
 11
228.1163728456568
 21
-194.0305456568976
 31
0.0
  0
LINE
  5
199
330
68
100
AcDbEntity
  8
ZUWAKU
  6
CONTINUOUS
 62
     7
100
AcDbLine
 10
238.7163728456568
 20
-194.6305456568976
 30
0.0
 11
238.7163728456568
 21
-195.6305456568976
 31
0.0
  0
LINE
  5
19A
330
68
100
AcDbEntity
  8
ZUWAKU
  6
CONTINUOUS
 62
     7
100
AcDbLine
 10
226.7163728456568
 20
-194.6305456568976
 30
0.0
 11
226.7163728456568
 21
-195.6305456568976
 31
0.0
  0
LINE
  5
19B
330
68
100
AcDbEntity
  8
ZUWAKU
  6
CONTINUOUS
 62
     7
100
AcDbLine
 10
238.2786428876944
 20
-191.4465342528391
 30
0.0
 11
238.7163728456568
 21
-191.4465342528391
 31
0.0
  0
LINE
  5
19C
330
68
100
AcDbEntity
  8
ZUWAKU
  6
CONTINUOUS
 62
     7
100
AcDbLine
 10
230.4163728456568
 20
-189.6694543431024
 30
0.0
 11
234.0163728456568
 21
-189.6694543431024
 31
0.0
  0
LINE
  5
19D
330
68
100
AcDbEntity
  8
ZUWAKU
  6
CONTINUOUS
 62
     7
100
AcDbLine
 10
200.8463728456568
 20
-197.4305456568976
 30
0.0
 11
202.4463728456568
 21
-197.4305456568976
 31
0.0
  0
LINE
  5
19E
330
68
100
AcDbEntity
  8
ZUWAKU
  6
CONTINUOUS
 62
     7
100
AcDbLine
 10
206.6463728456568
 20
-197.4305456568976
 30
0.0
 11
208.4463728456568
 21
-197.4305456568976
 31
0.0
  0
LINE
  5
19F
330
68
100
AcDbEntity
  8
ZUWAKU
  6
CONTINUOUS
 62
     7
100
AcDbLine
 10
223.6963728456568
 20
-194.7305456568976
 30
0.0
 11
225.1963728456568
 21
-194.7305456568976
 31
0.0
  0
LINE
  5
1A0
330
68
100
AcDbEntity
  8
ZUWAKU
  6
CONTINUOUS
 62
     7
100
AcDbLine
 10
222.2963728456568
 20
-191.8694543431024
 30
0.0
 11
225.2163728456568
 21
-191.8694543431024
 31
0.0
  0
LINE
  5
1A1
330
68
100
AcDbEntity
  8
ZUWAKU
  6
CONTINUOUS
 62
     7
100
AcDbLine
 10
223.6963728456568
 20
-189.6694543431024
 30
0.0
 11
225.2163728456568
 21
-189.6694543431024
 31
0.0
  0
LINE
  5
1A2
330
68
100
AcDbEntity
  8
ZUWAKU
  6
CONTINUOUS
 62
     7
100
AcDbLine
 10
217.4463728456568
 20
-193.9694543431024
 30
0.0
 11
219.2463728456568
 21
-193.9694543431024
 31
0.0
  0
LINE
  5
1A3
330
68
100
AcDbEntity
  8
ZUWAKU
  6
CONTINUOUS
 62
     7
100
AcDbLine
 10
212.6463728456568
 20
-193.9694543431024
 30
0.0
 11
215.3463728456568
 21
-193.9694543431024
 31
0.0
  0
LINE
  5
1A4
330
68
100
AcDbEntity
  8
ZUWAKU
  6
CONTINUOUS
 62
     7
100
AcDbLine
 10
212.6463728456568
 20
-191.8694543431024
 30
0.0
 11
212.6463728456568
 21
-190.8694543431024
 31
0.0
  0
LINE
  5
1A5
330
68
100
AcDbEntity
  8
ZUWAKU
  6
CONTINUOUS
 62
     7
100
AcDbLine
 10
220.1463728456568
 20
-197.4305456568976
 30
0.0
 11
222.2963728456568
 21
-197.4305456568976
 31
0.0
  0
LINE
  5
1A6
330
68
100
AcDbEntity
  8
ZUWAKU
  6
CONTINUOUS
 62
     7
100
AcDbLine
 10
217.4463728456568
 20
-195.3694543431024
 30
0.0
 11
219.2463728456568
 21
-195.3694543431024
 31
0.0
  0
LINE
  5
1A7
330
68
100
AcDbEntity
  8
ZUWAKU
  6
CONTINUOUS
 62
     7
100
AcDbLine
 10
212.6463728456568
 20
-195.3694543431024
 30
0.0
 11
212.6463728456568
 21
-197.4305456568976
 31
0.0
  0
LINE
  5
1A8
330
68
100
AcDbEntity
  8
ZUWAKU
  6
CONTINUOUS
 62
     7
100
AcDbLine
 10
220.1463728456568
 20
-191.8694543431024
 30
0.0
 11
220.1463728456568
 21
-197.4305456568976
 31
0.0
  0
LINE
  5
1A9
330
68
100
AcDbEntity
  8
ZUWAKU
  6
CONTINUOUS
 62
     7
100
AcDbLine
 10
212.6463728456568
 20
-195.3694543431024
 30
0.0
 11
215.3463728456568
 21
-195.3694543431024
 31
0.0
  0
LINE
  5
1AA
330
68
100
AcDbEntity
  8
ZUWAKU
  6
CONTINUOUS
 62
     7
100
AcDbLine
 10
219.2463728456568
 20
-195.3694543431024
 30
0.0
 11
219.2463728456568
 21
-196.6305456568976
 31
0.0
  0
LINE
  5
1AB
330
68
100
AcDbEntity
  8
ZUWAKU
  6
CONTINUOUS
 62
     7
100
AcDbLine
 10
222.2963728456568
 20
-191.8694543431024
 30
0.0
 11
222.2963728456568
 21
-196.4305456568976
 31
0.0
  0
LINE
  5
1AC
330
68
100
AcDbEntity
  8
ZUWAKU
  6
CONTINUOUS
 62
     7
100
AcDbLine
 10
217.4463728456568
 20
-193.9694543431024
 30
0.0
 11
217.4463728456568
 21
-195.3694543431024
 31
0.0
  0
LINE
  5
1AD
330
68
100
AcDbEntity
  8
ZUWAKU
  6
CONTINUOUS
 62
     7
100
AcDbLine
 10
215.3463728456568
 20
-193.9694543431024
 30
0.0
 11
215.3463728456568
 21
-195.3694543431024
 31
0.0
  0
LINE
  5
1AE
330
68
100
AcDbEntity
  8
ZUWAKU
  6
CONTINUOUS
 62
     7
100
AcDbLine
 10
222.2963728456568
 20
-190.8694543431024
 30
0.0
 11
223.6963728456568
 21
-190.8694543431024
 31
0.0
  0
LINE
  5
1AF
330
68
100
AcDbEntity
  8
ZUWAKU
  6
CONTINUOUS
 62
     7
100
AcDbLine
 10
211.2463728456568
 20
-192.6694543431024
 30
0.0
 11
211.2463728456568
 21
-193.7694543431024
 31
0.0
  0
LINE
  5
1B0
330
68
100
AcDbEntity
  8
ZUWAKU
  6
CONTINUOUS
 62
     7
100
AcDbLine
 10
212.6463728456568
 20
-193.0694543431024
 30
0.0
 11
212.6463728456568
 21
-193.9694543431024
 31
0.0
  0
LINE
  5
1B1
330
68
100
AcDbEntity
  8
ZUWAKU
  6
CONTINUOUS
 62
     7
100
AcDbLine
 10
227.7163728456568
 20
-197.4305456568976
 30
0.0
 11
231.1971892572037
 21
-197.4305456568976
 31
0.0
  0
LINE
  5
1B2
330
68
100
AcDbEntity
  8
ZUWAKU
  6
CONTINUOUS
 62
     7
100
AcDbLine
 10
212.6463728456568
 20
-193.0694543431024
 30
0.0
 11
219.2463728456568
 21
-193.0694543431024
 31
0.0
  0
LINE
  5
1B3
330
68
100
AcDbEntity
  8
ZUWAKU
  6
CONTINUOUS
 62
     7
100
AcDbLine
 10
200.8463728456568
 20
-195.0569023297954
 30
0.0
 11
200.8463728456568
 21
-197.4305456568976
 31
0.0
  0
LINE
  5
1B4
330
68
100
AcDbEntity
  8
ZUWAKU
  6
CONTINUOUS
 62
     7
100
AcDbLine
 10
211.2463728456568
 20
-196.4305456568976
 30
0.0
 11
211.2463728456568
 21
-197.4305456568976
 31
0.0
  0
LINE
  5
1B5
330
68
100
AcDbEntity
  8
ZUWAKU
  6
CONTINUOUS
 62
     7
100
AcDbLine
 10
203.8463728456568
 20
-196.2305456568976
 30
0.0
 11
203.8463728456568
 21
-197.4305456568976
 31
0.0
  0
LINE
  5
1B6
330
68
100
AcDbEntity
  8
ZUWAKU
  6
CONTINUOUS
 62
     7
100
AcDbLine
 10
198.8463728456568
 20
-195.3038225185832
 30
0.0
 11
198.8463728456568
 21
-196.4569023297954
 31
0.0
  0
LINE
  5
1B7
330
68
100
AcDbEntity
  8
ZUWAKU
  6
CONTINUOUS
 62
     7
100
AcDbLine
 10
202.4463728456568
 20
-191.8694543431024
 30
0.0
 11
203.6463728456568
 21
-191.8694543431024
 31
0.0
  0
LINE
  5
1B8
330
68
100
AcDbEntity
  8
ZUWAKU
  6
CONTINUOUS
 62
     7
100
AcDbLine
 10
208.4463728456568
 20
-191.8694543431024
 30
0.0
 11
211.0463728456568
 21
-191.8694543431024
 31
0.0
  0
LINE
  5
1B9
330
68
100
AcDbEntity
  8
ZUWAKU
  6
CONTINUOUS
 62
     7
100
AcDbLine
 10
209.9463728456568
 20
-193.7694543431024
 30
0.0
 11
211.2463728456568
 21
-193.7694543431024
 31
0.0
  0
LINE
  5
1BA
330
68
100
AcDbEntity
  8
ZUWAKU
  6
CONTINUOUS
 62
     7
100
AcDbLine
 10
208.4463728456568
 20
-192.6694543431024
 30
0.0
 11
211.2463728456568
 21
-192.6694543431024
 31
0.0
  0
LINE
  5
1BB
330
68
100
AcDbEntity
  8
ZUWAKU
  6
CONTINUOUS
 62
     7
100
AcDbLine
 10
208.4463728456568
 20
-195.6305456568976
 30
0.0
 11
208.4463728456568
 21
-197.4305456568976
 31
0.0
  0
LINE
  5
1BC
330
68
100
AcDbEntity
  8
ZUWAKU
  6
CONTINUOUS
 62
     7
100
AcDbLine
 10
206.6463728456568
 20
-195.4305456568976
 30
0.0
 11
206.6463728456568
 21
-197.4305456568976
 31
0.0
  0
LINE
  5
1BD
330
68
100
AcDbEntity
  8
ZUWAKU
  6
CONTINUOUS
 62
     7
100
AcDbLine
 10
204.1463728456568
 20
-192.6694543431024
 30
0.0
 11
204.1463728456568
 21
-193.7694543431024
 31
0.0
  0
LINE
  5
1BE
330
68
100
AcDbEntity
  8
ZUWAKU
  6
CONTINUOUS
 62
     7
100
AcDbLine
 10
202.4463728456568
 20
-193.3694543431024
 30
0.0
 11
202.4463728456568
 21
-197.4305456568976
 31
0.0
  0
LINE
  5
1BF
330
68
100
AcDbEntity
  8
ZUWAKU
  6
CONTINUOUS
 62
     7
100
AcDbLine
 10
200.4463728456568
 20
-195.0569023297954
 30
0.0
 11
200.8463728456568
 21
-195.0569023297954
 31
0.0
  0
LINE
  5
1C0
330
68
100
AcDbEntity
  8
ZUWAKU
  6
CONTINUOUS
 62
     7
100
AcDbLine
 10
203.6463728456568
 20
-192.6694543431024
 30
0.0
 11
203.6463728456568
 21
-193.7694543431024
 31
0.0
  0
LINE
  5
1C1
330
68
100
AcDbEntity
  8
ZUWAKU
  6
CONTINUOUS
 62
     7
100
AcDbLine
 10
204.1463728456568
 20
-191.8694543431024
 30
0.0
 11
206.6463728456568
 21
-191.8694543431024
 31
0.0
  0
LINE
  5
1C2
330
68
100
AcDbEntity
  8
ZUWAKU
  6
CONTINUOUS
 62
     7
100
AcDbLine
 10
208.4463728456568
 20
-190.8694543431024
 30
0.0
 11
211.0463728456568
 21
-190.8694543431024
 31
0.0
  0
LINE
  5
1C3
330
68
100
AcDbEntity
  8
ZUWAKU
  6
CONTINUOUS
 62
     7
100
AcDbLine
 10
205.7063728456568
 20
-190.8694543431024
 30
0.0
 11
206.6463728456568
 21
-190.8694543431024
 31
0.0
  0
LINE
  5
1C4
330
68
100
AcDbEntity
  8
ZUWAKU
  6
CONTINUOUS
 62
     7
100
AcDbLine
 10
206.6463728456568
 20
-189.6694543431024
 30
0.0
 11
208.4463728456568
 21
-189.6694543431024
 31
0.0
  0
LINE
  5
1C5
330
68
100
AcDbEntity
  8
ZUWAKU
  6
CONTINUOUS
 62
     7
100
AcDbLine
 10
202.4463728456568
 20
-190.8694543431024
 30
0.0
 11
203.6463728456568
 21
-190.8694543431024
 31
0.0
  0
LINE
  5
1C6
330
68
100
AcDbEntity
  8
ZUWAKU
  6
CONTINUOUS
 62
     7
100
AcDbLine
 10
202.4463728456568
 20
-193.3694543431025
 30
0.0
 11
203.6463728456568
 21
-193.7694543431024
 31
0.0
  0
LINE
  5
1C7
330
68
100
AcDbEntity
  8
ZUWAKU
  6
CONTINUOUS
 62
     7
100
AcDbLine
 10
202.4463728456569
 20
-191.8694543431023
 30
0.0
 11
203.6463728456568
 21
-192.6694543431023
 31
0.0
  0
LINE
  5
1C8
330
68
100
AcDbEntity
  8
ZUWAKU
  6
CONTINUOUS
 62
     7
100
AcDbLine
 10
208.4463728456568
 20
-191.8694543431024
 30
0.0
 11
208.4463728456568
 21
-192.6694543431024
 31
0.0
  0
LINE
  5
1C9
330
68
100
AcDbEntity
  8
ZUWAKU
  6
CONTINUOUS
 62
     7
100
AcDbLine
 10
204.1463728456568
 20
-189.6694543431024
 30
0.0
 11
204.1463728456568
 21
-191.8694543431024
 31
0.0
  0
LINE
  5
1CA
330
68
100
AcDbEntity
  8
ZUWAKU
  6
CONTINUOUS
 62
     7
100
AcDbLine
 10
212.6463728456568
 20
-197.4305456568976
 30
0.0
 11
214.5000668278699
 21
-197.4305456568976
 31
0.0
  0
LINE
  5
1CB
330
68
100
AcDbEntity
  8
ZUWAKU
  6
CONTINUOUS
 62
     7
100
AcDbLine
 10
220.1463728456568
 20
-189.6694543431024
 30
0.0
 11
222.2963728456568
 21
-189.6694543431024
 31
0.0
  0
LINE
  5
1CC
330
68
100
AcDbEntity
  8
ZUWAKU
  6
CONTINUOUS
 62
     7
100
AcDbLine
 10
220.1463728456568
 20
-189.6694543431024
 30
0.0
 11
220.1463728456568
 21
-190.8694543431024
 31
0.0
  0
LINE
  5
1CD
330
68
100
AcDbEntity
  8
ZUWAKU
  6
CONTINUOUS
 62
     7
100
AcDbLine
 10
204.1463728456568
 20
-193.7694543431024
 30
0.0
 11
205.4463728456568
 21
-193.7694543431024
 31
0.0
  0
LINE
  5
1CE
330
68
100
AcDbEntity
  8
ZUWAKU
  6
CONTINUOUS
 62
     7
100
AcDbLine
 10
204.1463728456568
 20
-192.6694543431024
 30
0.0
 11
206.6463728456568
 21
-192.6694543431024
 31
0.0
  0
LINE
  5
1CF
330
68
100
AcDbEntity
  8
ZUWAKU
  6
CONTINUOUS
 62
     7
100
AcDbLine
 10
206.6463728456568
 20
-191.8694543431024
 30
0.0
 11
206.6463728456568
 21
-192.6694543431024
 31
0.0
  0
LINE
  5
1D0
330
68
100
AcDbEntity
  8
ZUWAKU
  6
CONTINUOUS
 62
     7
100
AcDbLine
 10
225.2163728456568
 20
-189.6694543431024
 30
0.0
 11
225.2163728456568
 21
-191.8694543431024
 31
0.0
  0
LINE
  5
1D1
330
68
100
AcDbEntity
  8
ZUWAKU
  6
CONTINUOUS
 62
     7
100
AcDbLine
 10
223.6963728456568
 20
-189.6694543431024
 30
0.0
 11
223.6963728456568
 21
-190.8694543431024
 31
0.0
  0
LINE
  5
1D2
330
68
100
AcDbEntity
  8
ZUWAKU
  6
CONTINUOUS
 62
     7
100
AcDbLine
 10
222.2963728456568
 20
-189.6694543431024
 30
0.0
 11
222.2963728456568
 21
-190.8694543431024
 31
0.0
  0
LINE
  5
1D3
330
68
100
AcDbEntity
  8
ZUWAKU
  6
CONTINUOUS
 62
     7
100
AcDbLine
 10
212.6463728456568
 20
-190.8694543431024
 30
0.0
 11
220.1463728456568
 21
-190.8694543431024
 31
0.0
  0
LINE
  5
1D4
330
68
100
AcDbEntity
  8
ZUWAKU
  6
CONTINUOUS
 62
     7
100
AcDbLine
 10
212.6463728456568
 20
-191.8694543431024
 30
0.0
 11
220.1463728456568
 21
-191.8694543431024
 31
0.0
  0
LINE
  5
1D5
330
68
100
AcDbEntity
  8
ZUWAKU
  6
CONTINUOUS
 62
     7
100
AcDbLine
 10
212.6463728456568
 20
-193.9694543431024
 30
0.0
 11
215.3463728456568
 21
-193.9694543431024
 31
0.0
  0
LINE
  5
1D6
330
68
100
AcDbEntity
  8
ZUWAKU
  6
CONTINUOUS
 62
     7
100
AcDbLine
 10
211.0463728456568
 20
-190.8694543431024
 30
0.0
 11
211.0463728456568
 21
-191.8694543431024
 31
0.0
  0
LINE
  5
1D7
330
68
100
AcDbEntity
  8
ZUWAKU
  6
CONTINUOUS
 62
     7
100
AcDbLine
 10
240.1163728456568
 20
-194.0305456568976
 30
0.0
 11
240.1163728456568
 21
-195.0524216486367
 31
0.0
  0
LINE
  5
1D8
330
68
100
AcDbEntity
  8
ZUWAKU
  6
CONTINUOUS
 62
     7
100
AcDbLine
 10
201.0463728456568
 20
-189.6694543431024
 30
0.0
 11
202.4463728456568
 21
-189.6694543431024
 31
0.0
  0
LINE
  5
1D9
330
68
100
AcDbEntity
  8
ZUWAKU
  6
CONTINUOUS
 62
     7
100
AcDbLine
 10
205.7063728456568
 20
-189.6694543431024
 30
0.0
 11
205.7063728456568
 21
-190.8694543431024
 31
0.0
  0
LINE
  5
1DA
330
68
100
AcDbEntity
  8
ZUWAKU
  6
CONTINUOUS
 62
     7
100
AcDbLine
 10
204.1463728456568
 20
-189.6694543431024
 30
0.0
 11
205.7063728456568
 21
-189.6694543431024
 31
0.0
  0
LINE
  5
1DB
330
68
100
AcDbEntity
  8
ZUWAKU
  6
CONTINUOUS
 62
     7
100
AcDbLine
 10
206.6463728456568
 20
-189.6694543431024
 30
0.0
 11
206.6463728456568
 21
-190.8694543431024
 31
0.0
  0
LINE
  5
1DC
330
68
100
AcDbEntity
  8
ZUWAKU
  6
CONTINUOUS
 62
     7
100
AcDbLine
 10
208.4463728456568
 20
-189.6694543431024
 30
0.0
 11
208.4463728456568
 21
-190.8694543431024
 31
0.0
  0
LINE
  5
1DD
330
68
100
AcDbEntity
  8
ZUWAKU
  6
CONTINUOUS
 62
     7
100
AcDbLine
 10
203.6463728456568
 20
-190.8694543431024
 30
0.0
 11
203.6463728456568
 21
-191.8694543431024
 31
0.0
  0
LINE
  5
1DE
330
68
100
AcDbEntity
  8
ZUWAKU
  6
CONTINUOUS
 62
     7
100
AcDbLine
 10
198.9463728456568
 20
-191.8694543431024
 30
0.0
 11
200.2463728456568
 21
-191.8694543431024
 31
0.0
  0
LINE
  5
1DF
330
68
100
AcDbEntity
  8
ZUWAKU
  6
CONTINUOUS
 62
     7
100
AcDbLine
 10
171.9463728456568
 20
-193.0694543431024
 30
0.0
 11
175.301346392995
 21
-193.0694543431024
 31
0.0
  0
LINE
  5
1E0
330
68
100
AcDbEntity
  8
ZUWAKU
  6
CONTINUOUS
 62
     7
100
AcDbLine
 10
177.9463728456568
 20
-189.6694543431024
 30
0.0
 11
184.0463728456568
 21
-189.6694543431024
 31
0.0
  0
LINE
  5
1E1
330
68
100
AcDbEntity
  8
ZUWAKU
  6
CONTINUOUS
 62
     7
100
AcDbLine
 10
171.9463728456568
 20
-193.0694543431023
 30
0.0
 11
171.9463728456568
 21
-194.8694543431024
 31
0.0
  0
LINE
  5
1E2
330
68
100
AcDbEntity
  8
ZUWAKU
  6
CONTINUOUS
 62
     7
100
AcDbLine
 10
198.9463728456568
 20
-190.8694543431024
 30
0.0
 11
201.0463728456568
 21
-190.8694543431024
 31
0.0
  0
LINE
  5
1E3
330
68
100
AcDbEntity
  8
ZUWAKU
  6
CONTINUOUS
 62
     7
100
AcDbLine
 10
171.9463728456568
 20
-194.8694543431024
 30
0.0
 11
174.2518443163223
 21
-194.8694543431024
 31
0.0
  0
LINE
  5
1E4
330
68
100
AcDbEntity
  8
ZUWAKU
  6
CONTINUOUS
 62
     7
100
AcDbLine
 10
179.9463728456568
 20
-193.0694543431024
 30
0.0
 11
179.9463728456568
 21
-194.8694543431024
 31
0.0
  0
LINE
  5
1E5
330
68
100
AcDbEntity
  8
ZUWAKU
  6
CONTINUOUS
 62
     7
100
AcDbLine
 10
178.0071476770727
 20
-191.2694543431024
 30
0.0
 11
181.6463728456568
 21
-191.2694543431024
 31
0.0
  0
LINE
  5
1E6
330
68
100
AcDbEntity
  8
ZUWAKU
  6
CONTINUOUS
 62
     7
100
AcDbLine
 10
219.2463728456568
 20
-193.0694543431024
 30
0.0
 11
219.2463728456568
 21
-193.9694543431024
 31
0.0
  0
LINE
  5
1E7
330
68
100
AcDbEntity
  8
ZUWAKU
  6
CONTINUOUS
 62
     7
100
AcDbLine
 10
202.4463728456568
 20
-189.6694543431024
 30
0.0
 11
202.4463728456568
 21
-190.8694543431024
 31
0.0
  0
LINE
  5
1E8
330
68
100
AcDbEntity
  8
ZUWAKU
  6
CONTINUOUS
 62
     7
100
AcDbLine
 10
190.2463728456568
 20
-194.2694543431024
 30
0.0
 11
193.4463728456568
 21
-194.2694543431024
 31
0.0
  0
LINE
  5
1E9
330
68
100
AcDbEntity
  8
ZUWAKU
  6
CONTINUOUS
 62
     7
100
AcDbLine
 10
186.0463728456568
 20
-193.6694543431024
 30
0.0
 11
197.4463728456568
 21
-193.6694543431024
 31
0.0
  0
LINE
  5
1EA
330
68
100
AcDbEntity
  8
ZUWAKU
  6
CONTINUOUS
 62
     7
100
AcDbLine
 10
186.0463728456568
 20
-191.6694543431024
 30
0.0
 11
197.4463728456568
 21
-191.6694543431024
 31
0.0
  0
LINE
  5
1EB
330
68
100
AcDbEntity
  8
ZUWAKU
  6
CONTINUOUS
 62
     7
100
AcDbLine
 10
197.4463728456568
 20
-191.6694543431024
 30
0.0
 11
197.4463728456568
 21
-193.6694543431024
 31
0.0
  0
LINE
  5
1EC
330
68
100
AcDbEntity
  8
ZUWAKU
  6
CONTINUOUS
 62
     7
100
AcDbLine
 10
186.0463728456568
 20
-191.6694543431024
 30
0.0
 11
186.0463728456568
 21
-193.6694543431024
 31
0.0
  0
LINE
  5
1ED
330
68
100
AcDbEntity
  8
ZUWAKU
  6
CONTINUOUS
 62
     7
100
AcDbLine
 10
184.0463728456568
 20
-189.6694543431024
 30
0.0
 11
184.0463728456568
 21
-196.4694543431024
 31
0.0
  0
LINE
  5
1EE
330
68
100
AcDbEntity
  8
ZUWAKU
  6
CONTINUOUS
 62
     7
100
AcDbLine
 10
181.6463728456568
 20
-191.2694543431024
 30
0.0
 11
181.6463728456568
 21
-196.8694543431024
 31
0.0
  0
LINE
  5
1EF
330
68
100
AcDbEntity
  8
ZUWAKU
  6
CONTINUOUS
 62
     7
100
AcDbLine
 10
170.0836271543432
 20
-191.2694543431024
 30
0.0
 11
175.5463728456568
 21
-191.2694543431024
 31
0.0
  0
LINE
  5
1F0
330
68
100
AcDbEntity
  8
ZUWAKU
  6
CONTINUOUS
 62
     7
100
AcDbLine
 10
175.5463728456568
 20
-188.0694543431023
 30
0.0
 11
175.5463728456568
 21
-189.6694543431024
 31
0.0
  0
LINE
  5
1F1
330
68
100
AcDbEntity
  8
ZUWAKU
  6
CONTINUOUS
 62
     7
100
AcDbLine
 10
177.9463728456568
 20
-188.0694543431023
 30
0.0
 11
177.9463728456568
 21
-189.6694543431024
 31
0.0
  0
LINE
  5
1F2
330
68
100
AcDbEntity
  8
ZUWAKU
  6
CONTINUOUS
 62
     7
100
AcDbLine
 10
175.5463728456568
 20
-188.0694543431024
 30
0.0
 11
177.9463728456568
 21
-188.0694543431024
 31
0.0
  0
LINE
  5
1F3
330
68
100
AcDbEntity
  8
ZUWAKU
  6
CONTINUOUS
 62
     7
100
AcDbLine
 10
170.0836271543432
 20
-189.6694543431024
 30
0.0
 11
170.0836271543432
 21
-191.2694543431024
 31
0.0
  0
LINE
  5
1F4
330
68
100
AcDbEntity
  8
ZUWAKU
  6
CONTINUOUS
 62
     7
100
AcDbLine
 10
170.0836271543432
 20
-189.6694543431024
 30
0.0
 11
175.5463728456568
 21
-189.6694543431024
 31
0.0
  0
LINE
  5
1F5
330
68
100
AcDbEntity
  8
ZUWAKU
  6
CONTINUOUS
 62
     7
100
AcDbLine
 10
177.5312140516481
 20
-193.0694543431024
 30
0.0
 11
179.9463728456568
 21
-193.0694543431024
 31
0.0
  0
LINE
  5
1F6
330
68
100
AcDbEntity
  8
ZUWAKU
  6
CONTINUOUS
 62
     7
100
AcDbLine
 10
201.0463728456568
 20
-189.6694543431024
 30
0.0
 11
201.0463728456568
 21
-190.8694543431024
 31
0.0
  0
LINE
  5
1F7
330
68
100
AcDbEntity
  8
ZUWAKU
  6
CONTINUOUS
 62
     7
100
AcDbLine
 10
198.9463728456568
 20
-190.8694543431024
 30
0.0
 11
198.9463728456568
 21
-191.8694543431024
 31
0.0
  0
LINE
  5
1F8
330
68
100
AcDbEntity
  8
ZUWAKU
  6
CONTINUOUS
 62
     7
100
AcDbLine
 10
176.486928220662
 20
-194.8694543431024
 30
0.0
 11
179.9463728456568
 21
-194.8694543431024
 31
0.0
  0
LINE
  5
1F9
330
68
100
AcDbEntity
  8
ZUWAKU
  6
CONTINUOUS
 62
     7
100
AcDbLine
 10
236.7163728456568
 20
-197.4305456568976
 30
0.0
 11
238.7163728456568
 21
-197.4305456568976
 31
0.0
  0
LINE
  5
1FA
330
68
100
AcDbEntity
  8
ZUWAKU
  6
CONTINUOUS
 62
     7
100
AcDbLine
 10
170.0836271543432
 20
-196.4842821983328
 30
0.0
 11
170.0836271543432
 21
-197.6694543431024
 31
0.0
  0
ARC
  5
1FB
330
68
100
AcDbEntity
  8
ZUWAKU
  6
CONTINUOUS
 62
     7
100
AcDbCircle
 10
243.5753964745717
 20
-198.5280605928041
 30
0.0
 40
4.0
100
AcDbArc
 50
60.9715340609843
 51
87.98024394550768
  0
ARC
  5
1FC
330
68
100
AcDbEntity
  8
ZUWAKU
  6
CONTINUOUS
 62
     7
100
AcDbCircle
 10
240.9309728961217
 20
-190.5032477036166
 30
0.0
 40
4.6
100
AcDbArc
 50
318.8442436704028
 51
355.4338431265014
  0
ARC
  5
1FD
330
68
100
AcDbEntity
  8
ZUWAKU
  6
CONTINUOUS
 62
     7
100
AcDbCircle
 10
244.1806138811
 20
-195.5190845339868
 30
0.0
 40
2.0
100
AcDbArc
 50
48.09638755561873
 51
83.86317369123302
  0
ARC
  5
1FE
330
68
100
AcDbEntity
  8
ZUWAKU
  6
CONTINUOUS
 62
     7
100
AcDbCircle
 10
240.5835787514163
 20
-190.0524216486367
 30
0.0
 40
5.0
100
AcDbArc
 50
270.0
 51
287.8519707863945
  0
ARC
  5
1FF
330
68
100
AcDbEntity
  8
ZUWAKU
  6
CONTINUOUS
 62
     7
100
AcDbCircle
 10
240.2999359294301
 20
-191.0361668241051
 30
0.0
 40
3.0
100
AcDbArc
 50
270.0
 51
339.8530457328942
  0
ARC
  5
200
330
68
100
AcDbEntity
  8
ZUWAKU
  6
CONTINUOUS
 62
     7
100
AcDbCircle
 10
232.4092420950863
 20
-192.4305456568976
 30
0.0
 40
4.0
100
AcDbArc
 50
270.0
 51
301.7883306170518
  0
ARC
  5
201
330
68
100
AcDbEntity
  8
ZUWAKU
  6
CONTINUOUS
 62
     7
100
AcDbCircle
 10
238.6490770106609
 20
-194.6316781598903
 30
0.0
 40
2.0
100
AcDbArc
 50
209.9625441683634
 51
271.9282476334827
  0
ARC
  5
202
330
68
100
AcDbEntity
  8
ZUWAKU
  6
CONTINUOUS
 62
     7
100
AcDbCircle
 10
231.1971892572037
 20
-187.4305456568976
 30
0.0
 40
10.0
100
AcDbArc
 50
270.0
 51
293.073918065631
  0
ARC
  5
203
330
68
100
AcDbEntity
  8
ZUWAKU
  6
CONTINUOUS
 62
     7
100
AcDbCircle
 10
236.7163728456568
 20
-195.4305456568976
 30
0.0
 40
2.0
100
AcDbArc
 50
216.8698976458439
 51
270.0
  0
ARC
  5
204
330
68
100
AcDbEntity
  8
ZUWAKU
  6
CONTINUOUS
 62
     7
100
AcDbCircle
 10
226.1427444155
 20
-185.4580294012382
 30
0.0
 40
6.0
100
AcDbArc
 50
275.4861271989983
 51
315.4200248778122
  0
ARC
  5
205
330
68
100
AcDbEntity
  8
ZUWAKU
  6
CONTINUOUS
 62
     7
100
AcDbCircle
 10
238.2786428876944
 20
-185.4465342528391
 30
0.0
 40
6.0
100
AcDbArc
 50
224.7342935204538
 51
270.0
  0
ARC
  5
206
330
68
100
AcDbEntity
  8
ZUWAKU
  6
CONTINUOUS
 62
     7
100
AcDbCircle
 10
238.0583602832044
 20
-180.6486000941914
 30
0.0
 40
12.0
100
AcDbArc
 50
240.8674112692758
 51
267.0917440539539
  0
ARC
  5
207
330
68
100
AcDbEntity
  8
ZUWAKU
  6
CONTINUOUS
 62
     7
100
AcDbCircle
 10
226.9443544232267
 20
-182.6331447746538
 30
0.0
 40
10.0
100
AcDbArc
 50
270.0
 51
301.8165888069296
  0
ARC
  5
208
330
68
100
AcDbEntity
  8
ZUWAKU
  6
CONTINUOUS
 62
     7
100
AcDbCircle
 10
221.3785047405764
 20
-193.5372799144038
 30
0.0
 40
4.0
100
AcDbArc
 50
283.265695396094
 51
342.6434876261313
  0
ARC
  5
209
330
68
100
AcDbEntity
  8
ZUWAKU
  6
CONTINUOUS
 62
     7
100
AcDbCircle
 10
221.7075729563648
 20
-194.5191810421865
 30
0.0
 40
2.0
100
AcDbArc
 50
287.1215589227386
 51
353.9335213805733
  0
ARC
  5
20A
330
68
100
AcDbEntity
  8
ZUWAKU
  6
CONTINUOUS
 62
     7
100
AcDbCircle
 10
213.5732198367634
 20
-177.4520333335269
 30
0.0
 40
20.0
100
AcDbArc
 50
272.6561723599371
 51
286.4786265979867
  0
ARC
  5
20B
330
68
100
AcDbEntity
  8
ZUWAKU
  6
CONTINUOUS
 62
     7
100
AcDbCircle
 10
213.9350708718812
 20
-193.4689746339814
 30
0.0
 40
4.0
100
AcDbArc
 50
184.3081130703794
 51
227.7648830848148
  0
ARC
  5
20C
330
68
100
AcDbEntity
  8
ZUWAKU
  6
CONTINUOUS
 62
     7
100
AcDbCircle
 10
211.8132740533973
 20
-193.470921555968
 30
0.0
 40
4.0
100
AcDbArc
 50
212.6772418063084
 51
261.8523056494763
  0
ARC
  5
20D
330
68
100
AcDbEntity
  8
ZUWAKU
  6
CONTINUOUS
 62
     7
100
AcDbCircle
 10
201.5267019278491
 20
-192.9718454815092
 30
0.0
 40
4.0
100
AcDbArc
 50
305.4447563754824
 51
348.4979955985226
  0
ARC
  5
20E
330
68
100
AcDbEntity
  8
ZUWAKU
  6
CONTINUOUS
 62
     7
100
AcDbCircle
 10
197.107071150831
 20
-192.8548432499945
 30
0.0
 40
4.0
100
AcDbArc
 50
295.7741858394136
 51
326.5976644920056
  0
ARC
  5
20F
330
68
100
AcDbEntity
  8
ZUWAKU
  6
CONTINUOUS
 62
     7
100
AcDbCircle
 10
201.9053906304749
 20
-191.7531705556429
 30
0.0
 40
6.0
100
AcDbArc
 50
288.8745432034554
 51
322.2008123804935
  0
ARC
  5
210
330
68
100
AcDbEntity
  8
ZUWAKU
  6
CONTINUOUS
 62
     7
100
AcDbCircle
 10
194.2622963094578
 20
-191.4326156899224
 30
0.0
 40
6.0
100
AcDbArc
 50
319.8192422116139
 51
355.8248039544737
  0
ARC
  5
211
330
68
100
AcDbEntity
  8
ZUWAKU
  6
CONTINUOUS
 62
     7
100
AcDbCircle
 10
170.551983986372
 20
-191.5062663407956
 30
0.0
 40
5.0
100
AcDbArc
 50
264.6251462956196
 51
317.7290360759776
  0
ARC
  5
212
330
68
100
AcDbEntity
  8
ZUWAKU
  6
CONTINUOUS
 62
     7
100
AcDbCircle
 10
185.6802438133988
 20
-187.1000995043927
 30
0.0
 40
10.56940911068407
100
AcDbArc
 50
247.5637467185126
 51
317.2881390123424
  0
ARC
  5
213
330
68
100
AcDbEntity
  8
ZUWAKU
  6
CONTINUOUS
 62
     7
100
AcDbCircle
 10
183.9883680238249
 20
-186.4696225724852
 30
0.0
 40
10.0
100
AcDbArc
 50
270.3323450119129
 51
308.7409648643439
  0
ARC
  5
214
330
68
100
AcDbEntity
  8
ZUWAKU
  6
CONTINUOUS
 62
     7
100
AcDbCircle
 10
170.6718708166683
 20
-190.2928718421244
 30
0.0
 40
7.4
100
AcDbArc
 50
337.9624692219032
 51
352.416518898312
  0
ARC
  5
215
330
68
100
AcDbEntity
  8
ZUWAKU
  6
CONTINUOUS
 62
     7
100
AcDbCircle
 10
170.551983986372
 20
-191.5062663407956
 30
0.0
 40
5.0
100
AcDbArc
 50
341.7817433502872
 51
362.7146811743762
  0
ARC
  5
216
330
68
100
AcDbEntity
  8
ZUWAKU
  6
CONTINUOUS
 62
     7
100
AcDbCircle
 10
170.6718708166683
 20
-190.2928718421244
 30
0.0
 40
7.4
100
AcDbArc
 50
265.4406112814197
 51
321.7964493072675
  0
ENDBLK
  5
6A
330
68
100
AcDbEntity
  8
0
100
AcDbBlockEnd
  0
BLOCK
  5
6C
330
6B
100
AcDbEntity
  8
0
100
AcDbBlockBegin
  2
DC_GROUP_12
 70
     0
 71
     0
 10
0.0
 20
0.0
 30
0.0
  3
DC_GROUP_12
  1

  0
LINE
  5
217
330
6B
100
AcDbEntity
  8
ZUWAKU
  6
CONTINUOUS
 62
     7
100
AcDbLine
 10
228.4941506234345
 20
-196.0305456568976
 30
0.0
 11
230.9163728456568
 21
-196.0305456568976
 31
0.0
  0
LINE
  5
218
330
6B
100
AcDbEntity
  8
ZUWAKU
  6
CONTINUOUS
 62
     7
100
AcDbLine
 10
234.1528016725025
 20
-196.0305456568976
 30
0.0
 11
237.2196821296652
 21
-196.0305456568976
 31
0.0
  0
LINE
  5
219
330
6B
100
AcDbEntity
  8
ZUWAKU
  6
CONTINUOUS
 62
     7
100
AcDbLine
 10
226.7163728456568
 20
-195.5305456568976
 30
0.0
 11
238.7163728456568
 21
-195.5305456568976
 31
0.0
  0
LINE
  5
21A
330
6B
100
AcDbEntity
  8
ZUWAKU
  6
CONTINUOUS
 62
     7
100
AcDbLine
 10
226.7163728456568
 20
-195.0305456568976
 30
0.0
 11
238.7163728456568
 21
-195.0305456568976
 31
0.0
  0
LINE
  5
21B
330
6B
100
AcDbEntity
  8
ZUWAKU
  6
CONTINUOUS
 62
     7
100
AcDbLine
 10
228.2163728456567
 20
-196.5305456568976
 30
0.0
 11
238.021142118487
 21
-196.5305456568976
 31
0.0
  0
LINE
  5
21C
330
6B
100
AcDbEntity
  8
ZUWAKU
  6
CONTINUOUS
 62
     7
100
AcDbLine
 10
227.9385950678789
 20
-197.0305456568976
 30
0.0
 11
233.9971892572037
 21
-197.0305456568976
 31
0.0
  0
LINE
  5
21D
330
6B
100
AcDbEntity
  8
ZUWAKU
  6
CONTINUOUS
 62
     7
100
AcDbLine
 10
235.5163728456568
 20
-197.0305456568976
 30
0.0
 11
238.7163728456568
 21
-197.0305456568976
 31
0.0
  0
ENDBLK
  5
6D
330
6B
100
AcDbEntity
  8
0
100
AcDbBlockEnd
  0
BLOCK
  5
6F
330
6E
100
AcDbEntity
  8
0
100
AcDbBlockBegin
  2
DC_GROUP_13
 70
     0
 71
     0
 10
0.0
 20
0.0
 30
0.0
  3
DC_GROUP_13
  1

  0
POINT
  5
21E
330
6E
100
AcDbEntity
  8
ZUWAKU
  6
CONTINUOUS
 62
     2
100
AcDbPoint
 10
241.6499131482343
 20
-159.6298122790417
 30
0.0
  0
POINT
  5
21F
330
6E
100
AcDbEntity
  8
ZUWAKU
  6
CONTINUOUS
 62
     2
100
AcDbPoint
 10
153.3489409990017
 20
-146.7858541646939
 30
0.0
  0
POINT
  5
220
330
6E
100
AcDbEntity
  8
ZUWAKU
  6
CONTINUOUS
 62
     2
100
AcDbPoint
 10
220.5036298799668
 20
-181.6250673737398
 30
0.0
  0
POINT
  5
221
330
6E
100
AcDbEntity
  8
ZUWAKU
  6
CONTINUOUS
 62
     2
100
AcDbPoint
 10
243.1829375549695
 20
-148.7220756376428
 30
0.0
  0
POINT
  5
222
330
6E
100
AcDbEntity
  8
ZUWAKU
  6
CONTINUOUS
 62
     2
100
AcDbPoint
 10
241.6373477672534
 20
-181.6299971599926
 30
0.0
  0
POINT
  5
223
330
6E
100
AcDbEntity
  8
ZUWAKU
  6
CONTINUOUS
 62
     2
100
AcDbPoint
 10
249.3021108179422
 20
-170.3931398416885
 30
0.0
  0
ENDBLK
  5
70
330
6E
100
AcDbEntity
  8
0
100
AcDbBlockEnd
  0
BLOCK
  5
72
330
71
100
AcDbEntity
  8
0
100
AcDbBlockBegin
  2
DC_GROUP_14
 70
     0
 71
     0
 10
0.0
 20
0.0
 30
0.0
  3
DC_GROUP_14
  1

  0
LINE
  5
224
330
71
100
AcDbEntity
  8
ZUWAKU
  6
CONTINUOUS
 62
     4
100
AcDbLine
 10
-272.0
 20
-193.0
 30
0.0
 11
-268.5358983848622
 21
-187.0
 31
0.0
  0
LINE
  5
225
330
71
100
AcDbEntity
  8
ZUWAKU
  6
CONTINUOUS
 62
     4
100
AcDbLine
 10
-268.5358983848622
 20
-187.0
 30
0.0
 11
-265.0717967697245
 21
-193.0
 31
0.0
  0
LINE
  5
226
330
71
100
AcDbEntity
  8
ZUWAKU
  6
CONTINUOUS
 62
     4
100
AcDbLine
 10
-272.0
 20
-193.0
 30
0.0
 11
-265.0717967697245
 21
-193.0
 31
0.0
  0
TEXT
  5
228
330
71
100
AcDbEntity
  8
ZUWAKU
 62
     7
100
AcDbText
 10
-269.7358983848622
 20
-192.5
 30
0.0
 40
3.0
  1
１
 41
0.6666666666666604
  7
FDASTYLE0
 72
     5
 11
-267.3358983848622
 21
-192.5
 31
0.0
100
AcDbText
  0
ENDBLK
  5
73
330
71
100
AcDbEntity
  8
0
100
AcDbBlockEnd
  0
BLOCK
  5
75
330
74
100
AcDbEntity
  8
0
100
AcDbBlockBegin
  2
DC_GROUP_15
 70
     0
 71
     0
 10
0.0
 20
0.0
 30
0.0
  3
DC_GROUP_15
  1

  0
LINE
  5
229
330
74
100
AcDbEntity
  8
ZUWAKU
  6
CONTINUOUS
 62
     4
100
AcDbLine
 10
-272.0
 20
-186.0
 30
0.0
 11
-268.5358983848622
 21
-180.0
 31
0.0
  0
LINE
  5
22A
330
74
100
AcDbEntity
  8
ZUWAKU
  6
CONTINUOUS
 62
     4
100
AcDbLine
 10
-268.5358983848622
 20
-180.0
 30
0.0
 11
-265.0717967697245
 21
-186.0
 31
0.0
  0
LINE
  5
22B
330
74
100
AcDbEntity
  8
ZUWAKU
  6
CONTINUOUS
 62
     4
100
AcDbLine
 10
-272.0
 20
-186.0
 30
0.0
 11
-265.0717967697245
 21
-186.0
 31
0.0
  0
TEXT
  5
22C
330
74
100
AcDbEntity
  8
ZUWAKU
 62
     7
100
AcDbText
 10
-269.7358983848622
 20
-185.5
 30
0.0
 40
3.0
  1
２
 41
0.6666666666666604
  7
FDASTYLE0
 72
     5
 11
-267.3358983848622
 21
-185.5
 31
0.0
100
AcDbText
  0
ENDBLK
  5
76
330
74
100
AcDbEntity
  8
0
100
AcDbBlockEnd
  0
BLOCK
  5
78
330
77
100
AcDbEntity
  8
0
100
AcDbBlockBegin
  2
DC_GROUP_16
 70
     0
 71
     0
 10
0.0
 20
0.0
 30
0.0
  3
DC_GROUP_16
  1

  0
LINE
  5
22D
330
77
100
AcDbEntity
  8
ZUWAKU
  6
CONTINUOUS
 62
     4
100
AcDbLine
 10
-272.0
 20
-179.0
 30
0.0
 11
-268.5358983848622
 21
-173.0
 31
0.0
  0
LINE
  5
22E
330
77
100
AcDbEntity
  8
ZUWAKU
  6
CONTINUOUS
 62
     4
100
AcDbLine
 10
-268.5358983848622
 20
-173.0
 30
0.0
 11
-265.0717967697245
 21
-179.0
 31
0.0
  0
LINE
  5
22F
330
77
100
AcDbEntity
  8
ZUWAKU
  6
CONTINUOUS
 62
     4
100
AcDbLine
 10
-272.0
 20
-179.0
 30
0.0
 11
-265.0717967697245
 21
-179.0
 31
0.0
  0
TEXT
  5
230
330
77
100
AcDbEntity
  8
ZUWAKU
 62
     7
100
AcDbText
 10
-269.7358983848622
 20
-178.5
 30
0.0
 40
3.0
  1
３
 41
0.6666666666666604
  7
FDASTYLE0
 72
     5
 11
-267.3358983848622
 21
-178.5
 31
0.0
100
AcDbText
  0
ENDBLK
  5
79
330
77
100
AcDbEntity
  8
0
100
AcDbBlockEnd
  0
BLOCK
  5
7B
330
7A
100
AcDbEntity
  8
0
100
AcDbBlockBegin
  2
DC_GROUP_17
 70
     0
 71
     0
 10
0.0
 20
0.0
 30
0.0
  3
DC_GROUP_17
  1

  0
LINE
  5
231
330
7A
100
AcDbEntity
  8
ZUWAKU
  6
CONTINUOUS
 62
     4
100
AcDbLine
 10
-272.0
 20
-172.0
 30
0.0
 11
-268.5358983848622
 21
-166.0
 31
0.0
  0
LINE
  5
232
330
7A
100
AcDbEntity
  8
ZUWAKU
  6
CONTINUOUS
 62
     4
100
AcDbLine
 10
-268.5358983848622
 20
-166.0
 30
0.0
 11
-265.0717967697245
 21
-172.0
 31
0.0
  0
LINE
  5
233
330
7A
100
AcDbEntity
  8
ZUWAKU
  6
CONTINUOUS
 62
     4
100
AcDbLine
 10
-272.0
 20
-172.0
 30
0.0
 11
-265.0717967697245
 21
-172.0
 31
0.0
  0
TEXT
  5
234
330
7A
100
AcDbEntity
  8
ZUWAKU
 62
     7
100
AcDbText
 10
-269.7358983848622
 20
-171.5
 30
0.0
 40
3.0
  1
４
 41
0.6666666666666604
  7
FDASTYLE0
 72
     5
 11
-267.3358983848622
 21
-171.5
 31
0.0
100
AcDbText
  0
ENDBLK
  5
7C
330
7A
100
AcDbEntity
  8
0
100
AcDbBlockEnd
  0
BLOCK
  5
7E
330
7D
100
AcDbEntity
  8
0
100
AcDbBlockBegin
  2
DC_GROUP_18
 70
     0
 71
     0
 10
0.0
 20
0.0
 30
0.0
  3
DC_GROUP_18
  1

  0
LINE
  5
235
330
7D
100
AcDbEntity
  8
ZUWAKU
  6
CONTINUOUS
 62
     4
100
AcDbLine
 10
-272.0
 20
-165.0
 30
0.0
 11
-268.5358983848622
 21
-159.0
 31
0.0
  0
LINE
  5
236
330
7D
100
AcDbEntity
  8
ZUWAKU
  6
CONTINUOUS
 62
     4
100
AcDbLine
 10
-268.5358983848622
 20
-159.0
 30
0.0
 11
-265.0717967697245
 21
-165.0
 31
0.0
  0
LINE
  5
237
330
7D
100
AcDbEntity
  8
ZUWAKU
  6
CONTINUOUS
 62
     4
100
AcDbLine
 10
-272.0
 20
-165.0
 30
0.0
 11
-265.0717967697245
 21
-165.0
 31
0.0
  0
TEXT
  5
238
330
7D
100
AcDbEntity
  8
ZUWAKU
 62
     7
100
AcDbText
 10
-269.7358983848622
 20
-164.5
 30
0.0
 40
3.0
  1
５
 41
0.6666666666666604
  7
FDASTYLE0
 72
     5
 11
-267.3358983848622
 21
-164.5
 31
0.0
100
AcDbText
  0
ENDBLK
  5
7F
330
7D
100
AcDbEntity
  8
0
100
AcDbBlockEnd
  0
BLOCK
  5
81
330
80
100
AcDbEntity
  8
0
100
AcDbBlockBegin
  2
DC_GROUP_19
 70
     0
 71
     0
 10
0.0
 20
0.0
 30
0.0
  3
DC_GROUP_19
  1

  0
LINE
  5
239
330
80
100
AcDbEntity
  8
0
  6
CONTINUOUS
 62
     7
100
AcDbLine
 10
-59.23950388997082
 20
-5.775512418189265
 30
0.0
 11
-59.23062458028016
 21
-5.781635256432736
 31
0.0
  0
LINE
  5
23A
330
80
100
AcDbEntity
  8
0
  6
CONTINUOUS
 62
     7
100
AcDbLine
 10
-59.23062458028016
 20
-5.781635256432736
 30
0.0
 11
-57.34167513133673
 21
-7.009908164126927
 31
0.0
  0
LINE
  5
23B
330
80
100
AcDbEntity
  8
0
  6
CONTINUOUS
 62
     7
100
AcDbLine
 10
-57.34167513133673
 20
-7.009908164126927
 30
0.0
 11
-55.41481610919311
 21
-8.115770812340799
 31
0.0
  0
LINE
  5
23C
330
80
100
AcDbEntity
  8
0
  6
CONTINUOUS
 62
     7
100
AcDbLine
 10
-55.41481610919311
 20
-8.115770812340799
 30
0.0
 11
-53.43109272724939
 21
-9.038018071334221
 31
0.0
  0
LINE
  5
23D
330
80
100
AcDbEntity
  8
0
  6
CONTINUOUS
 62
     7
100
AcDbLine
 10
-53.43109272724939
 20
-9.038018071334221
 30
0.0
 11
-51.37155019890554
 21
-9.715444811367007
 31
0.0
  0
LINE
  5
23E
330
80
100
AcDbEntity
  8
0
  6
CONTINUOUS
 62
     7
100
AcDbLine
 10
-51.37155019890554
 20
-9.715444811367007
 30
0.0
 11
-49.22579107158344
 21
-10.11599374927582
 31
0.0
  0
LINE
  5
23F
330
80
100
AcDbEntity
  8
0
  6
CONTINUOUS
 62
     7
100
AcDbLine
 10
-49.22579107158344
 20
-10.11599374927582
 30
0.0
 11
-47.02412197617184
 21
-10.34625316333765
 31
0.0
  0
LINE
  5
240
330
80
100
AcDbEntity
  8
0
  6
CONTINUOUS
 62
     7
100
AcDbLine
 10
-47.02412197617184
 20
-10.34625316333765
 30
0.0
 11
-44.808939215127
 21
-10.55399096687756
 31
0.0
  0
LINE
  5
241
330
80
100
AcDbEntity
  8
0
  6
CONTINUOUS
 62
     7
100
AcDbLine
 10
-44.808939215127
 20
-10.55399096687756
 30
0.0
 11
-42.6193232796835
 21
-10.87516761896188
 31
0.0
  0
LINE
  5
242
330
80
100
AcDbEntity
  8
0
  6
CONTINUOUS
 62
     7
100
AcDbLine
 10
-42.6193232796835
 20
-10.87516761896188
 30
0.0
 11
-40.46491671249191
 21
-11.34091905983198
 31
0.0
  0
LINE
  5
243
330
80
100
AcDbEntity
  8
0
  6
CONTINUOUS
 62
     7
100
AcDbLine
 10
-40.46491671249191
 20
-11.34091905983198
 30
0.0
 11
-38.33996348255323
 21
-11.92754900972045
 31
0.0
  0
LINE
  5
244
330
80
100
AcDbEntity
  8
0
  6
CONTINUOUS
 62
     7
100
AcDbLine
 10
-38.33996348255323
 20
-11.92754900972045
 30
0.0
 11
-36.23857292241678
 21
-12.61088176682355
 31
0.0
  0
LINE
  5
245
330
80
100
AcDbEntity
  8
0
  6
CONTINUOUS
 62
     7
100
AcDbLine
 10
-36.23857292241678
 20
-12.61088176682355
 30
0.0
 11
-34.15485436463212
 21
-13.36674162933767
 31
0.0
  0
LINE
  5
246
330
80
100
AcDbEntity
  8
0
  6
CONTINUOUS
 62
     7
100
AcDbLine
 10
-34.15485436463212
 20
-13.36674162933767
 30
0.0
 11
-32.08291714174857
 21
-14.17095289545907
 31
0.0
  0
LINE
  5
247
330
80
100
AcDbEntity
  8
0
  6
CONTINUOUS
 62
     7
100
AcDbLine
 10
-32.08291714174857
 20
-14.17095289545907
 30
0.0
 11
-30.01687058631546
 21
-14.99933986338419
 31
0.0
  0
ENDBLK
  5
82
330
80
100
AcDbEntity
  8
0
100
AcDbBlockEnd
  0
BLOCK
  5
84
330
83
100
AcDbEntity
  8
0
100
AcDbBlockBegin
  2
DA_IMAGEDIMGROUP_1
 70
     0
 71
     0
 10
0.0
 20
0.0
 30
0.0
  3
DA_IMAGEDIMGROUP_1
  1

  0
LINE
  5
248
330
83
100
AcDbEntity
  8
LAYER0014
  6
CONTINUOUS
 62
     7
100
AcDbLine
 10
-232.820547107321
 20
17.63779061696121
 30
0.0
 11
-243.950709454377
 21
17.63779061696121
 31
0.0
  0
LINE
  5
249
330
83
100
AcDbEntity
  8
LAYER0014
  6
CONTINUOUS
 62
     7
100
AcDbLine
 10
-232.7179488059458
 20
-127.3622093830388
 30
0.0
 11
-243.950709454377
 21
-127.3622093830388
 31
0.0
  0
LINE
  5
24A
330
83
100
AcDbEntity
  8
LAYER0014
  6
CONTINUOUS
 62
     7
100
AcDbLine
 10
-242.950709454377
 20
17.63779061696121
 30
0.0
 11
-242.950709454377
 21
-127.3622093830388
 31
0.0
  0
INSERT
  5
251
330
83
100
AcDbEntity
  8
LAYER0014
 62
     7
100
AcDbBlockReference
  2
_OPEN30
 10
-242.950709454377
 20
17.63779061696121
 30
0.0
 41
3.000002787824364
 42
2.999989273978464
 50
90.0
  0
INSERT
  5
252
330
83
100
AcDbEntity
  8
LAYER0014
 62
     7
100
AcDbBlockReference
  2
_OPEN30
 10
-242.950709454377
 20
-127.3622093830388
 30
0.0
 41
3.000002787824364
 42
2.999989273978464
 50
270.0
  0
TEXT
  5
253
330
83
100
AcDbEntity
  8
LAYER0014
 62
     7
100
AcDbText
 10
-243.950709454377
 20
-60.8622093830388
 30
0.0
 40
3.0
  1
φ１４５
 50
90.0
 41
0.8333333333333334
  7
FDASTYLE0
 72
     5
 11
-243.950709454377
 21
-48.8622093830388
 31
0.0
100
AcDbText
  0
ENDBLK
  5
85
330
83
100
AcDbEntity
  8
0
100
AcDbBlockEnd
  0
BLOCK
  5
87
330
86
100
AcDbEntity
  8
0
100
AcDbBlockBegin
  2
DA_IMAGEDIMGROUP_2
 70
     0
 71
     0
 10
0.0
 20
0.0
 30
0.0
  3
DA_IMAGEDIMGROUP_2
  1

  0
LINE
  5
254
330
86
100
AcDbEntity
  8
LAYER0014
  6
CONTINUOUS
 62
     7
100
AcDbLine
 10
-234.9895038899708
 20
35.13779061696121
 30
0.0
 11
-257.4887898187789
 21
35.13779061696121
 31
0.0
  0
LINE
  5
255
330
86
100
AcDbEntity
  8
LAYER0014
  6
CONTINUOUS
 62
     7
100
AcDbLine
 10
-234.9895038899708
 20
-144.8622093830388
 30
0.0
 11
-257.4887898187789
 21
-144.8622093830388
 31
0.0
  0
LINE
  5
256
330
86
100
AcDbEntity
  8
LAYER0014
  6
CONTINUOUS
 62
     7
100
AcDbLine
 10
-256.4887898187789
 20
35.13779061696121
 30
0.0
 11
-256.4887898187789
 21
-144.8622093830388
 31
0.0
  0
INSERT
  5
257
330
86
100
AcDbEntity
  8
LAYER0014
 62
     7
100
AcDbBlockReference
  2
_OPEN30
 10
-256.4887898187789
 20
35.13779061696121
 30
0.0
 41
3.000002787824364
 42
2.999989273978464
 50
90.0
  0
INSERT
  5
258
330
86
100
AcDbEntity
  8
LAYER0014
 62
     7
100
AcDbBlockReference
  2
_OPEN30
 10
-256.4887898187789
 20
-144.8622093830388
 30
0.0
 41
3.000002787824364
 42
2.999989273978464
 50
270.0
  0
TEXT
  5
259
330
86
100
AcDbEntity
  8
LAYER0014
 62
     7
100
AcDbText
 10
-257.4887898187789
 20
-60.8622093830388
 30
0.0
 40
3.0
  1
φ１８０
 50
90.0
 41
0.8333333333333334
  7
FDASTYLE0
 72
     5
 11
-257.4887898187789
 21
-48.8622093830388
 31
0.0
100
AcDbText
  0
ENDBLK
  5
88
330
86
100
AcDbEntity
  8
0
100
AcDbBlockEnd
  0
BLOCK
  5
8A
330
89
100
AcDbEntity
  8
0
100
AcDbBlockBegin
  2
DC_GROUP_20
 70
     0
 71
     0
 10
0.0
 20
0.0
 30
0.0
  3
DC_GROUP_20
  1

  0
LINE
  5
25A
330
89
100
AcDbEntity
  8
LAYER0014
  6
CONTINUOUS
 62
     4
100
AcDbLine
 10
-232.9934918291233
 20
16.65612998744118
 30
0.0
 11
-257.0945871295875
 21
46.98200770712464
 31
0.0
  0
CIRCLE
  5
25B
330
89
100
AcDbEntity
  8
LAYER0014
  6
CONTINUOUS
 62
     4
100
AcDbCircle
 10
-260.205484263277
 20
50.89638109549765
 30
0.0
 40
5.0
  0
TEXT
  5
25C
330
89
100
AcDbEntity
  8
LAYER0014
 62
     4
100
AcDbText
 10
-261.705484263277
 20
49.39638109549765
 30
0.0
 40
3.0
  1
１
 41
0.8333333333333334
  7
FDASTYLE0
 72
     5
 11
-258.705484263277
 21
49.39638109549765
 31
0.0
100
AcDbText
  0
ENDBLK
  5
8B
330
89
100
AcDbEntity
  8
0
100
AcDbBlockEnd
  0
BLOCK
  5
8D
330
8C
100
AcDbEntity
  8
0
100
AcDbBlockBegin
  2
DC_GROUP_21
 70
     0
 71
     0
 10
0.0
 20
0.0
 30
0.0
  3
DC_GROUP_21
  1

  0
LINE
  5
25D
330
8C
100
AcDbEntity
  8
LAYER0014
  6
CONTINUOUS
 62
     4
100
AcDbLine
 10
-233.9895038899708
 20
35.13779061696121
 30
0.0
 11
-239.4181389220341
 21
46.4979363014011
 31
0.0
  0
CIRCLE
  5
25E
330
8C
100
AcDbEntity
  8
LAYER0014
  6
CONTINUOUS
 62
     4
100
AcDbCircle
 10
-241.5739689858676
 20
51.00929936990619
 30
0.0
 40
5.0
  0
TEXT
  5
25F
330
8C
100
AcDbEntity
  8
LAYER0014
 62
     4
100
AcDbText
 10
-243.0739689858676
 20
49.50929936990619
 30
0.0
 40
3.0
  1
２
 41
0.8333333333333334
  7
FDASTYLE0
 72
     5
 11
-240.0739689858676
 21
49.50929936990619
 31
0.0
100
AcDbText
  0
ENDBLK
  5
8E
330
8C
100
AcDbEntity
  8
0
100
AcDbBlockEnd
  0
BLOCK
  5
90
330
8F
100
AcDbEntity
  8
0
100
AcDbBlockBegin
  2
DC_GROUP_22
 70
     0
 71
     0
 10
0.0
 20
0.0
 30
0.0
  3
DC_GROUP_22
  1

  0
LINE
  5
260
330
8F
100
AcDbEntity
  8
LAYER0014
  6
CONTINUOUS
 62
     4
100
AcDbLine
 10
-220.2040447062752
 20
33.93779061696117
 30
0.0
 11
-218.7867002804114
 21
45.93093557516107
 31
0.0
  0
CIRCLE
  5
261
330
8F
100
AcDbEntity
  8
LAYER0014
  6
CONTINUOUS
 62
     4
100
AcDbCircle
 10
-218.1998861832994
 20
50.89638109549765
 30
0.0
 40
5.0
  0
TEXT
  5
262
330
8F
100
AcDbEntity
  8
LAYER0014
 62
     4
100
AcDbText
 10
-219.6998861832994
 20
49.39638109549765
 30
0.0
 40
3.0
  1
３
 41
0.8333333333333334
  7
FDASTYLE0
 72
     5
 11
-216.6998861832994
 21
49.39638109549765
 31
0.0
100
AcDbText
  0
ENDBLK
  5
91
330
8F
100
AcDbEntity
  8
0
100
AcDbBlockEnd
  0
BLOCK
  5
93
330
92
100
AcDbEntity
  8
0
100
AcDbBlockBegin
  2
DC_GROUP_23
 70
     0
 71
     0
 10
0.0
 20
0.0
 30
0.0
  3
DC_GROUP_23
  1

  0
LINE
  5
263
330
92
100
AcDbEntity
  8
LAYER0014
  6
CONTINUOUS
 62
     4
100
AcDbLine
 10
-195.1645582039566
 20
7.037793239565502
 30
0.0
 11
-191.4595296455324
 21
46.03171757020914
 31
0.0
  0
CIRCLE
  5
264
330
92
100
AcDbEntity
  8
LAYER0014
  6
CONTINUOUS
 62
     4
100
AcDbCircle
 10
-190.9865820508406
 20
51.00929936990619
 30
0.0
 40
5.0
  0
TEXT
  5
265
330
92
100
AcDbEntity
  8
LAYER0014
 62
     4
100
AcDbText
 10
-192.4865820508406
 20
49.50929936990619
 30
0.0
 40
3.0
  1
４
 41
0.8333333333333334
  7
FDASTYLE0
 72
     5
 11
-189.4865820508406
 21
49.50929936990619
 31
0.0
100
AcDbText
  0
ENDBLK
  5
94
330
92
100
AcDbEntity
  8
0
100
AcDbBlockEnd
  0
BLOCK
  5
96
330
95
100
AcDbEntity
  8
0
100
AcDbBlockBegin
  2
DC_GROUP_24
 70
     0
 71
     0
 10
0.0
 20
0.0
 30
0.0
  3
DC_GROUP_24
  1

  0
LINE
  5
266
330
95
100
AcDbEntity
  8
LAYER0014
  6
CONTINUOUS
 62
     4
100
AcDbLine
 10
-133.2853438280757
 20
-8.862209383038845
 30
0.0
 11
-148.8548289076499
 21
45.86139958162991
 31
0.0
  0
CIRCLE
  5
267
330
95
100
AcDbEntity
  8
LAYER0014
  6
CONTINUOUS
 62
     4
100
AcDbCircle
 10
-150.223084989357
 20
50.67054454668053
 30
0.0
 40
5.0
  0
TEXT
  5
268
330
95
100
AcDbEntity
  8
LAYER0014
 62
     4
100
AcDbText
 10
-151.723084989357
 20
49.17054454668053
 30
0.0
 40
3.0
  1
５
 41
0.8333333333333334
  7
FDASTYLE0
 72
     5
 11
-148.723084989357
 21
49.17054454668053
 31
0.0
100
AcDbText
  0
ENDBLK
  5
97
330
95
100
AcDbEntity
  8
0
100
AcDbBlockEnd
  0
BLOCK
  5
99
330
98
100
AcDbEntity
  8
0
100
AcDbBlockBegin
  2
DC_GROUP_25
 70
     0
 71
     0
 10
0.0
 20
0.0
 30
0.0
  3
DC_GROUP_25
  1

  0
LINE
  5
269
330
98
100
AcDbEntity
  8
LAYER0014
  6
CONTINUOUS
 62
     4
100
AcDbLine
 10
-36.89330070367566
 20
-39.05831125567798
 30
0.0
 11
-5.094227682610608
 21
-55.54944883430207
 31
0.0
  0
CIRCLE
  5
26A
330
98
100
AcDbEntity
  8
LAYER0014
  6
CONTINUOUS
 62
     4
100
AcDbCircle
 10
-0.6556107187342377
 20
-57.85133489750939
 30
0.0
 40
5.0
  0
TEXT
  5
26B
330
98
100
AcDbEntity
  8
LAYER0014
 62
     4
100
AcDbText
 10
-2.155610718734238
 20
-59.35133489750939
 30
0.0
 40
3.0
  1
７
 41
0.8333333333333334
  7
FDASTYLE0
 72
     5
 11
0.8443892812657623
 21
-59.35133489750939
 31
0.0
100
AcDbText
  0
ENDBLK
  5
9A
330
98
100
AcDbEntity
  8
0
100
AcDbBlockEnd
  0
BLOCK
  5
9C
330
9B
100
AcDbEntity
  8
0
100
AcDbBlockBegin
  2
DC_GROUP_26
 70
     0
 71
     0
 10
0.0
 20
0.0
 30
0.0
  3
DC_GROUP_26
  1

  0
LINE
  5
26C
330
9B
100
AcDbEntity
  8
LAYER0014
  6
CONTINUOUS
 62
     4
100
AcDbLine
 10
-30.68950417607312
 20
26.11001447385357
 30
0.0
 11
-5.11374367847111
 21
11.09603009150871
 31
0.0
  0
CIRCLE
  5
26D
330
9B
100
AcDbEntity
  8
LAYER0014
  6
CONTINUOUS
 62
     4
100
AcDbCircle
 10
-0.8018211660504448
 20
8.564760795902231
 30
0.0
 40
5.0
  0
TEXT
  5
26E
330
9B
100
AcDbEntity
  8
LAYER0014
 62
     4
100
AcDbText
 10
-2.301821166050445
 20
7.064760795902231
 30
0.0
 40
3.0
  1
８
 41
0.8333333333333334
  7
FDASTYLE0
 72
     5
 11
0.6981788339495552
 21
7.064760795902231
 31
0.0
100
AcDbText
  0
ENDBLK
  5
9D
330
9B
100
AcDbEntity
  8
0
100
AcDbBlockEnd
  0
BLOCK
  5
9F
330
9E
100
AcDbEntity
  8
0
100
AcDbBlockBegin
  2
DC_GROUP_27
 70
     0
 71
     0
 10
0.0
 20
0.0
 30
0.0
  3
DC_GROUP_27
  1

  0
LINE
  5
26F
330
9E
100
AcDbEntity
  8
LAYER0014
  6
CONTINUOUS
 62
     4
100
AcDbLine
 10
-40.48950388997082
 20
82.13414460424326
 30
0.0
 11
-5.610947397826408
 21
67.97363937071356
 31
0.0
  0
CIRCLE
  5
270
330
9E
100
AcDbEntity
  8
LAYER0014
  6
CONTINUOUS
 62
     4
100
AcDbCircle
 10
-0.9782020231303932
 20
66.09276981297347
 30
0.0
 40
5.0
  0
TEXT
  5
271
330
9E
100
AcDbEntity
  8
LAYER0014
 62
     4
100
AcDbText
 10
-2.478202023130393
 20
64.59276981297347
 30
0.0
 40
3.0
  1
９
 41
0.8333333333333334
  7
FDASTYLE0
 72
     5
 11
0.5217979768696068
 21
64.59276981297347
 31
0.0
100
AcDbText
  0
ENDBLK
  5
A0
330
9E
100
AcDbEntity
  8
0
100
AcDbBlockEnd
  0
BLOCK
  5
A2
330
A1
100
AcDbEntity
  8
0
100
AcDbBlockBegin
  2
DC_GROUP_28
 70
     0
 71
     0
 10
0.0
 20
0.0
 30
0.0
  3
DC_GROUP_28
  1

  0
LINE
  5
272
330
A1
100
AcDbEntity
  8
LAYER0014
  6
CONTINUOUS
 62
     4
100
AcDbLine
 10
-17.08774868245234
 20
112.3302366534578
 30
0.0
 11
-14.43183175607578
 21
95.49062539916113
 31
0.0
  0
CIRCLE
  5
273
330
A1
100
AcDbEntity
  8
LAYER0014
  6
CONTINUOUS
 62
     4
100
AcDbCircle
 10
-13.65286852487429
 20
90.55167649433977
 30
0.0
 40
5.0
  0
TEXT
  5
274
330
A1
100
AcDbEntity
  8
LAYER0014
 62
     4
100
AcDbText
 10
-16.65286852487429
 20
89.05167649433977
 30
0.0
 40
3.0
  1
１０
 41
0.8333333333333334
  7
FDASTYLE0
 72
     5
 11
-10.65286852487429
 21
89.05167649433977
 31
0.0
100
AcDbText
  0
ENDBLK
  5
A3
330
A1
100
AcDbEntity
  8
0
100
AcDbBlockEnd
  0
BLOCK
  5
A5
330
A4
100
AcDbEntity
  8
0
100
AcDbBlockBegin
  2
DC_GROUP_29
 70
     0
 71
     0
 10
0.0
 20
0.0
 30
0.0
  3
DC_GROUP_29
  1

  0
LINE
  5
275
330
A4
100
AcDbEntity
  8
LAYER0014
  6
CONTINUOUS
 62
     4
100
AcDbLine
 10
-2.51852607716171
 20
125.6302361170159
 30
0.0
 11
5.317612483388416
 21
95.51523769690803
 31
0.0
  0
CIRCLE
  5
276
330
A4
100
AcDbEntity
  8
LAYER0014
  6
CONTINUOUS
 62
     4
100
AcDbCircle
 10
6.576720718071329
 20
90.67636939395183
 30
0.0
 40
5.0
  0
TEXT
  5
277
330
A4
100
AcDbEntity
  8
LAYER0014
 62
     4
100
AcDbText
 10
3.576720718071329
 20
89.17636939395183
 30
0.0
 40
3.0
  1
１１
 41
0.8333333333333334
  7
FDASTYLE0
 72
     5
 11
9.576720718071329
 21
89.17636939395183
 31
0.0
100
AcDbText
  0
ENDBLK
  5
A6
330
A4
100
AcDbEntity
  8
0
100
AcDbBlockEnd
  0
BLOCK
  5
A8
330
A7
100
AcDbEntity
  8
0
100
AcDbBlockBegin
  2
DC_GROUP_30
 70
     0
 71
     0
 10
0.0
 20
0.0
 30
0.0
  3
DC_GROUP_30
  1

  0
LINE
  5
278
330
A7
100
AcDbEntity
  8
LAYER0014
  6
CONTINUOUS
 62
     4
100
AcDbLine
 10
27.14978483124139
 20
129.0802366534578
 30
0.0
 11
37.19932690164137
 21
95.52031529443789
 31
0.0
  0
CIRCLE
  5
279
330
A7
100
AcDbEntity
  8
LAYER0014
  6
CONTINUOUS
 62
     4
100
AcDbCircle
 10
38.63365234043954
 20
90.73046033466957
 30
0.0
 40
5.0
  0
TEXT
  5
27A
330
A7
100
AcDbEntity
  8
LAYER0014
 62
     4
100
AcDbText
 10
35.63365234043954
 20
89.23046033466957
 30
0.0
 40
3.0
  1
１２
 41
0.8333333333333334
  7
FDASTYLE0
 72
     5
 11
41.63365234043954
 21
89.23046033466957
 31
0.0
100
AcDbText
  0
ENDBLK
  5
A9
330
A7
100
AcDbEntity
  8
0
100
AcDbBlockEnd
  0
BLOCK
  5
AB
330
AA
100
AcDbEntity
  8
0
100
AcDbBlockBegin
  2
DC_GROUP_31
 70
     0
 71
     0
 10
0.0
 20
0.0
 30
0.0
  3
DC_GROUP_31
  1

  0
LINE
  5
27B
330
AA
100
AcDbEntity
  8
LAYER0014
  6
CONTINUOUS
 62
     4
100
AcDbLine
 10
-91.48950579731934
 20
34.82411459800144
 30
0.0
 11
-105.87394703986
 21
47.31643041577698
 31
0.0
  0
CIRCLE
  5
27C
330
AA
100
AcDbEntity
  8
LAYER0014
  6
CONTINUOUS
 62
     4
100
AcDbCircle
 10
-109.6490393248735
 20
50.59494810516526
 30
0.0
 40
5.0
  0
TEXT
  5
27D
330
AA
100
AcDbEntity
  8
LAYER0014
 62
     4
100
AcDbText
 10
-111.1490393248735
 20
49.09494810516526
 30
0.0
 40
3.0
  1
６
 41
0.8333333333333334
  7
FDASTYLE0
 72
     5
 11
-108.1490393248735
 21
49.09494810516526
 31
0.0
100
AcDbText
  0
ENDBLK
  5
AC
330
AA
100
AcDbEntity
  8
0
100
AcDbBlockEnd
  0
BLOCK
  5
AE
330
AD
100
AcDbEntity
  8
0
100
AcDbBlockBegin
  2
DA_IMAGEDIMGROUP_3
 70
     0
 71
     0
 10
0.0
 20
0.0
 30
0.0
  3
DA_IMAGEDIMGROUP_3
  1

  0
LINE
  5
27E
330
AD
100
AcDbEntity
  8
LAYER0014
  6
CONTINUOUS
 62
     7
100
AcDbLine
 10
-144.4895038899708
 20
-77.37951211992314
 30
0.0
 11
-144.4895038899708
 21
-86.21553306487289
 31
0.0
  0
LINE
  5
27F
330
AD
100
AcDbEntity
  8
LAYER0014
  6
CONTINUOUS
 62
     7
100
AcDbLine
 10
-144.4895038899708
 20
-85.21553306487289
 30
0.0
 11
-91.48950770466797
 21
-85.21553306487289
 31
0.0
  0
INSERT
  5
280
330
AD
100
AcDbEntity
  8
LAYER0014
 62
     7
100
AcDbBlockReference
  2
_OPEN30
 10
-144.4895038899708
 20
-85.21553306487289
 30
0.0
 41
3.000002787824364
 42
2.999989273978464
 50
180.0
  0
INSERT
  5
281
330
AD
100
AcDbEntity
  8
LAYER0014
 62
     7
100
AcDbBlockReference
  2
_OPEN30
 10
-91.48950770466797
 20
-85.21553306487289
 30
0.0
 41
3.000002787824364
 42
2.999989273978464
 50
360.0
  0
TEXT
  5
282
330
AD
100
AcDbEntity
  8
LAYER0014
 62
     7
100
AcDbText
 10
-124.1382539086674
 20
-84.62524155454977
 30
0.0
 40
3.0
  1
（５３）
 41
0.8333333333333334
  7
FDASTYLE0
 72
     5
 11
-112.1382539086674
 21
-84.62524155454977
 31
0.0
100
AcDbText
  0
ENDBLK
  5
AF
330
AD
100
AcDbEntity
  8
0
100
AcDbBlockEnd
  0
BLOCK
  5
B1
330
B0
100
AcDbEntity
  8
0
100
AcDbBlockBegin
  2
DC_GROUP_32
 70
     0
 71
     0
 10
0.0
 20
0.0
 30
0.0
  3
DC_GROUP_32
  1

  0
LINE
  5
283
330
B0
100
AcDbEntity
  8
0
  6
CONTINUOUS
 62
     7
100
AcDbLine
 10
-209.2902226065214
 20
-133.1209968054769
 30
0.0
 11
-201.1881950532261
 21
-139.7984920417093
 31
0.0
  0
INSERT
  5
284
330
B0
100
AcDbEntity
  8
0
 62
     7
100
AcDbBlockReference
  2
_OPEN30
 10
-209.2902226065214
 20
-133.1209968054769
 30
0.0
 41
3.000002787824364
 42
2.999989273978464
 50
140.5054778579783
  0
LINE
  5
285
330
B0
100
AcDbEntity
  8
0
  6
CONTINUOUS
 62
     7
100
AcDbLine
 10
-201.1881950532261
 20
-139.7984920417093
 30
0.0
 11
-173.7881950532261
 21
-139.7984920417093
 31
0.0
  0
TEXT
  5
286
330
B0
100
AcDbEntity
  8
0
 62
     7
100
AcDbText
 10
-200.812843380752
 20
-139.2828641090029
 30
0.0
 40
3.0
  1
ネジ（Ｐ＝３．５）
 41
0.8333333333333334
  7
FDASTYLE0
 72
     5
 11
-173.812843380752
 21
-139.2828641090029
 31
0.0
100
AcDbText
  0
ENDBLK
  5
B2
330
B0
100
AcDbEntity
  8
0
100
AcDbBlockEnd
  0
BLOCK
  5
B4
330
B3
100
AcDbEntity
  8
0
100
AcDbBlockBegin
  2
DA_IMAGEDIMGROUP_4
 70
     0
 71
     0
 10
0.0
 20
0.0
 30
0.0
  3
DA_IMAGEDIMGROUP_4
  1

  0
LINE
  5
287
330
B3
100
AcDbEntity
  8
LAYER0014
  6
CONTINUOUS
 62
     7
100
AcDbLine
 10
170.1497848312414
 20
161.9302366534578
 30
0.0
 11
176.8731024423156
 21
161.9302366534578
 31
0.0
  0
LINE
  5
288
330
B3
100
AcDbEntity
  8
LAYER0014
  6
CONTINUOUS
 62
     7
100
AcDbLine
 10
175.8731024423156
 20
129.8526826467112
 30
0.0
 11
175.8731024423156
 21
161.9302366534578
 31
0.0
  0
INSERT
  5
289
330
B3
100
AcDbEntity
  8
LAYER0014
 62
     7
100
AcDbBlockReference
  2
_OPEN30
 10
175.8731024423156
 20
161.9302366534578
 30
0.0
 41
3.000002787824364
 42
2.999989273978464
 50
90.0
  0
TEXT
  5
28A
330
B3
100
AcDbEntity
  8
LAYER0014
 62
     1
100
AcDbText
 10
174.8731024423156
 20
134.8526826467112
 30
0.0
 40
3.0
  1
（φ３０．６）
 50
90.0
 41
0.8333333333333334
  7
FDASTYLE0
 72
     5
 11
174.8731024423156
 21
155.8526826467112
 31
0.0
100
AcDbText
  0
ENDBLK
  5
B5
330
B3
100
AcDbEntity
  8
0
100
AcDbBlockEnd
  0
BLOCK
  5
B7
330
B6
100
AcDbEntity
  8
0
100
AcDbBlockBegin
  2
DC_GROUP_33
 70
     0
 71
     0
 10
0.0
 20
0.0
 30
0.0
  3
DC_GROUP_33
  1

  0
LINE
  5
28B
330
B6
100
AcDbEntity
  8
LAYER0014
  6
CONTINUOUS
 62
     4
100
AcDbLine
 10
144.4176879614703
 20
113.6302366534577
 30
0.0
 11
150.2967959963017
 21
95.32608548773587
 31
0.0
  0
CIRCLE
  5
28C
330
B6
100
AcDbEntity
  8
LAYER0014
  6
CONTINUOUS
 62
     4
100
AcDbCircle
 10
151.8258119625459
 20
90.56561175343475
 30
0.0
 40
5.0
  0
TEXT
  5
28D
330
B6
100
AcDbEntity
  8
LAYER0014
 62
     4
100
AcDbText
 10
148.8258119625459
 20
89.06561175343475
 30
0.0
 40
3.0
  1
１３
 41
0.8333333333333334
  7
FDASTYLE0
 72
     5
 11
154.8258119625459
 21
89.06561175343475
 31
0.0
100
AcDbText
  0
ENDBLK
  5
B8
330
B6
100
AcDbEntity
  8
0
100
AcDbBlockEnd
  0
BLOCK
  5
BA
330
B9
100
AcDbEntity
  8
0
100
AcDbBlockBegin
  2
DC_GROUP_34
 70
     0
 71
     0
 10
0.0
 20
0.0
 30
0.0
  3
DC_GROUP_34
  1

  0
LINE
  5
28E
330
B9
100
AcDbEntity
  8
LAYER0015
  6
CONTINUOUS
 62
     7
100
AcDbLine
 10
-29.90094180860854
 20
176.4302397052155
 30
0.0
 11
-22.75556120720063
 21
187.631949905676
 31
0.0
  0
INSERT
  5
28F
330
B9
100
AcDbEntity
  8
LAYER0015
 62
     7
100
AcDbBlockReference
  2
_OPEN30
 10
-29.90094180860854
 20
176.4302397052155
 30
0.0
 41
3.000002787824364
 42
2.999989273978464
 50
237.4668886631774
  0
LINE
  5
290
330
B9
100
AcDbEntity
  8
LAYER0015
  6
CONTINUOUS
 62
     7
100
AcDbLine
 10
-22.75556120720063
 20
187.631949905676
 30
0.0
 11
17.24443879279937
 21
187.631949905676
 31
0.0
  0
TEXT
  5
291
330
B9
100
AcDbEntity
  8
LAYER0015
 62
     7
100
AcDbText
 10
-22.25556120720063
 20
188.131949905676
 30
0.0
 40
3.0
  1
２”ネジ（Ｐ＝２．３０９）
 41
0.8333333333333334
  7
FDASTYLE0
 72
     5
 11
16.74443879279937
 21
188.131949905676
 31
0.0
100
AcDbText
  0
ENDBLK
  5
BB
330
B9
100
AcDbEntity
  8
0
100
AcDbBlockEnd
  0
BLOCK
  5
BD
330
BC
100
AcDbEntity
  8
0
100
AcDbBlockBegin
  2
DA_IMAGEDIMGROUP_5
 70
     0
 71
     0
 10
0.0
 20
0.0
 30
0.0
  3
DA_IMAGEDIMGROUP_5
  1

  0
LINE
  5
292
330
BC
100
AcDbEntity
  8
LAYER0014
  6
CONTINUOUS
 62
     7
100
AcDbLine
 10
-89.98950388997071
 20
5.137790616961155
 30
0.0
 11
-120.2306425340887
 21
5.137790616961155
 31
0.0
  0
LINE
  5
293
330
BC
100
AcDbEntity
  8
LAYER0014
  6
CONTINUOUS
 62
     7
100
AcDbLine
 10
-65.48950388997082
 20
146.6302366534577
 30
0.0
 11
-120.2306425340887
 21
146.6302366534577
 31
0.0
  0
LINE
  5
294
330
BC
100
AcDbEntity
  8
LAYER0014
  6
CONTINUOUS
 62
     7
100
AcDbLine
 10
-119.2306425340887
 20
5.137790616961155
 30
0.0
 11
-119.2306425340887
 21
146.6302366534577
 31
0.0
  0
INSERT
  5
295
330
BC
100
AcDbEntity
  8
LAYER0014
 62
     7
100
AcDbBlockReference
  2
_OPEN30
 10
-119.2306425340887
 20
5.137790616961155
 30
0.0
 41
3.000002787824364
 42
2.999989273978464
 50
270.0
  0
INSERT
  5
296
330
BC
100
AcDbEntity
  8
LAYER0014
 62
     7
100
AcDbBlockReference
  2
_OPEN30
 10
-119.2306425340887
 20
146.6302366534577
 30
0.0
 41
3.000002787824364
 42
2.999989273978464
 50
90.0
  0
TEXT
  5
297
330
BC
100
AcDbEntity
  8
LAYER0014
 62
     1
100
AcDbText
 10
-120.2306425340887
 20
71.38401363520944
 30
0.0
 40
3.0
  1
２５５
 50
90.0
 41
0.8333333333333334
  7
FDASTYLE0
 72
     5
 11
-120.2306425340887
 21
80.38401363520944
 31
0.0
100
AcDbText
  0
ENDBLK
  5
BE
330
BC
100
AcDbEntity
  8
0
100
AcDbBlockEnd
  0
BLOCK
  5
C0
330
BF
100
AcDbEntity
  8
0
100
AcDbBlockBegin
  2
DA_IMAGEDIMGROUP_6
 70
     0
 71
     0
 10
0.0
 20
0.0
 30
0.0
  3
DA_IMAGEDIMGROUP_6
  1

  0
LINE
  5
298
330
BF
100
AcDbEntity
  8
LAYER0014
  6
CONTINUOUS
 62
     7
100
AcDbLine
 10
169.1497848312414
 20
163.6302366534578
 30
0.0
 11
169.1497848312414
 21
184.7550655388693
 31
0.0
  0
LINE
  5
299
330
BF
100
AcDbEntity
  8
LAYER0014
  6
CONTINUOUS
 62
     7
100
AcDbLine
 10
-8.587748682452343
 20
166.6302361170159
 30
0.0
 11
-8.587748682452343
 21
184.7550655388693
 31
0.0
  0
LINE
  5
29A
330
BF
100
AcDbEntity
  8
LAYER0014
  6
CONTINUOUS
 62
     7
100
AcDbLine
 10
-8.587748682452343
 20
183.7550655388693
 30
0.0
 11
169.1497848312414
 21
183.7550655388693
 31
0.0
  0
INSERT
  5
29B
330
BF
100
AcDbEntity
  8
LAYER0014
 62
     7
100
AcDbBlockReference
  2
_OPEN30
 10
-8.587748682452343
 20
183.7550655388693
 30
0.0
 41
3.000002787824364
 42
2.999989273978464
 50
180.0
  0
INSERT
  5
29C
330
BF
100
AcDbEntity
  8
LAYER0014
 62
     7
100
AcDbBlockReference
  2
_OPEN30
 10
169.1497848312414
 20
183.7550655388693
 30
0.0
 41
3.000002787824364
 42
2.999989273978464
 50
360.0
  0
TEXT
  5
29D
330
BF
100
AcDbEntity
  8
LAYER0014
 62
     1
100
AcDbText
 10
75.78101807439452
 20
184.7550655388693
 30
0.0
 40
3.0
  1
８００
 41
0.8333333333333334
  7
FDASTYLE0
 72
     5
 11
84.78101807439452
 21
184.7550655388693
 31
0.0
100
AcDbText
  0
ENDBLK
  5
C1
330
BF
100
AcDbEntity
  8
0
100
AcDbBlockEnd
  0
BLOCK
  5
C3
330
C2
100
AcDbEntity
  8
0
100
AcDbBlockBegin
  2
DC_GROUP_35
 70
     0
 71
     0
 10
0.0
 20
0.0
 30
0.0
  3
DC_GROUP_35
  1

  0
LINE
  5
29E
330
C2
100
AcDbEntity
  8
LAYER0015
  6
CONTINUOUS
 62
     7
100
AcDbLine
 10
-34.68950388997087
 20
10.33779272696563
 30
0.0
 11
-13.45363514259814
 21
-12.50930046401304
 31
0.0
  0
INSERT
  5
29F
330
C2
100
AcDbEntity
  8
LAYER0015
 62
     7
100
AcDbBlockReference
  2
_OPEN30
 10
-34.68950388997087
 20
10.33779272696563
 30
0.0
 41
3.000002787824364
 42
2.999989273978464
 50
132.9067811876913
  0
LINE
  5
2A0
330
C2
100
AcDbEntity
  8
LAYER0015
  6
CONTINUOUS
 62
     7
100
AcDbLine
 10
-13.45363514259814
 20
-12.50930046401304
 30
0.0
 11
26.54636485740186
 21
-12.50930046401304
 31
0.0
  0
TEXT
  5
2A1
330
C2
100
AcDbEntity
  8
LAYER0015
 62
     7
100
AcDbText
 10
-12.95363514259815
 20
-12.00930046401304
 30
0.0
 40
3.0
  1
２”ネジ（Ｐ＝２．３０９）
 41
0.8333333333333334
  7
FDASTYLE0
 72
     5
 11
26.04636485740186
 21
-12.00930046401304
 31
0.0
100
AcDbText
  0
ENDBLK
  5
C4
330
C2
100
AcDbEntity
  8
0
100
AcDbBlockEnd
  0
BLOCK
  5
C6
330
C5
100
AcDbEntity
  8
0
100
AcDbBlockBegin
  2
DA_IMAGEDIMGROUP_7
 70
     0
 71
     0
 10
0.0
 20
0.0
 30
0.0
  3
DA_IMAGEDIMGROUP_7
  1

  0
LINE
  5
2A2
330
C5
100
AcDbEntity
  8
LAYER0014
  6
CONTINUOUS
 62
     7
100
AcDbLine
 10
-229.6895038899708
 20
-132.8622093830388
 30
0.0
 11
-250.5481497454421
 21
-132.8622093830388
 31
0.0
  0
LINE
  5
2A3
330
C5
100
AcDbEntity
  8
LAYER0014
  6
CONTINUOUS
 62
     7
100
AcDbLine
 10
-229.6895038899708
 20
23.13779061696121
 30
0.0
 11
-250.5481497454421
 21
23.13779061696121
 31
0.0
  0
LINE
  5
2A4
330
C5
100
AcDbEntity
  8
LAYER0014
  6
CONTINUOUS
 62
     7
100
AcDbLine
 10
-249.5481497454421
 20
-132.8622093830388
 30
0.0
 11
-249.5481497454421
 21
23.13779061696121
 31
0.0
  0
INSERT
  5
2A5
330
C5
100
AcDbEntity
  8
LAYER0014
 62
     7
100
AcDbBlockReference
  2
_OPEN30
 10
-249.5481497454421
 20
-132.8622093830388
 30
0.0
 41
3.000002787824364
 42
2.999989273978464
 50
270.0
  0
INSERT
  5
2A6
330
C5
100
AcDbEntity
  8
LAYER0014
 62
     7
100
AcDbBlockReference
  2
_OPEN30
 10
-249.5481497454421
 20
23.13779061696121
 30
0.0
 41
3.000002787824364
 42
2.999989273978464
 50
90.0
  0
TEXT
  5
2A7
330
C5
100
AcDbEntity
  8
LAYER0014
 62
     7
100
AcDbText
 10
-250.5481497454421
 20
-60.8622093830388
 30
0.0
 40
3.0
  1
φ１５６
 50
90.0
 41
0.8333333333333334
  7
FDASTYLE0
 72
     5
 11
-250.5481497454421
 21
-48.8622093830388
 31
0.0
100
AcDbText
  0
ENDBLK
  5
C7
330
C5
100
AcDbEntity
  8
0
100
AcDbBlockEnd
  0
BLOCK
  5
24C
330
24B
100
AcDbEntity
  8
0
100
AcDbBlockBegin
  2
_OPEN30
 70
     0
 71
     0
 10
0.0
 20
0.0
 30
0.0
  3
_OPEN30
  1

  0
LINE
  5
24E
330
24B
100
AcDbEntity
  8
0
  6
BYBLOCK
 62
     0
100
AcDbLine
 10
-1.0
 20
0.267949
 30
0.0
 11
0.0
 21
0.0
 31
0.0
  0
LINE
  5
24F
330
24B
100
AcDbEntity
  8
0
  6
BYBLOCK
 62
     0
100
AcDbLine
 10
0.0
 20
0.0
 30
0.0
 11
-1.0
 21
-0.267949
 31
0.0
  0
LINE
  5
250
330
24B
100
AcDbEntity
  8
0
  6
BYBLOCK
 62
     0
100
AcDbLine
 10
0.0
 20
0.0
 30
0.0
 11
-1.0
 21
0.0
 31
0.0
  0
ENDBLK
  5
24D
330
24B
100
AcDbEntity
  8
0
100
AcDbBlockEnd
  0
ENDSEC
  0
SECTION
  2
ENTITIES
  0
LINE
  5
2A8
330
1F
100
AcDbEntity
  8
ZUWAKU
  6
CONTINUOUS
 62
     7
100
AcDbLine
 10
150.0
 20
-141.0
 30
0.0
 11
272.0
 21
-141.0
 31
0.0
  0
LINE
  5
2A9
330
1F
100
AcDbEntity
  8
ZUWAKU
  6
CONTINUOUS
 62
     7
100
AcDbLine
 10
150.0
 20
-141.0
 30
0.0
 11
150.0
 21
-200.0
 31
0.0
  0
LINE
  5
2AA
330
1F
100
AcDbEntity
  8
ZUWAKU
  6
CONTINUOUS
 62
     7
100
AcDbLine
 10
150.0
 20
-163.0
 30
0.0
 11
272.0
 21
-163.0
 31
0.0
  0
LINE
  5
2AB
330
1F
100
AcDbEntity
  8
ZUWAKU
  6
CONTINUOUS
 62
     7
100
AcDbLine
 10
150.0
 20
-152.0
 30
0.0
 11
272.0
 21
-152.0
 31
0.0
  0
LINE
  5
2AC
330
1F
100
AcDbEntity
  8
ZUWAKU
  6
CONTINUOUS
 62
     7
100
AcDbLine
 10
150.0
 20
-174.0
 30
0.0
 11
272.0
 21
-174.0
 31
0.0
  0
LINE
  5
2AD
330
1F
100
AcDbEntity
  8
ZUWAKU
  6
CONTINUOUS
 62
     7
100
AcDbLine
 10
150.0
 20
-185.0
 30
0.0
 11
272.0
 21
-185.0
 31
0.0
  0
LINE
  5
2AE
330
1F
100
AcDbEntity
  8
ZUWAKU
  6
CONTINUOUS
 62
     7
100
AcDbLine
 10
238.0
 20
-141.0
 30
0.0
 11
238.0
 21
-185.0
 31
0.0
  0
LINE
  5
2AF
330
1F
100
AcDbEntity
  8
ZUWAKU
  6
CONTINUOUS
 62
     7
100
AcDbLine
 10
194.0
 20
-174.0
 30
0.0
 11
194.0
 21
-185.0
 31
0.0
  0
LINE
  5
2B0
330
1F
100
AcDbEntity
  8
ZUWAKU
  6
CONTINUOUS
 62
     7
100
AcDbLine
 10
216.0
 20
-174.0
 30
0.0
 11
216.0
 21
-185.0
 31
0.0
  0
LINE
  5
2B1
330
1F
100
AcDbEntity
  8
ZUWAKU
  6
CONTINUOUS
 62
     7
100
AcDbLine
 10
172.0
 20
-174.0
 30
0.0
 11
172.0
 21
-185.0
 31
0.0
  0
LINE
  5
2B2
330
1F
100
AcDbEntity
  8
ZUWAKU
  6
CONTINUOUS
 62
     7
100
AcDbLine
 10
-272.0
 20
-158.0
 30
0.0
 11
-72.0
 21
-158.0
 31
0.0
  0
LINE
  5
2B3
330
1F
100
AcDbEntity
  8
ZUWAKU
  6
CONTINUOUS
 62
     7
100
AcDbLine
 10
-272.0
 20
-165.0
 30
0.0
 11
-72.0
 21
-165.0
 31
0.0
  0
LINE
  5
2B4
330
1F
100
AcDbEntity
  8
ZUWAKU
  6
CONTINUOUS
 62
     7
100
AcDbLine
 10
-272.0
 20
-172.0
 30
0.0
 11
-72.0
 21
-172.0
 31
0.0
  0
LINE
  5
2B5
330
1F
100
AcDbEntity
  8
ZUWAKU
  6
CONTINUOUS
 62
     7
100
AcDbLine
 10
-265.0
 20
-158.0
 30
0.0
 11
-265.0
 21
-200.0
 31
0.0
  0
LINE
  5
2B6
330
1F
100
AcDbEntity
  8
ZUWAKU
  6
CONTINUOUS
 62
     7
100
AcDbLine
 10
-272.0
 20
-193.0
 30
0.0
 11
-72.0
 21
-193.0
 31
0.0
  0
LINE
  5
2B7
330
1F
100
AcDbEntity
  8
ZUWAKU
  6
CONTINUOUS
 62
     7
100
AcDbLine
 10
-272.0
 20
-186.0
 30
0.0
 11
-72.0
 21
-186.0
 31
0.0
  0
LINE
  5
2B8
330
1F
100
AcDbEntity
  8
ZUWAKU
  6
CONTINUOUS
 62
     7
100
AcDbLine
 10
-271.5
 20
-179.0
 30
0.0
 11
-72.0
 21
-179.0
 31
0.0
  0
LINE
  5
2B9
330
1F
100
AcDbEntity
  8
ZUWAKU
  6
CONTINUOUS
 62
     7
100
AcDbLine
 10
-235.0
 20
-158.0
 30
0.0
 11
-235.0
 21
-200.0
 31
0.0
  0
LINE
  5
2BA
330
1F
100
AcDbEntity
  8
ZUWAKU
  6
CONTINUOUS
 62
     7
100
AcDbLine
 10
-72.0
 20
-158.0
 30
0.0
 11
-72.0
 21
-200.0
 31
0.0
  0
LINE
  5
2BB
330
1F
100
AcDbEntity
  8
ZUWAKU
  6
CENTER
 62
     7
100
AcDbLine
 10
263.5121813635406
 20
-201.7099811144629
 30
0.0
 11
271.5041747755404
 21
-201.7099811144629
 31
0.0
  0
LINE
  5
2BC
330
1F
100
AcDbEntity
  8
ZUWAKU
  6
CENTER
 62
     7
100
AcDbLine
 10
265.1681670859405
 20
-200.0539899056628
 30
0.0
 11
265.1681670859405
 21
-203.3659833176629
 31
0.0
  0
TEXT
  5
2BD
330
1F
100
AcDbEntity
  8
ZUWAKU
 62
     7
100
AcDbText
 10
238.1520598751473
 20
-143.9344527085942
 30
0.0
 40
2.299999952316284
  1
設計図番
 41
0.8404558677421614
  7
FDASTYLE0
 72
     5
 11
249.9520600658822
 21
-143.9344527085942
 31
0.0
100
AcDbText
  0
TEXT
  5
2BE
330
1F
100
AcDbEntity
  8
ZUWAKU
 62
     7
100
AcDbText
 10
238.2325933361632
 20
-154.7259364847142
 30
0.0
 40
2.299999952316284
  1
図面番号
 41
0.8404558677421614
  7
FDASTYLE0
 72
     5
 11
250.032593526898
 21
-154.7259364847142
 31
0.0
100
AcDbText
  0
TEXT
  5
2BF
330
1F
100
AcDbEntity
  8
ZUWAKU
 62
     7
100
AcDbText
 10
238.313126797179
 20
-176.7921048030491
 30
0.0
 40
2.299999952316284
  1
設計年月日
 41
0.8426966561525857
  7
FDASTYLE0
 72
     5
 11
253.3131270355976
 21
-176.7921048030491
 31
0.0
100
AcDbText
  0
TEXT
  5
2C0
330
1F
100
AcDbEntity
  8
ZUWAKU
 62
     7
100
AcDbText
 10
240.8469300570874
 20
-202.79
 30
0.0
 40
2.160000000000001
  1
Ａ２　　単位：ｍｍ
 41
0.833333333333333
  7
FDASTYLE0
 72
     5
 11
260.2869300570874
 21
-202.79
 31
0.0
100
AcDbText
  0
TEXT
  5
2C1
330
1F
100
AcDbEntity
  8
ZUWAKU
 62
     7
100
AcDbText
 10
216.3245420290309
 20
-176.8968693113116
 30
0.0
 40
2.299999952316284
  1
製図
 41
0.8282208880597839
  7
FDASTYLE0
 72
     5
 11
221.7245421243984
 21
-176.8968693113116
 31
0.0
100
AcDbText
  0
TEXT
  5
2C2
330
1F
100
AcDbEntity
  8
ZUWAKU
 62
     7
100
AcDbText
 10
172.3000421033609
 20
-176.8122068114545
 30
0.0
 40
2.299999952316284
  1
検図
 41
0.8282208880597839
  7
FDASTYLE0
 72
     5
 11
177.7000421987283
 21
-176.8122068114545
 31
0.0
100
AcDbText
  0
TEXT
  5
2C3
330
1F
100
AcDbEntity
  8
ZUWAKU
 62
     7
100
AcDbText
 10
151.1639221623912
 20
-176.8615687050939
 30
0.0
 40
2.299999952316284
  1
承認
 41
0.8282208880597839
  7
FDASTYLE0
 72
     5
 11
156.5639222577586
 21
-176.8615687050939
 31
0.0
100
AcDbText
  0
TEXT
  5
2C4
330
1F
100
AcDbEntity
  8
ZUWAKU
 62
     7
100
AcDbText
 10
194.3000421033609
 20
-176.8122068114545
 30
0.0
 40
2.299999952316284
  1
確認
 41
0.8282208880597839
  7
FDASTYLE0
 72
     5
 11
199.7000421987283
 21
-176.8122068114545
 31
0.0
100
AcDbText
  0
TEXT
  5
2C5
330
1F
100
AcDbEntity
  8
ZUWAKU
 62
     7
100
AcDbText
 10
238.1520598751473
 20
-165.6784871828658
 30
0.0
 40
2.299999952316284
  1
尺　　度
 41
0.8404558677421614
  7
FDASTYLE0
 72
     5
 11
249.9520600658822
 21
-165.6784871828658
 31
0.0
100
AcDbText
  0
TEXT
  5
2C6
330
1F
100
AcDbEntity
  8
ZUWAKU
 62
     7
100
AcDbText
 10
-118.842999458313
 20
-198.1000000238419
 30
0.0
 40
3.200000047683716
  1
確　認
 41
0.6507341227548625
  7
FDASTYLE0
 72
     5
 11
-110.157000541687
 21
-198.1000000238419
 31
0.0
100
AcDbText
  0
TEXT
  5
2C7
330
1F
100
AcDbEntity
  8
ZUWAKU
 62
     7
100
AcDbText
 10
-203.5859980583191
 20
-198.1000000238419
 30
0.0
 40
3.200000047683716
  1
変　　更　　履　　歴
 41
0.6667094916067029
  7
FDASTYLE0
 72
     5
 11
-172.5000021457672
 21
-198.1000000238419
 31
0.0
100
AcDbText
  0
TEXT
  5
2C8
330
1F
100
AcDbEntity
  8
ZUWAKU
 62
     7
100
AcDbText
 10
-84.84299945831299
 20
-198.1000000238419
 30
0.0
 40
3.200000047683716
  1
承　認
 41
0.6507341227548625
  7
FDASTYLE0
 72
     5
 11
-76.15700054168701
 21
-198.1000000238419
 31
0.0
100
AcDbText
  0
TEXT
  5
2C9
330
1F
100
AcDbEntity
  8
ZUWAKU
 62
     7
100
AcDbText
 10
-260.7429986000061
 20
-198.1000000238419
 30
0.0
 40
3.200000047683716
  1
年　　月　　日
 41
0.6638857294227287
  7
FDASTYLE0
 72
     5
 11
-239.2570013999939
 21
-198.1000000238419
 31
0.0
100
AcDbText
  0
TEXT
  5
2CA
330
1F
100
AcDbEntity
  8
ZUWAKU
 62
     7
100
AcDbText
 10
-101.842999458313
 20
-198.1000000238419
 30
0.0
 40
3.200000047683716
  1
検　図
 41
0.6507341227548625
  7
FDASTYLE0
 72
     5
 11
-93.15700054168701
 21
-198.1000000238419
 31
0.0
100
AcDbText
  0
TEXT
  5
2CB
330
1F
100
AcDbEntity
  8
ZUWAKU
 62
     7
100
AcDbText
 10
-135.842999458313
 20
-198.1000000238419
 30
0.0
 40
3.200000047683716
  1
変　更
 41
0.6507341227548625
  7
FDASTYLE0
 72
     5
 11
-127.157000541687
 21
-198.1000000238419
 31
0.0
100
AcDbText
  0
LINE
  5
2CC
330
1F
100
AcDbEntity
  8
ZUWAKU
  6
CONTINUOUS
 62
     7
100
AcDbLine
 10
-272.0
 20
200.0
 30
0.0
 11
272.0
 21
200.0
 31
0.0
  0
LINE
  5
2CD
330
1F
100
AcDbEntity
  8
ZUWAKU
  6
CONTINUOUS
 62
     7
100
AcDbLine
 10
-272.0
 20
-200.0
 30
0.0
 11
272.0
 21
-200.0
 31
0.0
  0
LINE
  5
2CE
330
1F
100
AcDbEntity
  8
ZUWAKU
  6
CONTINUOUS
 62
     7
100
AcDbLine
 10
-272.0
 20
-200.0
 30
0.0
 11
-272.0
 21
200.0
 31
0.0
  0
LINE
  5
2CF
330
1F
100
AcDbEntity
  8
ZUWAKU
  6
CONTINUOUS
 62
     7
100
AcDbLine
 10
272.0
 20
0.0
 30
0.0
 11
297.0
 21
0.0
 31
0.0
  0
LINE
  5
2D0
330
1F
100
AcDbEntity
  8
ZUWAKU
  6
CONTINUOUS
 62
     7
100
AcDbLine
 10
-297.0
 20
0.0
 30
0.0
 11
-272.0
 21
0.0
 31
0.0
  0
LINE
  5
2D1
330
1F
100
AcDbEntity
  8
ZUWAKU
  6
CONTINUOUS
 62
     7
100
AcDbLine
 10
0.0
 20
-210.0
 30
0.0
 11
0.0
 21
-200.0
 31
0.0
  0
LINE
  5
2D2
330
1F
100
AcDbEntity
  8
ZUWAKU
  6
CONTINUOUS
 62
     7
100
AcDbLine
 10
0.0
 20
200.0
 30
0.0
 11
0.0
 21
210.0
 31
0.0
  0
LINE
  5
2D3
330
1F
100
AcDbEntity
  8
ZUWAKU
  6
CONTINUOUS
 62
     7
100
AcDbLine
 10
-72.0
 20
-158.0
 30
0.0
 11
-72.0
 21
-190.0000000000001
 31
0.0
  0
LINE
  5
2D4
330
1F
100
AcDbEntity
  8
ZUWAKU
  6
CONTINUOUS
 62
     7
100
AcDbLine
 10
-89.0
 20
-158.0
 30
0.0
 11
-89.0
 21
-200.0
 31
0.0
  0
LINE
  5
2D5
330
1F
100
AcDbEntity
  8
ZUWAKU
  6
CONTINUOUS
 62
     7
100
AcDbLine
 10
-106.0
 20
-158.0
 30
0.0
 11
-106.0
 21
-200.0
 31
0.0
  0
LINE
  5
2D6
330
1F
100
AcDbEntity
  8
ZUWAKU
  6
CONTINUOUS
 62
     7
100
AcDbLine
 10
-123.0
 20
-158.0
 30
0.0
 11
-123.0
 21
-200.0
 31
0.0
  0
LINE
  5
2D7
330
1F
100
AcDbEntity
  8
ZUWAKU
  6
CONTINUOUS
 62
     7
100
AcDbLine
 10
-140.0
 20
-158.0
 30
0.0
 11
-140.0
 21
-200.0
 31
0.0
  0
LINE
  5
2D8
330
1F
100
AcDbEntity
  8
ZUWAKU
  6
CONTINUOUS
 62
     7
100
AcDbLine
 10
272.0
 20
-200.0
 30
0.0
 11
272.0
 21
200.0
 31
0.0
  0
LINE
  5
2D9
330
1F
100
AcDbEntity
  8
ZUWAKU
  6
CONTINUOUS
 62
     7
100
AcDbLine
 10
268.0482000403404
 20
-201.1699975952629
 30
0.0
 11
270.9282000403404
 21
-200.6299866080629
 31
0.0
  0
LINE
  5
2DA
330
1F
100
AcDbEntity
  8
ZUWAKU
  6
CONTINUOUS
 62
     7
100
AcDbLine
 10
270.9281835595405
 20
-202.7900030888629
 30
0.0
 11
268.0481835595404
 21
-202.2499921016628
 31
0.0
  0
CIRCLE
  5
2DB
330
1F
100
AcDbEntity
  8
ZUWAKU
  6
CONTINUOUS
 62
     7
100
AcDbCircle
 10
265.1681670859405
 20
-201.7099811144629
 30
0.0
 40
0.5400000000000002
  0
LINE
  5
2DC
330
1F
100
AcDbEntity
  8
ZUWAKU
  6
CONTINUOUS
 62
     7
100
AcDbLine
 10
268.0481670859405
 20
-201.1699811144629
 30
0.0
 11
268.0481670859405
 21
-202.2499921016628
 31
0.0
  0
LINE
  5
2DD
330
1F
100
AcDbEntity
  8
ZUWAKU
  6
CONTINUOUS
 62
     7
100
AcDbLine
 10
270.9281670859405
 20
-200.6299811144629
 30
0.0
 11
270.9281670859405
 21
-202.7899921016629
 31
0.0
  0
CIRCLE
  5
2DE
330
1F
100
AcDbEntity
  8
ZUWAKU
  6
CONTINUOUS
 62
     7
100
AcDbCircle
 10
265.1681670859405
 20
-201.7099811144629
 30
0.0
 40
1.08
  0
INSERT
  5
2DF
330
1F
100
AcDbEntity
  8
0
  6
CONTINUOUS
100
AcDbBlockReference
  2
DC_GROUP_1
 10
0.0
 20
0.0
 30
0.0
  0
INSERT
  5
2E0
330
1F
100
AcDbEntity
  8
0
  6
CONTINUOUS
100
AcDbBlockReference
  2
DC_GROUP_19
 10
0.0
 20
0.0
 30
0.0
  0
INSERT
  5
2E1
330
1F
100
AcDbEntity
  8
0
  6
CONTINUOUS
100
AcDbBlockReference
  2
DC_GROUP_32
 10
0.0
 20
0.0
 30
0.0
  0
INSERT
  5
2E2
330
1F
100
AcDbEntity
  8
ZUWAKU
  6
CONTINUOUS
100
AcDbBlockReference
  2
DC_GROUP_13
 10
0.0
 20
0.0
 30
0.0
  0
INSERT
  5
2E3
330
1F
100
AcDbEntity
  8
ZUWAKU
  6
CONTINUOUS
100
AcDbBlockReference
  2
DC_GROUP_14
 10
0.0
 20
0.0
 30
0.0
  0
INSERT
  5
2E4
330
1F
100
AcDbEntity
  8
ZUWAKU
  6
CONTINUOUS
100
AcDbBlockReference
  2
DC_GROUP_15
 10
0.0
 20
0.0
 30
0.0
  0
INSERT
  5
2E5
330
1F
100
AcDbEntity
  8
ZUWAKU
  6
CONTINUOUS
100
AcDbBlockReference
  2
DC_GROUP_16
 10
0.0
 20
0.0
 30
0.0
  0
INSERT
  5
2E6
330
1F
100
AcDbEntity
  8
ZUWAKU
  6
CONTINUOUS
100
AcDbBlockReference
  2
DC_GROUP_17
 10
0.0
 20
0.0
 30
0.0
  0
INSERT
  5
2E7
330
1F
100
AcDbEntity
  8
ZUWAKU
  6
CONTINUOUS
100
AcDbBlockReference
  2
DC_GROUP_18
 10
0.0
 20
0.0
 30
0.0
  0
TEXT
  5
2E8
330
1F
100
AcDbEntity
  8
LAYER0015
 62
     7
100
AcDbText
 10
151.3989409990018
 20
-149.2858541646939
 30
0.0
 40
5.0
  1
ＥＣ－Ｃ１　ＧＢ２（エルボ・ナット・ＰＫ付）
 41
0.6500000000000001
  7
FDASTYLE0
 72
     5
 11
237.1989409990018
 21
-149.2858541646939
 31
0.0
100
AcDbText
  0
TEXT
  5
2E9
330
1F
100
AcDbEntity
  8
LAYER0015
 62
     7
100
AcDbText
 10
218.0036298799668
 20
-184.1250673737398
 30
0.0
 40
5.0
  1
清水
 41
0.8333333333333334
  7
FDASTYLE0
 72
     5
 11
228.0036298799668
 21
-184.1250673737398
 31
0.0
100
AcDbText
  0
TEXT
  5
2EA
330
1F
100
AcDbEntity
  8
LAYER0015
 62
     7
100
AcDbText
 10
240.1373477672534
 20
-183.1299971599926
 30
0.0
 40
3.0
  1
２０１１．０１．３１
 41
0.8333333333333334
  7
FDASTYLE0
 72
     5
 11
270.1373477672534
 21
-183.1299971599926
 31
0.0
100
AcDbText
  0
TEXT
  5
2EB
330
1F
100
AcDbEntity
  8
LAYER0015
 62
     7
100
AcDbText
 10
246.8021108179422
 20
-172.8931398416885
 30
0.0
 40
5.0
  1
１／１
 41
0.8333333333333334
  7
FDASTYLE0
 72
     5
 11
261.8021108179422
 21
-172.8931398416885
 31
0.0
100
AcDbText
  0
TEXT
  5
2EC
330
1F
100
AcDbEntity
  8
LAYER0015
 62
     7
100
AcDbText
 10
239.1499131482343
 20
-162.1298122790417
 30
0.0
 40
5.0
  1
１６３０２
 41
0.8333333333333324
  7
FDASTYLE0
 72
     5
 11
264.1499131482343
 21
-162.1298122790417
 31
0.0
100
AcDbText
  0
TEXT
  5
2ED
330
1F
100
AcDbEntity
  8
0
 62
     7
100
AcDbText
 10
255.4569999575615
 20
-90.25
 30
0.0
 40
3.0
  1
１５３０６
 41
0.8333333333333334
  7
FDASTYLE0
 72
     5
 11
270.4569999575615
 21
-90.25
 31
0.0
100
AcDbText
  0
TEXT
  5
2EE
330
1F
100
AcDbEntity
  8
0
 62
     7
100
AcDbText
 10
190.935917180567
 20
-90.06146355137446
 30
0.0
 40
3.0
  1
ＥＣ－１本体
 41
0.8333333333333334
  7
FDASTYLE0
 72
     5
 11
208.935917180567
 21
-90.06146355137446
 31
0.0
100
AcDbText
  0
TEXT
  5
2EF
330
1F
100
AcDbEntity
  8
0
 62
     7
100
AcDbText
 10
225.4569999873638
 20
-90.25
 30
0.0
 40
3.0
  1
ＰＰ・ＳＵＳ３０４
 41
0.8333333333333334
  7
FDASTYLE0
 72
     5
 11
252.4569999873638
 21
-90.25
 31
0.0
100
AcDbText
  0
TEXT
  5
2F0
330
1F
100
AcDbEntity
  8
0
 62
     7
100
AcDbText
 10
190.8234694994223
 20
-104.1174236944543
 30
0.0
 40
3.0
  1
ＢＫ防臭器
 41
0.8333333333333334
  7
FDASTYLE0
 72
     5
 11
205.8234694994223
 21
-104.1174236944543
 31
0.0
100
AcDbText
  0
TEXT
  5
2F1
330
1F
100
AcDbEntity
  8
0
 62
     7
100
AcDbText
 10
235.9569999575615
 20
-104.5
 30
0.0
 40
3.0
  1
ＰＰ
 41
0.8333333333333334
  7
FDASTYLE0
 72
     5
 11
241.9569999575615
 21
-104.5
 31
0.0
100
AcDbText
  0
TEXT
  5
2F2
330
1F
100
AcDbEntity
  8
0
 62
     7
100
AcDbText
 10
255.4569999575615
 20
-104.5
 30
0.0
 40
3.0
  1
１５１２８
 41
0.8333333333333334
  7
FDASTYLE0
 72
     5
 11
270.4569999575615
 21
-104.5
 31
0.0
100
AcDbText
  0
TEXT
  5
2F3
330
1F
100
AcDbEntity
  8
0
 62
     7
100
AcDbText
 10
190.8234694994223
 20
-118.3982791998235
 30
0.0
 40
3.0
  1
ＢＫロックナット
 41
0.8333333333333334
  7
FDASTYLE0
 72
     5
 11
214.8234694994223
 21
-118.3982791998235
 31
0.0
100
AcDbText
  0
TEXT
  5
2F4
330
1F
100
AcDbEntity
  8
0
 62
     7
100
AcDbText
 10
234.4569999575615
 20
-118.5
 30
0.0
 40
3.0
  1
ＡＢＳ
 41
0.8333333333333334
  7
FDASTYLE0
 72
     5
 11
243.4569999575615
 21
-118.5
 31
0.0
100
AcDbText
  0
TEXT
  5
2F5
330
1F
100
AcDbEntity
  8
0
 62
     7
100
AcDbText
 10
255.4569999575615
 20
-118.5
 30
0.0
 40
3.0
  1
１５１２７
 41
0.8333333333333334
  7
FDASTYLE0
 72
     5
 11
270.4569999575615
 21
-118.5
 31
0.0
100
AcDbText
  0
TEXT
  5
2F6
330
1F
100
AcDbEntity
  8
0
 62
     7
100
AcDbText
 10
190.8234694994223
 20
-125.3700354307911
 30
0.0
 40
3.0
  1
ＢＫ平ＰＫ
 41
0.8333333333333334
  7
FDASTYLE0
 72
     5
 11
205.8234694994223
 21
-125.3700354307911
 31
0.0
100
AcDbText
  0
TEXT
  5
2F7
330
1F
100
AcDbEntity
  8
0
 62
     7
100
AcDbText
 10
235.9569999575615
 20
-125.5
 30
0.0
 40
3.0
  1
ＣＲ
 41
0.8333333333333334
  7
FDASTYLE0
 72
     5
 11
241.9569999575615
 21
-125.5
 31
0.0
100
AcDbText
  0
TEXT
  5
2F8
330
1F
100
AcDbEntity
  8
0
 62
     7
100
AcDbText
 10
255.4569999575615
 20
-125.5
 30
0.0
 40
3.0
  1
１５１５４
 41
0.8333333333333334
  7
FDASTYLE0
 72
     5
 11
270.4569999575615
 21
-125.5
 31
0.0
100
AcDbText
  0
TEXT
  5
2F9
330
1F
100
AcDbEntity
  8
0
 62
     7
100
AcDbText
 10
190.8234694994223
 20
-110.8642845631327
 30
0.0
 40
3.0
  1
ＥＣ　カゴ　５０ｍｍ
 41
0.8333333333333334
  7
FDASTYLE0
 72
     5
 11
220.8234694994223
 21
-110.8642845631327
 31
0.0
100
AcDbText
  0
TEXT
  5
2FA
330
1F
100
AcDbEntity
  8
0
 62
     7
100
AcDbText
 10
225.4569999575615
 20
-111.5
 30
0.0
 40
3.0
  1
ＰＰ・ＳＵＳ３０４
 41
0.8333333333333334
  7
FDASTYLE0
 72
     5
 11
252.4569999575615
 21
-111.5
 31
0.0
100
AcDbText
  0
TEXT
  5
2FB
330
1F
100
AcDbEntity
  8
0
 62
     7
100
AcDbText
 10
255.380932663239
 20
-111.2141217933605
 30
0.0
 40
3.0
  1
１５３１５
 41
0.8333333333333334
  7
FDASTYLE0
 72
     5
 11
270.380932663239
 21
-111.2141217933605
 31
0.0
100
AcDbText
  0
TEXT
  5
2FC
330
1F
100
AcDbEntity
  8
0
 62
     7
100
AcDbText
 10
190.8234694994223
 20
-132.9040300674819
 30
0.0
 40
3.0
  1
排水プレ－トＣ
 41
0.8333333333333334
  7
FDASTYLE0
 72
     5
 11
211.8234694994223
 21
-132.9040300674819
 31
0.0
100
AcDbText
  0
TEXT
  5
2FD
330
1F
100
AcDbEntity
  8
0
 62
     7
100
AcDbText
 10
235.9569999575615
 20
-132.5
 30
0.0
 40
3.0
  1
ＰＰ
 41
0.8333333333333334
  7
FDASTYLE0
 72
     5
 11
241.9569999575615
 21
-132.5
 31
0.0
100
AcDbText
  0
TEXT
  5
2FE
330
1F
100
AcDbEntity
  8
0
 62
     7
100
AcDbText
 10
255.4569999575615
 20
-132.5
 30
0.0
 40
3.0
  1
１５３６４
 41
0.8333333333333334
  7
FDASTYLE0
 72
     5
 11
270.4569999575615
 21
-132.5
 31
0.0
100
AcDbText
  0
TEXT
  5
2FF
330
1F
100
AcDbEntity
  8
0
 62
     7
100
AcDbText
 10
181.4714269638062
 20
-98.40000009536743
 30
0.0
 40
4.800000190734863
  1
６
 41
0.5952383672434078
  7
FDASTYLE0
 72
     5
 11
184.9000000953674
 21
-98.40000009536743
 31
0.0
100
AcDbText
  0
TEXT
  5
300
330
1F
100
AcDbEntity
  8
0
 62
     7
100
AcDbText
 10
181.4714269638062
 20
-105.4000000953674
 30
0.0
 40
4.800000190734863
  1
５
 41
0.5952383672434078
  7
FDASTYLE0
 72
     5
 11
184.9000000953674
 21
-105.4000000953674
 31
0.0
100
AcDbText
  0
TEXT
  5
301
330
1F
100
AcDbEntity
  8
0
 62
     7
100
AcDbText
 10
181.4714269638062
 20
-112.4000000953674
 30
0.0
 40
4.800000190734863
  1
４
 41
0.5952383672434078
  7
FDASTYLE0
 72
     5
 11
184.9000000953674
 21
-112.4000000953674
 31
0.0
100
AcDbText
  0
TEXT
  5
302
330
1F
100
AcDbEntity
  8
0
 62
     7
100
AcDbText
 10
181.4714269638062
 20
-119.4000000953674
 30
0.0
 40
4.800000190734863
  1
３
 41
0.5952383672434078
  7
FDASTYLE0
 72
     5
 11
184.9000000953674
 21
-119.4000000953674
 31
0.0
100
AcDbText
  0
TEXT
  5
303
330
1F
100
AcDbEntity
  8
0
 62
     7
100
AcDbText
 10
181.4714269638062
 20
-126.4000000953674
 30
0.0
 40
4.800000190734863
  1
２
 41
0.5952383672434078
  7
FDASTYLE0
 72
     5
 11
184.9000000953674
 21
-126.4000000953674
 31
0.0
100
AcDbText
  0
TEXT
  5
304
330
1F
100
AcDbEntity
  8
0
 62
     7
100
AcDbText
 10
181.4714269638062
 20
-133.4000000953674
 30
0.0
 40
4.800000190734863
  1
１
 41
0.5952383672434078
  7
FDASTYLE0
 72
     5
 11
184.9000000953674
 21
-133.4000000953674
 31
0.0
100
AcDbText
  0
TEXT
  5
305
330
1F
100
AcDbEntity
  8
0
 62
     7
100
AcDbText
 10
176.6714267730713
 20
-140.4000000953674
 30
0.0
 40
4.800000190734863
  1
図　番
 41
0.650685111584705
  7
FDASTYLE0
 72
     5
 11
189.7000002861023
 21
-140.4000000953674
 31
0.0
100
AcDbText
  0
TEXT
  5
306
330
1F
100
AcDbEntity
  8
0
 62
     7
100
AcDbText
 10
254.2714266777039
 20
-140.4000000953674
 30
0.0
 40
4.800000190734863
  1
備　　考
 41
0.6565658279115488
  7
FDASTYLE0
 72
     5
 11
272.1000003814697
 21
-140.4000000953674
 31
0.0
100
AcDbText
  0
TEXT
  5
307
330
1F
100
AcDbEntity
  8
0
 62
     7
100
AcDbText
 10
227.8714265823364
 20
-140.4000000953674
 30
0.0
 40
4.800000190734863
  1
材　　　質
 41
0.6600001663367191
  7
FDASTYLE0
 72
     5
 11
250.5000004768372
 21
-140.4000000953674
 31
0.0
100
AcDbText
  0
TEXT
  5
308
330
1F
100
AcDbEntity
  8
0
 62
     7
100
AcDbText
 10
193.971426486969
 20
-140.4000000953674
 30
0.0
 40
4.800000190734863
  1
品　　　　名
 41
0.6622518187178339
  7
FDASTYLE0
 72
     5
 11
221.4000005722046
 21
-140.4000000953674
 31
0.0
100
AcDbText
  0
TEXT
  5
309
330
1F
100
AcDbEntity
  8
0
 62
     7
100
AcDbText
 10
181.4714269638062
 20
-91.40000009536743
 30
0.0
 40
4.800000190734863
  1
７
 41
0.5952383672434078
  7
FDASTYLE0
 72
     5
 11
184.9000000953674
 21
-91.40000009536743
 31
0.0
100
AcDbText
  0
TEXT
  5
30A
330
1F
100
AcDbEntity
  8
0
 62
     7
100
AcDbText
 10
181.4714269638062
 20
-84.40000009536743
 30
0.0
 40
4.800000190734863
  1
８
 41
0.5952383672434078
  7
FDASTYLE0
 72
     5
 11
184.9000000953674
 21
-84.40000009536743
 31
0.0
100
AcDbText
  0
TEXT
  5
30B
330
1F
100
AcDbEntity
  8
0
 62
     7
100
AcDbText
 10
181.4714269638062
 20
-77.40000009536743
 30
0.0
 40
4.800000190734863
  1
９
 41
0.5952383672434078
  7
FDASTYLE0
 72
     5
 11
184.9000000953674
 21
-77.40000009536743
 31
0.0
100
AcDbText
  0
TEXT
  5
30C
330
1F
100
AcDbEntity
  8
0
 62
     7
100
AcDbText
 10
179.0714268684387
 20
-70.40000009536743
 30
0.0
 40
4.800000190734863
  1
１０
 41
0.6382980714498162
  7
FDASTYLE0
 72
     5
 11
187.3000001907349
 21
-70.40000009536743
 31
0.0
100
AcDbText
  0
TEXT
  5
30D
330
1F
100
AcDbEntity
  8
0
 62
     7
100
AcDbText
 10
179.0714268684387
 20
-63.40000009536743
 30
0.0
 40
4.800000190734863
  1
１１
 41
0.6382980714498162
  7
FDASTYLE0
 72
     5
 11
187.3000001907349
 21
-63.40000009536743
 31
0.0
100
AcDbText
  0
TEXT
  5
30E
330
1F
100
AcDbEntity
  8
0
 62
     7
100
AcDbText
 10
179.0714268684387
 20
-56.40000009536743
 30
0.0
 40
4.800000190734863
  1
１２
 41
0.6382980714498162
  7
FDASTYLE0
 72
     5
 11
187.3000001907349
 21
-56.40000009536743
 31
0.0
100
AcDbText
  0
TEXT
  5
30F
330
1F
100
AcDbEntity
  8
0
 62
     7
100
AcDbText
 10
179.0714268684387
 20
-49.40000009536743
 30
0.0
 40
4.800000190734863
  1
１３
 41
0.6382980714498162
  7
FDASTYLE0
 72
     5
 11
187.3000001907349
 21
-49.40000009536743
 31
0.0
100
AcDbText
  0
TEXT
  5
310
330
1F
100
AcDbEntity
  8
0
 62
     7
100
AcDbText
 10
190.5305062466356
 20
-97.07681492268051
 30
0.0
 40
3.0
  1
４８φサンカクＰＫ
 41
0.8333333333333334
  7
FDASTYLE0
 72
     5
 11
217.5305062466356
 21
-97.07681492268051
 31
0.0
100
AcDbText
  0
TEXT
  5
311
330
1F
100
AcDbEntity
  8
0
 62
     7
100
AcDbText
 10
235.9569999575615
 20
-97.5
 30
0.0
 40
3.0
  1
ＣＲ
 41
0.8333333333333334
  7
FDASTYLE0
 72
     5
 11
241.9569999575615
 21
-97.5
 31
0.0
100
AcDbText
  0
TEXT
  5
312
330
1F
100
AcDbEntity
  8
0
 62
     7
100
AcDbText
 10
255.4569999575615
 20
-97.5
 30
0.0
 40
3.0
  1
５５０５２
 41
0.8333333333333334
  7
FDASTYLE0
 72
     5
 11
270.4569999575615
 21
-97.5
 31
0.0
100
AcDbText
  0
TEXT
  5
313
330
1F
100
AcDbEntity
  8
0
 62
     7
100
AcDbText
 10
191.1148508816237
 20
-83.36419415496511
 30
0.0
 40
3.0
  1
ＰＦ２”ナット
 41
0.8333333333333334
  7
FDASTYLE0
 72
     5
 11
212.1148508816237
 21
-83.36419415496511
 31
0.0
100
AcDbText
  0
TEXT
  5
314
330
1F
100
AcDbEntity
  8
0
 62
     7
100
AcDbText
 10
235.9569999873638
 20
-83.5
 30
0.0
 40
3.0
  1
ＰＰ
 41
0.8333333333333334
  7
FDASTYLE0
 72
     5
 11
241.9569999873638
 21
-83.5
 31
0.0
100
AcDbText
  0
TEXT
  5
315
330
1F
100
AcDbEntity
  8
0
 62
     7
100
AcDbText
 10
255.4569999575615
 20
-83.5
 30
0.0
 40
3.0
  1
５５０３７
 41
0.8333333333333334
  7
FDASTYLE0
 72
     5
 11
270.4569999575615
 21
-83.5
 31
0.0
100
AcDbText
  0
TEXT
  5
316
330
1F
100
AcDbEntity
  8
0
 62
     7
100
AcDbText
 10
190.9109314369861
 20
-76.30781186316091
 30
0.0
 40
3.0
  1
ＥＣエルボ（２２５Ｌ）
 41
0.8333333333333333
  7
FDASTYLE0
 72
     5
 11
223.9109314369861
 21
-76.30781186316091
 31
0.0
100
AcDbText
  0
TEXT
  5
317
330
1F
100
AcDbEntity
  8
0
 62
     7
100
AcDbText
 10
235.9569999873638
 20
-76.5
 30
0.0
 40
3.0
  1
ＰＰ
 41
0.8333333333333334
  7
FDASTYLE0
 72
     5
 11
241.9569999873638
 21
-76.5
 31
0.0
100
AcDbText
  0
TEXT
  5
318
330
1F
100
AcDbEntity
  8
0
 62
     7
100
AcDbText
 10
255.4569999575615
 20
-76.5
 30
0.0
 40
3.0
  1
１５５３９
 41
0.8333333333333334
  7
FDASTYLE0
 72
     5
 11
270.4569999575615
 21
-76.5
 31
0.0
100
AcDbText
  0
TEXT
  5
319
330
1F
100
AcDbEntity
  8
0
 62
     7
100
AcDbText
 10
190.8979998761748
 20
-55.47515564892294
 30
0.0
 40
3.0
  1
ＰＨＴＢφ３０ホース
 41
0.8333333333333334
  7
FDASTYLE0
 72
     5
 11
220.8979998761748
 21
-55.47515564892294
 31
0.0
100
AcDbText
  0
TEXT
  5
31A
330
1F
100
AcDbEntity
  8
0
 62
     7
100
AcDbText
 10
191.1718940327998
 20
-62.35035299841719
 30
0.0
 40
3.0
  1
３０φ２＂インナ－三角ＰＫ付
 41
0.625
  7
FDASTYLE0
 72
     5
 11
222.6718940327998
 21
-62.35035299841719
 31
0.0
100
AcDbText
  0
TEXT
  5
31B
330
1F
100
AcDbEntity
  8
0
 62
     7
100
AcDbText
 10
190.914
 20
-69.5
 30
0.0
 40
3.0
  1
２＂手締めナット
 41
0.8333333333333334
  7
FDASTYLE0
 72
     5
 11
214.914
 21
-69.5
 31
0.0
100
AcDbText
  0
TEXT
  5
31C
330
1F
100
AcDbEntity
  8
0
 62
     7
100
AcDbText
 10
255.4140006899834
 20
-55.60000002384186
 30
0.0
 40
3.200000047683716
  1
５５４０６
 41
0.6600454397272698
  7
FDASTYLE0
 72
     5
 11
270.4999992251396
 21
-55.60000002384186
 31
0.0
100
AcDbText
  0
TEXT
  5
31D
330
1F
100
AcDbEntity
  8
0
 62
     7
100
AcDbText
 10
255.4140007793903
 20
-62.60000002384186
 30
0.0
 40
3.200000047683716
  1
５５３７１
 41
0.6600454361810901
  7
FDASTYLE0
 72
     5
 11
270.499999076128
 21
-62.60000002384186
 31
0.0
100
AcDbText
  0
TEXT
  5
31E
330
1F
100
AcDbEntity
  8
0
 62
     7
100
AcDbText
 10
255.7605279426951
 20
-69.62886790187804
 30
0.0
 40
3.200000047683716
  1
５５３８０
 41
0.6600454954301211
  7
FDASTYLE0
 72
     5
 11
270.8465279083628
 21
-69.62886790187804
 31
0.0
100
AcDbText
  0
TEXT
  5
31F
330
1F
100
AcDbEntity
  8
0
 62
     7
100
AcDbText
 10
235.9569999873638
 20
-69.25
 30
0.0
 40
3.0
  1
ＰＰ
 41
0.8333333333333334
  7
FDASTYLE0
 72
     5
 11
241.9569999873638
 21
-69.25
 31
0.0
100
AcDbText
  0
TEXT
  5
320
330
1F
100
AcDbEntity
  8
0
 62
     7
100
AcDbText
 10
229.9569999873638
 20
-62.25
 30
0.0
 40
3.0
  1
ＡＢＳ・ＣＲ
 41
0.8333333333333334
  7
FDASTYLE0
 72
     5
 11
247.9569999873638
 21
-62.25
 31
0.0
100
AcDbText
  0
TEXT
  5
321
330
1F
100
AcDbEntity
  8
0
 62
     7
100
AcDbText
 10
229.9569999873638
 20
-55.25
 30
0.0
 40
3.0
  1
ＰＶＣ・鉄線
 41
0.8333333333333334
  7
FDASTYLE0
 72
     5
 11
247.9569999873638
 21
-55.25
 31
0.0
100
AcDbText
  0
TEXT
  5
322
330
1F
100
AcDbEntity
  8
0
 62
     7
100
AcDbText
 10
190.7968940327997
 20
-48.00455722177638
 30
0.0
 40
3.0
  1
Ｙ防臭キャップ
 41
0.8333333333333334
  7
FDASTYLE0
 72
     5
 11
211.7968940327997
 21
-48.00455722177638
 31
0.0
100
AcDbText
  0
TEXT
  5
323
330
1F
100
AcDbEntity
  8
0
 62
     7
100
AcDbText
 10
232.9569999873638
 20
-48.5
 30
0.0
 40
3.0
  1
ＥＰＤＭ
 41
0.8333333333333334
  7
FDASTYLE0
 72
     5
 11
244.9569999873638
 21
-48.5
 31
0.0
100
AcDbText
  0
TEXT
  5
324
330
1F
100
AcDbEntity
  8
0
 62
     7
100
AcDbText
 10
255.4569999575615
 20
-48.5
 30
0.0
 40
3.0
  1
９５６１９
 41
0.8333333333333334
  7
FDASTYLE0
 72
     5
 11
270.4569999575615
 21
-48.5
 31
0.0
100
AcDbText
  0
LINE
  5
325
330
1F
100
AcDbEntity
  8
0
  6
CONTINUOUS
 62
     7
100
AcDbLine
 10
175.0
 20
-120.5
 30
0.0
 11
272.0
 21
-120.5
 31
0.0
  0
LINE
  5
326
330
1F
100
AcDbEntity
  8
0
  6
CONTINUOUS
 62
     7
100
AcDbLine
 10
175.0
 20
-127.5
 30
0.0
 11
272.0
 21
-127.5
 31
0.0
  0
LINE
  5
327
330
1F
100
AcDbEntity
  8
0
  6
CONTINUOUS
 62
     7
100
AcDbLine
 10
175.0
 20
-113.5
 30
0.0
 11
272.0
 21
-113.5
 31
0.0
  0
LINE
  5
328
330
1F
100
AcDbEntity
  8
0
  6
CONTINUOUS
 62
     7
100
AcDbLine
 10
175.0
 20
-106.5
 30
0.0
 11
272.0
 21
-106.5
 31
0.0
  0
LINE
  5
329
330
1F
100
AcDbEntity
  8
0
  6
CONTINUOUS
 62
     7
100
AcDbLine
 10
175.0
 20
-99.5
 30
0.0
 11
272.0
 21
-99.5
 31
0.0
  0
LINE
  5
32A
330
1F
100
AcDbEntity
  8
0
  6
CONTINUOUS
 62
     7
100
AcDbLine
 10
175.0
 20
-92.5
 30
0.0
 11
272.0
 21
-92.5
 31
0.0
  0
LINE
  5
32B
330
1F
100
AcDbEntity
  8
0
  6
CONTINUOUS
 62
     7
100
AcDbLine
 10
175.0
 20
-134.5
 30
0.0
 11
272.0
 21
-134.5
 31
0.0
  0
LINE
  5
32C
330
1F
100
AcDbEntity
  8
0
  6
CONTINUOUS
 62
     7
100
AcDbLine
 10
175.0
 20
-43.5
 30
0.0
 11
175.0
 21
-141.0
 31
0.0
  0
LINE
  5
32D
330
1F
100
AcDbEntity
  8
0
  6
CONTINUOUS
 62
     7
100
AcDbLine
 10
190.0
 20
-43.5
 30
0.0
 11
190.0
 21
-141.0
 31
0.0
  0
LINE
  5
32E
330
1F
100
AcDbEntity
  8
0
  6
CONTINUOUS
 62
     7
100
AcDbLine
 10
224.0
 20
-43.5
 30
0.0
 11
224.0
 21
-141.0
 31
0.0
  0
LINE
  5
32F
330
1F
100
AcDbEntity
  8
0
  6
CONTINUOUS
 62
     7
100
AcDbLine
 10
253.0
 20
-43.5
 30
0.0
 11
253.0
 21
-141.0
 31
0.0
  0
LINE
  5
330
330
1F
100
AcDbEntity
  8
0
  6
CONTINUOUS
 62
     7
100
AcDbLine
 10
175.0
 20
-85.5
 30
0.0
 11
272.0
 21
-85.5
 31
0.0
  0
LINE
  5
331
330
1F
100
AcDbEntity
  8
0
  6
CONTINUOUS
 62
     7
100
AcDbLine
 10
175.0
 20
-78.5
 30
0.0
 11
272.0
 21
-78.5
 31
0.0
  0
LINE
  5
332
330
1F
100
AcDbEntity
  8
0
  6
CONTINUOUS
 62
     7
100
AcDbLine
 10
175.0
 20
-71.5
 30
0.0
 11
272.0
 21
-71.5
 31
0.0
  0
LINE
  5
333
330
1F
100
AcDbEntity
  8
0
  6
CONTINUOUS
 62
     7
100
AcDbLine
 10
175.0
 20
-64.5
 30
0.0
 11
272.0
 21
-64.5
 31
0.0
  0
LINE
  5
334
330
1F
100
AcDbEntity
  8
0
  6
CONTINUOUS
 62
     7
100
AcDbLine
 10
175.0
 20
-57.5
 30
0.0
 11
272.0
 21
-57.5
 31
0.0
  0
LINE
  5
335
330
1F
100
AcDbEntity
  8
0
  6
CONTINUOUS
 62
     7
100
AcDbLine
 10
175.0
 20
-50.5
 30
0.0
 11
272.0
 21
-50.5
 31
0.0
  0
LINE
  5
336
330
1F
100
AcDbEntity
  8
0
  6
CONTINUOUS
 62
     7
100
AcDbLine
 10
175.0
 20
-43.5
 30
0.0
 11
272.0
 21
-43.5
 31
0.0
  0
LINE
  5
337
330
1F
100
AcDbEntity
  8
0
  6
DIVIDE
 62
     7
100
AcDbLine
 10
-91.14389222771695
 20
85.80912067640534
 30
0.0
 11
-36.70759906236378
 21
95.40770789121316
 31
0.0
  0
LINE
  5
338
330
1F
100
AcDbEntity
  8
0
  6
DIVIDE
 62
     7
100
AcDbLine
 10
-92.01213311605159
 20
90.73315944146637
 30
0.0
 11
-37.85041573569231
 21
100.2833315371305
 31
0.0
  0
LINE
  5
339
330
1F
100
AcDbEntity
  8
0
  6
DASHED2
 62
    41
100
AcDbLine
 10
-163.0895038899708
 20
-119.8622093830392
 30
0.0
 11
-196.9203715216869
 21
-122.2873611845959
 31
0.0
  0
LINE
  5
33A
330
1F
100
AcDbEntity
  8
0
  6
DASHED2
 62
    41
100
AcDbLine
 10
-163.0895038899708
 20
10.13779061696127
 30
0.0
 11
-196.920371521687
 21
12.56294241851791
 31
0.0
  0
ARC
  5
33B
330
1F
100
AcDbEntity
  8
0
  6
DASHED2
 62
    41
100
AcDbCircle
 10
-196.9410533294798
 20
-130.2873344509775
 30
0.0
 40
8.0
100
AcDbArc
 50
89.85187729760189
 51
159.2828500300679
  0
ARC
  5
33C
330
1F
100
AcDbEntity
  8
0
  6
DASHED2
 62
    41
100
AcDbCircle
 10
-196.9410533294798
 20
20.56291568489976
 30
0.0
 40
8.0
100
AcDbArc
 50
200.7171499699314
 51
270.148122702398
  0
LINE
  5
33D
330
1F
100
AcDbEntity
  8
0
  6
CONTINUOUS
 62
   211
100
AcDbLine
 10
-215.1881676245511
 20
33.93779061696117
 30
0.0
 11
-225.2199217879993
 21
33.93779061696117
 31
0.0
  0
LINE
  5
33E
330
1F
100
AcDbEntity
  8
0
  6
CONTINUOUS
 62
   211
100
AcDbLine
 10
-226.1881676245511
 20
34.68779061696117
 30
0.0
 11
-229.6881676245512
 21
34.68779061696117
 31
0.0
  0
LINE
  5
33F
330
1F
100
AcDbEntity
  8
0
  6
CONTINUOUS
 62
   211
100
AcDbLine
 10
-230.3928423536497
 20
-131.0967756048837
 30
0.0
 11
-229.8938247911198
 21
-131.128104062981
 31
0.0
  0
LINE
  5
340
330
1F
100
AcDbEntity
  8
0
  6
CONTINUOUS
 62
   211
100
AcDbLine
 10
-232.1930894827377
 20
-143.8122093830388
 30
0.0
 11
-229.6881676245512
 21
-143.8122093830388
 31
0.0
  0
LINE
  5
341
330
1F
100
AcDbEntity
  8
0
  6
CONTINUOUS
 62
   211
100
AcDbLine
 10
-228.8877191619433
 20
-131.0622093830388
 30
0.0
 11
-229.6881676245515
 21
-143.8122093830388
 31
0.0
  0
LINE
  5
342
330
1F
100
AcDbEntity
  8
0
  6
CONTINUOUS
 62
   211
100
AcDbLine
 10
-231.4483484618334
 20
-131.9495493117179
 30
0.0
 11
-232.1928859581988
 21
-143.8089675280128
 31
0.0
  0
LINE
  5
343
330
1F
100
AcDbEntity
  8
0
  6
CONTINUOUS
 62
   211
100
AcDbLine
 10
-228.725791983682
 20
-133.9117882404607
 30
0.0
 11
-228.725791983682
 21
-132.8122093830389
 31
0.0
  0
LINE
  5
344
330
1F
100
AcDbEntity
  8
0
  6
CONTINUOUS
 62
   211
100
AcDbLine
 10
-225.6881676245512
 20
-132.8622093830388
 30
0.0
 11
-225.6881676245512
 21
-133.3122093830389
 31
0.0
  0
LINE
  5
345
330
1F
100
AcDbEntity
  8
0
  6
CONTINUOUS
 62
   211
100
AcDbLine
 10
-210.6881676245511
 20
-133.3122093830388
 30
0.0
 11
-227.8094616461576
 21
-133.3122093830388
 31
0.0
  0
LINE
  5
346
330
1F
100
AcDbEntity
  8
0
  6
CONTINUOUS
 62
   211
100
AcDbLine
 10
-223.6881676245512
 20
-133.3122093830389
 30
0.0
 11
-223.6881676245512
 21
-131.3122093830389
 31
0.0
  0
LINE
  5
347
330
1F
100
AcDbEntity
  8
0
  6
CONTINUOUS
 62
   211
100
AcDbLine
 10
-210.6881676245511
 20
-131.3122093830388
 30
0.0
 11
-223.6881676245511
 21
-131.3122093830388
 31
0.0
  0
LINE
  5
348
330
1F
100
AcDbEntity
  8
0
  6
CONTINUOUS
 62
   211
100
AcDbLine
 10
-223.6881661415071
 20
-131.3122082819757
 30
0.0
 11
-225.6881682989147
 21
-133.3122104393833
 31
0.0
  0
LINE
  5
349
330
1F
100
AcDbEntity
  8
0
  6
CONTINUOUS
 62
   211
100
AcDbLine
 10
-228.8056561628325
 20
-134.2250557604326
 30
0.0
 11
-229.6881679006949
 21
-144.3122111114495
 31
0.0
  0
LINE
  5
34A
330
1F
100
AcDbEntity
  8
0
  6
CONTINUOUS
 62
   211
100
AcDbLine
 10
-229.6881676245512
 20
-143.812209383039
 30
0.0
 11
-229.6881676245512
 21
-144.3122093830388
 31
0.0
  0
LINE
  5
34B
330
1F
100
AcDbEntity
  8
0
  6
CONTINUOUS
 62
   211
100
AcDbLine
 10
-210.6881676245511
 20
-131.3122093830388
 30
0.0
 11
-210.6881676245511
 21
-134.3122094820569
 31
0.0
  0
LINE
  5
34C
330
1F
100
AcDbEntity
  8
0
  6
CONTINUOUS
 62
   211
100
AcDbLine
 10
-213.1881676245511
 20
-135.5526878986639
 30
0.0
 11
-213.1881676245511
 21
-141.5622093830388
 31
0.0
  0
LINE
  5
34D
330
1F
100
AcDbEntity
  8
0
  6
CONTINUOUS
 62
   211
100
AcDbLine
 10
-215.1881676245511
 20
-143.5622093830388
 30
0.0
 11
-225.2199217879993
 21
-143.5622093830388
 31
0.0
  0
LINE
  5
34E
330
1F
100
AcDbEntity
  8
0
  6
CONTINUOUS
 62
   211
100
AcDbLine
 10
-226.1881676245511
 20
-144.3122093830388
 30
0.0
 11
-229.6881676245512
 21
-144.3122093830388
 31
0.0
  0
LINE
  5
34F
330
1F
100
AcDbEntity
  8
0
  6
CONTINUOUS
 62
   211
100
AcDbLine
 10
-213.1881676245511
 20
25.92826913258617
 30
0.0
 11
-213.1881676245511
 21
31.93779061696117
 31
0.0
  0
LINE
  5
350
330
1F
100
AcDbEntity
  8
0
  6
CONTINUOUS
 62
   211
100
AcDbLine
 10
-210.6881676245511
 20
21.68779061696117
 30
0.0
 11
-210.6881676245511
 21
24.68779071597922
 31
0.0
  0
LINE
  5
351
330
1F
100
AcDbEntity
  8
0
  6
CONTINUOUS
 62
   211
100
AcDbLine
 10
-229.6881676245512
 20
34.18779061696117
 30
0.0
 11
-229.6881676245512
 21
34.68779061696117
 31
0.0
  0
LINE
  5
352
330
1F
100
AcDbEntity
  8
0
  6
CONTINUOUS
 62
   211
100
AcDbLine
 10
-228.8845799567743
 20
21.38778756520335
 30
0.0
 11
-229.6881676245515
 21
34.18779061696117
 31
0.0
  0
LINE
  5
353
330
1F
100
AcDbEntity
  8
0
  6
CONTINUOUS
 62
   211
100
AcDbLine
 10
-210.6881676245511
 20
23.68779061696117
 30
0.0
 11
-227.8094616461576
 21
23.68779061696117
 31
0.0
  0
LINE
  5
354
330
1F
100
AcDbEntity
  8
0
  6
CONTINUOUS
 62
   211
100
AcDbLine
 10
-232.1930894827377
 20
34.18779061696117
 30
0.0
 11
-229.6881676245512
 21
34.18779061696117
 31
0.0
  0
LINE
  5
355
330
1F
100
AcDbEntity
  8
0
  6
CONTINUOUS
 62
   211
100
AcDbLine
 10
-230.3928423536497
 20
21.47235683880606
 30
0.0
 11
-229.8938247911198
 21
21.50368529690334
 31
0.0
  0
LINE
  5
356
330
1F
100
AcDbEntity
  8
0
  6
CONTINUOUS
 62
   211
100
AcDbLine
 10
-231.4483484618333
 20
22.32513054564018
 30
0.0
 11
-232.1928859581988
 21
34.18454876193508
 31
0.0
  0
LINE
  5
357
330
1F
100
AcDbEntity
  8
0
  6
CONTINUOUS
 62
   211
100
AcDbLine
 10
-225.6881676245512
 20
23.18779061696117
 30
0.0
 11
-225.6881676245512
 21
23.68779061696117
 31
0.0
  0
LINE
  5
358
330
1F
100
AcDbEntity
  8
0
  6
CONTINUOUS
 62
   211
100
AcDbLine
 10
-223.6881661415072
 20
21.687789515898
 30
0.0
 11
-225.6881682989148
 21
23.68779167330561
 31
0.0
  0
LINE
  5
359
330
1F
100
AcDbEntity
  8
0
  6
CONTINUOUS
 62
   211
100
AcDbLine
 10
-210.6881676245511
 20
21.68779061696117
 30
0.0
 11
-223.6881676245511
 21
21.68779061696117
 31
0.0
  0
LINE
  5
35A
330
1F
100
AcDbEntity
  8
0
  6
CONTINUOUS
 62
   211
100
AcDbLine
 10
-228.8056561628325
 20
24.60063699435503
 30
0.0
 11
-229.6881679006949
 21
34.68779234537195
 31
0.0
  0
LINE
  5
35B
330
1F
100
AcDbEntity
  8
0
  6
CONTINUOUS
 62
   211
100
AcDbLine
 10
-223.6881676245512
 20
23.68779061696117
 30
0.0
 11
-223.6881676245512
 21
21.68779061696117
 31
0.0
  0
LINE
  5
35C
330
1F
100
AcDbEntity
  8
0
  6
CONTINUOUS
 62
   211
100
AcDbLine
 10
-228.725791983682
 20
24.28736947438304
 30
0.0
 11
-228.725791983682
 21
23.18779061696117
 31
0.0
  0
ARC
  5
35D
330
1F
100
AcDbEntity
  8
0
  6
CONTINUOUS
 62
   211
100
AcDbCircle
 10
-216.3394947577298
 20
16.43779061696117
 30
0.0
 40
10.0
100
AcDbArc
 50
55.5884923341218
 51
71.63117424083201
  0
ARC
  5
35E
330
1F
100
AcDbEntity
  8
0
  6
CONTINUOUS
 62
   211
100
AcDbCircle
 10
-229.9564817073147
 20
-132.1261391880406
 30
0.0
 40
1.0
100
AcDbArc
 50
356.4076725144781
 51
446.4076750189562
  0
ARC
  5
35F
330
1F
100
AcDbEntity
  8
0
  6
CONTINUOUS
 62
   211
100
AcDbCircle
 10
-230.4554992698445
 20
-132.0948107299433
 30
0.0
 40
1.0
100
AcDbArc
 50
86.4076650010436
 51
176.4076675055217
  0
ARC
  5
360
330
1F
100
AcDbEntity
  8
0
  6
CONTINUOUS
 62
   211
100
AcDbCircle
 10
-227.8094616461576
 20
-134.3122093830388
 30
0.0
 40
1.0
100
AcDbArc
 50
89.99999749552168
 51
175.0000001454534
  0
ARC
  5
361
330
1F
100
AcDbEntity
  8
0
  6
CONTINUOUS
 62
   211
100
AcDbCircle
 10
-215.1881676245511
 20
-141.5622093830388
 30
0.0
 40
2.0
100
AcDbArc
 50
270.0000025044781
 51
360.0000050089562
  0
ARC
  5
362
330
1F
100
AcDbEntity
  8
0
  6
CONTINUOUS
 62
   211
100
AcDbCircle
 10
-216.3394947577298
 20
-126.0622093830388
 30
0.0
 40
10.0
100
AcDbArc
 50
288.368825759168
 51
304.4115076658782
  0
ARC
  5
363
330
1F
100
AcDbEntity
  8
0
  6
CONTINUOUS
 62
   211
100
AcDbCircle
 10
-215.1881676245511
 20
31.93779061696117
 30
0.0
 40
2.0
100
AcDbArc
 50
359.9999949910438
 51
449.9999974955219
  0
ARC
  5
364
330
1F
100
AcDbEntity
  8
0
  6
CONTINUOUS
 62
   211
100
AcDbCircle
 10
-227.8094616461576
 20
24.68779061696117
 30
0.0
 40
1.0
100
AcDbArc
 50
184.9999998545466
 51
270.0000025044784
  0
ARC
  5
365
330
1F
100
AcDbEntity
  8
0
  6
CONTINUOUS
 62
   211
100
AcDbCircle
 10
-229.9564817073147
 20
22.50172042196303
 30
0.0
 40
1.0
100
AcDbArc
 50
273.5923249810438
 51
363.5923274855219
  0
ARC
  5
366
330
1F
100
AcDbEntity
  8
0
  6
CONTINUOUS
 62
   211
100
AcDbCircle
 10
-230.4554992698445
 20
22.47039196386552
 30
0.0
 40
1.0
100
AcDbArc
 50
183.5923324944783
 51
273.5923349989564
  0
ARC
  5
367
330
1F
100
AcDbEntity
  8
0
  6
CONTINUOUS
 62
   211
100
AcDbCircle
 10
-226.1881676245512
 20
33.68779061696117
 30
0.0
 40
1.0
100
AcDbArc
 50
14.47751218592986
 51
89.99999749552194
  0
ARC
  5
368
330
1F
100
AcDbEntity
  8
0
  6
CONTINUOUS
 62
   211
100
AcDbCircle
 10
-226.1881676245512
 20
-143.3122093830388
 30
0.0
 40
1.0
100
AcDbArc
 50
270.0000025044781
 51
345.5224878140701
  0
LINE
  5
369
330
1F
100
AcDbEntity
  8
0
  6
CONTINUOUS
 62
   211
100
AcDbLine
 10
-20.08774821318264
 20
170.6302352380759
 30
0.0
 11
-14.08774876483369
 21
173.6302349622504
 31
0.0
  0
LINE
  5
36A
330
1F
100
AcDbEntity
  8
0
  6
CONTINUOUS
 62
   211
100
AcDbLine
 10
-20.08774829502215
 20
170.1302347461091
 30
0.0
 11
-20.08774829502215
 21
170.6302347461091
 31
0.0
  0
LINE
  5
36B
330
1F
100
AcDbEntity
  8
0
  6
CONTINUOUS
 62
   211
100
AcDbLine
 10
-20.08774829502215
 20
170.1302347461091
 30
0.0
 11
-12.08774868245234
 21
170.1302347461091
 31
0.0
  0
LINE
  5
36C
330
1F
100
AcDbEntity
  8
0
  6
CONTINUOUS
 62
   211
100
AcDbLine
 10
-12.08774868245234
 20
170.1302347461091
 30
0.0
 11
-12.08774868245234
 21
173.6302347461091
 31
0.0
  0
LINE
  5
36D
330
1F
100
AcDbEntity
  8
0
  6
CONTINUOUS
 62
   211
100
AcDbLine
 10
-14.08774877185931
 20
173.6302347461091
 30
0.0
 11
-12.08774868245234
 21
173.6302347461091
 31
0.0
  0
LINE
  5
36E
330
1F
100
AcDbEntity
  8
0
  6
DASHED2
 62
   211
100
AcDbLine
 10
-224.7497138198549
 20
-138.344321027477
 30
0.0
 11
-225.1919728711902
 21
-143.3993651303674
 31
0.0
  0
LINE
  5
36F
330
1F
100
AcDbEntity
  8
0
  6
DASHED2
 62
   211
100
AcDbLine
 10
-216.3394947577298
 20
-136.0622093830388
 30
0.0
 11
-222.2592278052152
 21
-136.0622093830388
 31
0.0
  0
LINE
  5
370
330
1F
100
AcDbEntity
  8
0
  6
DASHED2
 62
   211
100
AcDbLine
 10
-216.3394947577298
 20
26.43779061696117
 30
0.0
 11
-222.2592278052152
 21
26.43779061696117
 31
0.0
  0
LINE
  5
371
330
1F
100
AcDbEntity
  8
0
  6
DASHED2
 62
   211
100
AcDbLine
 10
-224.7497138198549
 20
28.71990226139931
 30
0.0
 11
-225.1919728711903
 21
33.7749463642898
 31
0.0
  0
ARC
  5
372
330
1F
100
AcDbEntity
  8
0
  6
DASHED2
 62
   211
100
AcDbCircle
 10
-222.2592278052152
 20
-138.5622093830388
 30
0.0
 40
2.5
100
AcDbArc
 50
89.99999749552168
 51
175.0000001454534
  0
ARC
  5
373
330
1F
100
AcDbEntity
  8
0
  6
DASHED2
 62
   211
100
AcDbCircle
 10
-216.3394947577298
 20
16.43779061696117
 30
0.0
 40
10.0
100
AcDbArc
 50
71.63117424083201
 51
89.99999749552198
  0
ARC
  5
374
330
1F
100
AcDbEntity
  8
0
  6
DASHED2
 62
   211
100
AcDbCircle
 10
-216.3394947577298
 20
-126.0622093830388
 30
0.0
 40
10.0
100
AcDbArc
 50
270.000002504478
 51
288.368825759168
  0
ARC
  5
375
330
1F
100
AcDbEntity
  8
0
  6
DASHED2
 62
   211
100
AcDbCircle
 10
-222.2592278052152
 20
28.93779061696117
 30
0.0
 40
2.5
100
AcDbArc
 50
184.9999998545466
 51
270.0000025044784
  0
ARC
  5
376
330
1F
100
AcDbEntity
  8
0
  6
DASHED2
 62
   211
100
AcDbCircle
 10
-226.1881676245512
 20
33.68779061696117
 30
0.0
 40
1.0
100
AcDbArc
 50
4.999999985477104
 51
14.47751218592981
  0
ARC
  5
377
330
1F
100
AcDbEntity
  8
0
  6
DASHED2
 62
   211
100
AcDbCircle
 10
-226.1881676245512
 20
-143.3122093830388
 30
0.0
 40
1.0
100
AcDbArc
 50
345.5224878140701
 51
355.0000000145237
  0
LINE
  5
378
330
1F
100
AcDbEntity
  8
0
  6
CONTINUOUS
 62
     2
100
AcDbLine
 10
-148.4895038899708
 20
-10.86220938303885
 30
0.0
 11
-92.48950770466797
 21
-10.86220938303885
 31
0.0
  0
LINE
  5
379
330
1F
100
AcDbEntity
  8
0
  6
CONTINUOUS
 62
     2
100
AcDbLine
 10
-154.4895038899708
 20
-16.86220938303885
 30
0.0
 11
-154.4895038899708
 21
-54.86220938303885
 31
0.0
  0
LINE
  5
37A
330
1F
100
AcDbEntity
  8
0
  6
CONTINUOUS
 62
     2
100
AcDbLine
 10
-146.9895038899708
 20
-110.8622093830388
 30
0.0
 11
-146.4895038899708
 21
-110.8622093830388
 31
0.0
  0
LINE
  5
37B
330
1F
100
AcDbEntity
  8
0
  6
CONTINUOUS
 62
     2
100
AcDbLine
 10
-148.4895038899709
 20
-112.3622093830388
 30
0.0
 11
-148.8837372889358
 21
-111.644830856567
 31
0.0
  0
LINE
  5
37C
330
1F
100
AcDbEntity
  8
0
  6
CONTINUOUS
 62
     2
100
AcDbLine
 10
-148.803902439723
 20
-115.1079646939943
 30
0.0
 11
-148.4895038899708
 21
-115.3622093830388
 31
0.0
  0
LINE
  5
37D
330
1F
100
AcDbEntity
  8
0
  6
CONTINUOUS
 62
     2
100
AcDbLine
 10
-146.9895038899708
 20
-115.3622093830388
 30
0.0
 11
-146.9895038899708
 21
-110.8622093830388
 31
0.0
  0
LINE
  5
37E
330
1F
100
AcDbEntity
  8
0
  6
CONTINUOUS
 62
     2
100
AcDbLine
 10
-163.4895057973195
 20
-24.86220938303885
 30
0.0
 11
-156.4895057973195
 21
-24.86220938303885
 31
0.0
  0
LINE
  5
37F
330
1F
100
AcDbEntity
  8
0
  6
CONTINUOUS
 62
     2
100
AcDbLine
 10
-163.4895057973195
 20
-70.61220938303885
 30
0.0
 11
-156.4895057973195
 21
-70.61220938303885
 31
0.0
  0
LINE
  5
380
330
1F
100
AcDbEntity
  8
0
  6
CONTINUOUS
 62
     2
100
AcDbLine
 10
-148.4895038899708
 20
-115.3622093830388
 30
0.0
 11
-146.9895038899708
 21
-115.3622093830388
 31
0.0
  0
LINE
  5
381
330
1F
100
AcDbEntity
  8
0
  6
CONTINUOUS
 62
     2
100
AcDbLine
 10
-146.4895038899708
 20
-109.8622093830388
 30
0.0
 11
-136.4895038899708
 21
-109.8622093830388
 31
0.0
  0
LINE
  5
382
330
1F
100
AcDbEntity
  8
0
  6
CONTINUOUS
 62
     2
100
AcDbLine
 10
-136.4895031357857
 20
-109.8622116659479
 30
0.0
 11
-123.489503471971
 21
-100.8622116812074
 31
0.0
  0
LINE
  5
383
330
1F
100
AcDbEntity
  8
0
  6
CONTINUOUS
 62
     2
100
AcDbLine
 10
-148.4895038899708
 20
-115.3622093830388
 30
0.0
 11
-148.4895038899708
 21
-100.8622093830388
 31
0.0
  0
LINE
  5
384
330
1F
100
AcDbEntity
  8
0
  6
CONTINUOUS
 62
     2
100
AcDbLine
 10
-148.9895038899708
 20
-114.7191799824717
 30
0.0
 11
-148.9895038899708
 21
-111.9523695161538
 31
0.0
  0
LINE
  5
385
330
1F
100
AcDbEntity
  8
0
  6
CONTINUOUS
 62
     2
100
AcDbLine
 10
-166.4895057973195
 20
-67.61220938303885
 30
0.0
 11
-166.4895057973195
 21
-27.86220938303885
 31
0.0
  0
LINE
  5
386
330
1F
100
AcDbEntity
  8
0
  6
CONTINUOUS
 62
     2
100
AcDbLine
 10
-148.4895038899708
 20
-8.862209383038845
 30
0.0
 11
-92.48950770466797
 21
-8.862209383038845
 31
0.0
  0
LINE
  5
387
330
1F
100
AcDbEntity
  8
0
  6
CONTINUOUS
 62
     2
100
AcDbLine
 10
-148.4895038899708
 20
-98.86220938303882
 30
0.0
 11
-92.48950770466797
 21
-98.86220938303882
 31
0.0
  0
LINE
  5
388
330
1F
100
AcDbEntity
  8
0
  6
CONTINUOUS
 62
     2
100
AcDbLine
 10
-91.48950770466797
 20
-99.86220938303882
 30
0.0
 11
-91.48950770466797
 21
-78.28732775764868
 31
0.0
  0
LINE
  5
389
330
1F
100
AcDbEntity
  8
0
  6
CONTINUOUS
 62
     2
100
AcDbLine
 10
-156.4895057973195
 20
-92.86220938303882
 30
0.0
 11
-156.4895057973195
 21
-16.86220938303885
 31
0.0
  0
LINE
  5
38A
330
1F
100
AcDbEntity
  8
0
  6
CONTINUOUS
 62
     2
100
AcDbLine
 10
-154.4895038899708
 20
-92.86220938303882
 30
0.0
 11
-154.4895038899708
 21
-54.86220938303885
 31
0.0
  0
LINE
  5
38B
330
1F
100
AcDbEntity
  8
0
  6
CONTINUOUS
 62
     2
100
AcDbLine
 10
-91.48950770466797
 20
-31.43709100842912
 30
0.0
 11
-91.48950770466797
 21
-9.862209383038845
 31
0.0
  0
ARC
  5
38C
330
1F
100
AcDbEntity
  8
0
  6
CONTINUOUS
 62
     2
100
AcDbCircle
 10
-148.4895038899708
 20
-16.86220938303885
 30
0.0
 40
6.0
100
AcDbArc
 50
90.00000250447818
 51
180.0000050089563
  0
ARC
  5
38D
330
1F
100
AcDbEntity
  8
0
  6
CONTINUOUS
 62
     2
100
AcDbCircle
 10
-92.48950770466797
 20
-9.862209383038845
 30
0.0
 40
1.0
100
AcDbArc
 50
269.9999974955218
 51
360.0
  0
ARC
  5
38E
330
1F
100
AcDbEntity
  8
0
  6
CONTINUOUS
 62
     2
100
AcDbCircle
 10
-92.48950770466797
 20
-99.86220938303882
 30
0.0
 40
1.0
100
AcDbArc
 50
0.0
 51
90.00000250447816
  0
ARC
  5
38F
330
1F
100
AcDbEntity
  8
0
  6
CONTINUOUS
 62
     2
100
AcDbCircle
 10
-92.48950770466797
 20
-99.86220938303882
 30
0.0
 40
1.0
100
AcDbArc
 50
269.9999974955218
 51
360.0
  0
ARC
  5
390
330
1F
100
AcDbEntity
  8
0
  6
CONTINUOUS
 62
     2
100
AcDbCircle
 10
-92.48950770466797
 20
-9.862209383038845
 30
0.0
 40
1.0
100
AcDbArc
 50
0.0
 51
90.00000250447816
  0
ARC
  5
391
330
1F
100
AcDbEntity
  8
0
  6
CONTINUOUS
 62
     2
100
AcDbCircle
 10
-163.4895057973195
 20
-27.86220938303885
 30
0.0
 40
3.0
100
AcDbArc
 50
90.00000000000003
 51
180.0
  0
ARC
  5
392
330
1F
100
AcDbEntity
  8
0
  6
CONTINUOUS
 62
     2
100
AcDbCircle
 10
-148.4895038899708
 20
-114.7191799824717
 30
0.0
 40
0.5
100
AcDbArc
 50
180.0
 51
231.0385696265338
  0
ARC
  5
393
330
1F
100
AcDbEntity
  8
0
  6
CONTINUOUS
 62
     2
100
AcDbCircle
 10
-148.4895038899708
 20
-111.9523695161537
 30
0.0
 40
0.5
100
AcDbArc
 50
90.00000000000003
 51
180.0
  0
ARC
  5
394
330
1F
100
AcDbEntity
  8
0
  6
CONTINUOUS
 62
     2
100
AcDbCircle
 10
-148.4895038899708
 20
-92.86220938303882
 30
0.0
 40
6.0
100
AcDbArc
 50
179.9999949910437
 51
269.9999974955218
  0
ARC
  5
395
330
1F
100
AcDbEntity
  8
0
  6
CONTINUOUS
 62
     2
100
AcDbCircle
 10
-163.4895057973195
 20
-67.61220938303885
 30
0.0
 40
3.0
100
AcDbArc
 50
180.0
 51
270.0
  0
ARC
  5
396
330
1F
100
AcDbEntity
  8
0
  6
CONTINUOUS
 62
     2
100
AcDbCircle
 10
-148.4895038899708
 20
-16.86220938303885
 30
0.0
 40
8.0
100
AcDbArc
 50
90.00000250447818
 51
180.0000050089563
  0
ARC
  5
397
330
1F
100
AcDbEntity
  8
0
  6
CONTINUOUS
 62
     2
100
AcDbCircle
 10
-148.4895038899708
 20
-92.86220938303882
 30
0.0
 40
8.0
100
AcDbArc
 50
179.9999949910437
 51
269.9999974955218
  0
LINE
  5
398
330
1F
100
AcDbEntity
  8
0
  6
CONTINUOUS
 62
     2
100
AcDbLine
 10
-146.4895038899708
 20
-110.8622093830388
 30
0.0
 11
-146.4895038899708
 21
-109.8622093830388
 31
0.0
  0
LINE
  5
399
330
1F
100
AcDbEntity
  8
0
  6
CONTINUOUS
 62
     2
100
AcDbLine
 10
-123.489503471971
 20
-100.8622093830388
 30
0.0
 11
-92.48950770466797
 21
-100.8622093830388
 31
0.0
  0
LINE
  5
39A
330
1F
100
AcDbEntity
  8
0
  6
DASHED2
 62
     2
100
AcDbLine
 10
-146.4895038899708
 20
-109.8622093830388
 30
0.0
 11
-146.4895038899708
 21
-100.8622093830388
 31
0.0
  0
LINE
  5
39B
330
1F
100
AcDbEntity
  8
0
  6
DASHED2
 62
     2
100
AcDbLine
 10
-148.4895038899708
 20
-100.8622093830388
 30
0.0
 11
-123.489503471971
 21
-100.8622093830388
 31
0.0
  0
LINE
  5
39C
330
1F
100
AcDbEntity
  8
0
  6
CONTINUOUS
 62
   160
100
AcDbLine
 10
-233.489504366808
 20
-54.86220938303885
 30
0.0
 11
-233.489504366808
 21
15.33778947255203
 31
0.0
  0
LINE
  5
39D
330
1F
100
AcDbEntity
  8
0
  6
CONTINUOUS
 62
   160
100
AcDbLine
 10
-231.489504366808
 20
17.33778947255203
 30
0.0
 11
-216.9895038899708
 21
17.33778947255203
 31
0.0
  0
LINE
  5
39E
330
1F
100
AcDbEntity
  8
0
  6
CONTINUOUS
 62
   160
100
AcDbLine
 10
-231.559795885973
 20
-19.86220938303885
 30
0.0
 11
-231.5443301495839
 21
-19.86220938303885
 31
0.0
  0
LINE
  5
39F
330
1F
100
AcDbEntity
  8
0
  6
CONTINUOUS
 62
   160
100
AcDbLine
 10
-232.489504366808
 20
-20.53564364054617
 30
0.0
 11
-232.489504366808
 21
8.156503614397678
 31
0.0
  0
LINE
  5
3A0
330
1F
100
AcDbEntity
  8
0
  6
CONTINUOUS
 62
   160
100
AcDbLine
 10
-230.3486857709218
 20
15.33778947255203
 30
0.0
 11
-216.9895038899708
 21
15.33778947255203
 31
0.0
  0
LINE
  5
3A1
330
1F
100
AcDbEntity
  8
0
  6
CONTINUOUS
 62
   160
100
AcDbLine
 10
-215.9895038899708
 20
-11.8482483063024
 30
0.0
 11
-215.9895038899708
 21
16.33778947255203
 31
0.0
  0
LINE
  5
3A2
330
1F
100
AcDbEntity
  8
0
  6
CONTINUOUS
 62
   160
100
AcDbLine
 10
-232.6043247348693
 20
8.506800357275637
 30
0.0
 11
-233.4722723222793
 21
15.07581290917281
 31
0.0
  0
LINE
  5
3A3
330
1F
100
AcDbEntity
  8
0
  6
CONTINUOUS
 62
   160
100
AcDbLine
 10
-231.6129403409291
 20
7.637790616961155
 30
0.0
 11
-228.180316954546
 21
7.637790616961155
 31
0.0
  0
LINE
  5
3A4
330
1F
100
AcDbEntity
  8
0
  6
CONTINUOUS
 62
   160
100
AcDbLine
 10
-211.4895043668079
 20
-54.86220938303885
 30
0.0
 11
-211.4895043668079
 21
-15.86220938303885
 31
0.0
  0
LINE
  5
3A5
330
1F
100
AcDbEntity
  8
0
  6
CONTINUOUS
 62
   160
100
AcDbLine
 10
-222.2069336720711
 20
-6.323288450320121
 30
0.0
 11
-227.2450307886638
 21
6.991683228000596
 31
0.0
  0
LINE
  5
3A6
330
1F
100
AcDbEntity
  8
0
  6
CONTINUOUS
 62
   160
100
AcDbLine
 10
-219.1127121779574
 20
-8.849433540320121
 30
0.0
 11
-225.3744581494594
 21
7.699467431199281
 31
0.0
  0
LINE
  5
3A7
330
1F
100
AcDbEntity
  8
0
  6
CONTINUOUS
 62
   160
100
AcDbLine
 10
-229.8598132428456
 20
9.637790616961155
 30
0.0
 11
-228.180316954546
 21
9.637790616961155
 31
0.0
  0
LINE
  5
3A8
330
1F
100
AcDbEntity
  8
0
  6
CONTINUOUS
 62
   160
100
AcDbLine
 10
-230.8511973539698
 20
10.50680142216274
 30
0.0
 11
-231.3400692878529
 21
14.20680118773774
 31
0.0
  0
LINE
  5
3A9
330
1F
100
AcDbEntity
  8
0
  6
CONTINUOUS
 62
   160
100
AcDbLine
 10
-212.215252984905
 20
-16.82386757571308
 30
0.0
 11
-226.1530188053437
 21
-20.79872089301662
 31
0.0
  0
LINE
  5
3AA
330
1F
100
AcDbEntity
  8
0
  6
CONTINUOUS
 62
   160
100
AcDbLine
 10
-218.1575554819918
 20
-10.14888030453577
 30
0.0
 11
-211.8726033641615
 21
-15.0751685592783
 31
0.0
  0
LINE
  5
3AB
330
1F
100
AcDbEntity
  8
0
  6
CONTINUOUS
 62
   160
100
AcDbLine
 10
-227.4895038899708
 20
-18.99636084177908
 30
0.0
 11
-227.4895038899708
 21
7.360824521990452
 31
0.0
  0
LINE
  5
3AC
330
1F
100
AcDbEntity
  8
0
  6
CONTINUOUS
 62
   160
100
AcDbLine
 10
-220.489504366808
 20
-54.86220938303885
 30
0.0
 11
-220.489504366808
 21
-19.18356682574157
 31
0.0
  0
LINE
  5
3AD
330
1F
100
AcDbEntity
  8
0
  6
CONTINUOUS
 62
   160
100
AcDbLine
 10
-220.489504366808
 20
-54.86220938303885
 30
0.0
 11
-220.489504366808
 21
-90.5408519403361
 31
0.0
  0
LINE
  5
3AE
330
1F
100
AcDbEntity
  8
0
  6
CONTINUOUS
 62
   160
100
AcDbLine
 10
-227.4895038899708
 20
-90.72805792429858
 30
0.0
 11
-227.4895038899708
 21
-117.0852432880681
 31
0.0
  0
LINE
  5
3AF
330
1F
100
AcDbEntity
  8
0
  6
CONTINUOUS
 62
   160
100
AcDbLine
 10
-218.1575554819918
 20
-99.57553846154201
 30
0.0
 11
-211.8726033641615
 21
-94.64925020679925
 31
0.0
  0
LINE
  5
3B0
330
1F
100
AcDbEntity
  8
0
  6
CONTINUOUS
 62
   160
100
AcDbLine
 10
-212.215252984905
 20
-92.90055119036458
 30
0.0
 11
-226.1530188053437
 21
-88.92569787306104
 31
0.0
  0
LINE
  5
3B1
330
1F
100
AcDbEntity
  8
0
  6
CONTINUOUS
 62
   160
100
AcDbLine
 10
-230.8511973539698
 20
-120.2312201882404
 30
0.0
 11
-231.3400692878529
 21
-123.9312199538156
 31
0.0
  0
LINE
  5
3B2
330
1F
100
AcDbEntity
  8
0
  6
CONTINUOUS
 62
   160
100
AcDbLine
 10
-229.8598132428456
 20
-119.3622093830388
 30
0.0
 11
-228.180316954546
 21
-119.3622093830388
 31
0.0
  0
LINE
  5
3B3
330
1F
100
AcDbEntity
  8
0
  6
CONTINUOUS
 62
   160
100
AcDbLine
 10
-219.1127121779574
 20
-100.8749852257575
 30
0.0
 11
-225.3744581494594
 21
-117.4238861972768
 31
0.0
  0
LINE
  5
3B4
330
1F
100
AcDbEntity
  8
0
  6
CONTINUOUS
 62
   160
100
AcDbLine
 10
-222.206933672071
 20
-103.4011303157575
 30
0.0
 11
-227.2450307886637
 21
-116.7161019940783
 31
0.0
  0
LINE
  5
3B5
330
1F
100
AcDbEntity
  8
0
  6
CONTINUOUS
 62
   160
100
AcDbLine
 10
-211.4895043668079
 20
-54.86220938303885
 30
0.0
 11
-211.4895043668079
 21
-93.86220938303882
 31
0.0
  0
LINE
  5
3B6
330
1F
100
AcDbEntity
  8
0
  6
CONTINUOUS
 62
   160
100
AcDbLine
 10
-231.6129403409291
 20
-117.3622093830388
 30
0.0
 11
-228.180316954546
 21
-117.3622093830388
 31
0.0
  0
LINE
  5
3B7
330
1F
100
AcDbEntity
  8
0
  6
CONTINUOUS
 62
   160
100
AcDbLine
 10
-232.6043247348693
 20
-118.2312191233533
 30
0.0
 11
-233.4722723222793
 21
-124.8002316752505
 31
0.0
  0
LINE
  5
3B8
330
1F
100
AcDbEntity
  8
0
  6
CONTINUOUS
 62
   160
100
AcDbLine
 10
-215.9895038899708
 20
-97.87617045977527
 30
0.0
 11
-215.9895038899708
 21
-126.0622082386296
 31
0.0
  0
LINE
  5
3B9
330
1F
100
AcDbEntity
  8
0
  6
CONTINUOUS
 62
   160
100
AcDbLine
 10
-230.3486857709218
 20
-125.0622082386296
 30
0.0
 11
-216.9895038899708
 21
-125.0622082386296
 31
0.0
  0
LINE
  5
3BA
330
1F
100
AcDbEntity
  8
0
  6
CONTINUOUS
 62
   160
100
AcDbLine
 10
-232.489504366808
 20
-89.18877512553149
 30
0.0
 11
-232.489504366808
 21
-117.8809223804753
 31
0.0
  0
LINE
  5
3BB
330
1F
100
AcDbEntity
  8
0
  6
CONTINUOUS
 62
   160
100
AcDbLine
 10
-231.559795885973
 20
-89.86220938303882
 30
0.0
 11
-231.5443301495839
 21
-89.86220938303882
 31
0.0
  0
LINE
  5
3BC
330
1F
100
AcDbEntity
  8
0
  6
CONTINUOUS
 62
   160
100
AcDbLine
 10
-231.489504366808
 20
-127.0622082386296
 30
0.0
 11
-216.9895038899708
 21
-127.0622082386296
 31
0.0
  0
LINE
  5
3BD
330
1F
100
AcDbEntity
  8
0
  6
CONTINUOUS
 62
   160
100
AcDbLine
 10
-233.489504366808
 20
-54.86220938303885
 30
0.0
 11
-233.489504366808
 21
-125.0622082386296
 31
0.0
  0
ARC
  5
3BE
330
1F
100
AcDbEntity
  8
0
  6
CONTINUOUS
 62
   160
100
AcDbCircle
 10
-224.7817623910237
 20
-25.60701090434012
 30
0.0
 40
5.0
100
AcDbArc
 50
105.9173989833306
 51
177.2283390600437
  0
ARC
  5
3BF
330
1F
100
AcDbEntity
  8
0
  6
CONTINUOUS
 62
   160
100
AcDbCircle
 10
379.510467976637
 20
-54.86220938303885
 30
0.0
 40
613.0
100
AcDbArc
 50
176.8152628794197
 51
180.0000025044782
  0
ARC
  5
3C0
330
1F
100
AcDbEntity
  8
0
  6
CONTINUOUS
 62
   160
100
AcDbCircle
 10
-231.489504366808
 20
15.33778947255203
 30
0.0
 40
2.0
100
AcDbArc
 50
90.00000000000001
 51
187.5267548566163
  0
ARC
  5
3C1
330
1F
100
AcDbEntity
  8
0
  6
CONTINUOUS
 62
   160
100
AcDbCircle
 10
-216.9895038899708
 20
16.33778947255203
 30
0.0
 40
1.0
100
AcDbArc
 50
269.9999949910437
 51
359.9999974955218
  0
ARC
  5
3C2
330
1F
100
AcDbEntity
  8
0
  6
CONTINUOUS
 62
   160
100
AcDbCircle
 10
-216.9895038899708
 20
16.33778947255203
 30
0.0
 40
1.0
100
AcDbArc
 50
359.9999974955218
 51
450.0
  0
ARC
  5
3C3
330
1F
100
AcDbEntity
  8
0
  6
CONTINUOUS
 62
   160
100
AcDbCircle
 10
-231.6129403409291
 20
8.637790616961155
 30
0.0
 40
1.0
100
AcDbArc
 50
187.5267548566163
 51
270.0000050089564
  0
ARC
  5
3C4
330
1F
100
AcDbEntity
  8
0
  6
CONTINUOUS
 62
   160
100
AcDbCircle
 10
379.510467976637
 20
-54.86220938303885
 30
0.0
 40
611.0
100
AcDbArc
 50
177.1247045997671
 51
180.0000025044782
  0
ARC
  5
3C5
330
1F
100
AcDbEntity
  8
0
  6
CONTINUOUS
 62
   160
100
AcDbCircle
 10
-231.559795885973
 20
-9.862209621457424
 30
0.0
 40
10.0
100
AcDbArc
 50
269.9999949910437
 51
380.7255576639544
  0
ARC
  5
3C6
330
1F
100
AcDbEntity
  8
0
  6
CONTINUOUS
 62
   160
100
AcDbCircle
 10
-228.180316954546
 20
6.637790616961155
 30
0.0
 40
1.0
100
AcDbArc
 50
20.72555766395437
 51
90.0
  0
ARC
  5
3C7
330
1F
100
AcDbEntity
  8
0
  6
CONTINUOUS
 62
   160
100
AcDbCircle
 10
-231.5443301495839
 20
-20.86220938303885
 30
0.0
 40
1.0
100
AcDbArc
 50
90.0
 51
176.8152628794196
  0
ARC
  5
3C8
330
1F
100
AcDbEntity
  8
0
  6
CONTINUOUS
 62
   160
100
AcDbCircle
 10
-231.559795885973
 20
-9.862209621457424
 30
0.0
 40
12.0
100
AcDbArc
 50
284.8159320556086
 51
380.7255576639544
  0
ARC
  5
3C9
330
1F
100
AcDbEntity
  8
0
  6
CONTINUOUS
 62
   160
100
AcDbCircle
 10
-230.3486857709218
 20
14.33778947255203
 30
0.0
 40
1.0
100
AcDbArc
 50
90.00000000000001
 51
187.5267548566163
  0
ARC
  5
3CA
330
1F
100
AcDbEntity
  8
0
  6
CONTINUOUS
 62
   160
100
AcDbCircle
 10
-228.180316954546
 20
6.637790616961155
 30
0.0
 40
3.0
100
AcDbArc
 50
20.72555766395437
 51
90.0
  0
ARC
  5
3CB
330
1F
100
AcDbEntity
  8
0
  6
CONTINUOUS
 62
   160
100
AcDbCircle
 10
-227.7240786847401
 20
-24.36349493601736
 30
0.0
 40
3.0
100
AcDbArc
 50
104.8159268192812
 51
177.1247045997671
  0
ARC
  5
3CC
330
1F
100
AcDbEntity
  8
0
  6
CONTINUOUS
 62
   160
100
AcDbCircle
 10
-229.8598132428456
 20
10.63779061696116
 30
0.0
 40
1.0
100
AcDbArc
 50
187.5267548566163
 51
270.0000050089564
  0
ARC
  5
3CD
330
1F
100
AcDbEntity
  8
0
  6
CONTINUOUS
 62
   160
100
AcDbCircle
 10
-216.3068533238697
 20
-7.787757221249905
 30
0.0
 40
3.0
100
AcDbArc
 50
200.7255558427216
 51
231.9098431777361
  0
ARC
  5
3CE
330
1F
100
AcDbEntity
  8
0
  6
CONTINUOUS
 62
   160
100
AcDbCircle
 10
379.510467976637
 20
-54.86220938303885
 30
0.0
 40
610.0
100
AcDbArc
 50
177.2283390600437
 51
180.0000025044782
  0
ARC
  5
3CF
330
1F
100
AcDbEntity
  8
0
  6
CONTINUOUS
 62
   160
100
AcDbCircle
 10
-212.4895043668079
 20
-15.86220938303885
 30
0.0
 40
1.0
100
AcDbArc
 50
269.9999949910437
 51
411.9098449989689
  0
ARC
  5
3D0
330
1F
100
AcDbEntity
  8
0
  6
CONTINUOUS
 62
   160
100
AcDbCircle
 10
-212.4895043668079
 20
-93.86220938303882
 30
0.0
 40
1.0
100
AcDbArc
 50
308.0901550010311
 51
450.0000050089564
  0
ARC
  5
3D1
330
1F
100
AcDbEntity
  8
0
  6
CONTINUOUS
 62
   160
100
AcDbCircle
 10
379.510467976637
 20
-54.86220938303885
 30
0.0
 40
610.0
100
AcDbArc
 50
179.9999974955219
 51
182.7716609399563
  0
ARC
  5
3D2
330
1F
100
AcDbEntity
  8
0
  6
CONTINUOUS
 62
   160
100
AcDbCircle
 10
-216.3068533238697
 20
-101.9366615448278
 30
0.0
 40
3.0
100
AcDbArc
 50
128.0901568222639
 51
159.2744441572785
  0
ARC
  5
3D3
330
1F
100
AcDbEntity
  8
0
  6
CONTINUOUS
 62
   160
100
AcDbCircle
 10
-229.8598132428456
 20
-120.3622093830388
 30
0.0
 40
1.0
100
AcDbArc
 50
89.99999499104366
 51
172.4732451433837
  0
ARC
  5
3D4
330
1F
100
AcDbEntity
  8
0
  6
CONTINUOUS
 62
   160
100
AcDbCircle
 10
-227.7240786847401
 20
-85.36092383006033
 30
0.0
 40
3.0
100
AcDbArc
 50
182.8752954002329
 51
255.1840731807188
  0
ARC
  5
3D5
330
1F
100
AcDbEntity
  8
0
  6
CONTINUOUS
 62
   160
100
AcDbCircle
 10
-228.180316954546
 20
-116.3622093830388
 30
0.0
 40
3.0
100
AcDbArc
 50
270.0
 51
339.2744423360456
  0
ARC
  5
3D6
330
1F
100
AcDbEntity
  8
0
  6
CONTINUOUS
 62
   160
100
AcDbCircle
 10
-230.3486857709218
 20
-124.0622082386296
 30
0.0
 40
1.0
100
AcDbArc
 50
172.4732451433837
 51
270.0
  0
ARC
  5
3D7
330
1F
100
AcDbEntity
  8
0
  6
CONTINUOUS
 62
   160
100
AcDbCircle
 10
-231.559795885973
 20
-99.86220914462024
 30
0.0
 40
12.0
100
AcDbArc
 50
339.2744423360456
 51
435.1840679443914
  0
ARC
  5
3D8
330
1F
100
AcDbEntity
  8
0
  6
CONTINUOUS
 62
   160
100
AcDbCircle
 10
-231.5443301495839
 20
-88.86220938303882
 30
0.0
 40
1.0
100
AcDbArc
 50
183.1847371205804
 51
270.0
  0
ARC
  5
3D9
330
1F
100
AcDbEntity
  8
0
  6
CONTINUOUS
 62
   160
100
AcDbCircle
 10
-228.180316954546
 20
-116.3622093830388
 30
0.0
 40
1.0
100
AcDbArc
 50
270.0
 51
339.2744423360456
  0
ARC
  5
3DA
330
1F
100
AcDbEntity
  8
0
  6
CONTINUOUS
 62
   160
100
AcDbCircle
 10
-231.559795885973
 20
-99.86220914462024
 30
0.0
 40
10.0
100
AcDbArc
 50
339.2744423360456
 51
450.0000050089564
  0
ARC
  5
3DB
330
1F
100
AcDbEntity
  8
0
  6
CONTINUOUS
 62
   160
100
AcDbCircle
 10
379.510467976637
 20
-54.86220938303885
 30
0.0
 40
611.0
100
AcDbArc
 50
179.9999974955219
 51
182.8752954002329
  0
ARC
  5
3DC
330
1F
100
AcDbEntity
  8
0
  6
CONTINUOUS
 62
   160
100
AcDbCircle
 10
-231.6129403409291
 20
-118.3622093830388
 30
0.0
 40
1.0
100
AcDbArc
 50
89.99999499104366
 51
172.4732451433837
  0
ARC
  5
3DD
330
1F
100
AcDbEntity
  8
0
  6
CONTINUOUS
 62
   160
100
AcDbCircle
 10
-216.9895038899708
 20
-126.0622082386296
 30
0.0
 40
1.0
100
AcDbArc
 50
270.0
 51
360.0000025044782
  0
ARC
  5
3DE
330
1F
100
AcDbEntity
  8
0
  6
CONTINUOUS
 62
   160
100
AcDbCircle
 10
-216.9895038899708
 20
-126.0622082386296
 30
0.0
 40
1.0
100
AcDbArc
 50
0.0000025044781673
 51
90.00000500895634
  0
ARC
  5
3DF
330
1F
100
AcDbEntity
  8
0
  6
CONTINUOUS
 62
   160
100
AcDbCircle
 10
-231.489504366808
 20
-125.0622082386296
 30
0.0
 40
2.0
100
AcDbArc
 50
172.4732451433837
 51
270.0
  0
ARC
  5
3E0
330
1F
100
AcDbEntity
  8
0
  6
CONTINUOUS
 62
   160
100
AcDbCircle
 10
379.510467976637
 20
-54.86220938303885
 30
0.0
 40
613.0
100
AcDbArc
 50
179.9999974955219
 51
183.1847371205804
  0
ARC
  5
3E1
330
1F
100
AcDbEntity
  8
0
  6
CONTINUOUS
 62
   160
100
AcDbCircle
 10
-224.7817623910237
 20
-84.11740786173758
 30
0.0
 40
5.0
100
AcDbArc
 50
182.7716609399563
 51
254.0826010166694
  0
LINE
  5
3E2
330
1F
100
AcDbEntity
  8
0
  6
CONTINUOUS
 62
     7
100
AcDbLine
 10
-221.8895038899708
 20
18.59279061696114
 30
0.0
 11
-221.4895038899708
 21
18.59279061696114
 31
0.0
  0
LINE
  5
3E3
330
1F
100
AcDbEntity
  8
0
  6
CONTINUOUS
 62
     7
100
AcDbLine
 10
-91.48950579731934
 20
31.13779061696121
 30
0.0
 11
-92.28950388997089
 21
31.13779061696121
 31
0.0
  0
LINE
  5
3E4
330
1F
100
AcDbEntity
  8
0
  6
CONTINUOUS
 62
     7
100
AcDbLine
 10
-221.8895038899708
 20
-128.3172093830389
 30
0.0
 11
-221.4895038899708
 21
-128.3172093830389
 31
0.0
  0
LINE
  5
3E5
330
1F
100
AcDbEntity
  8
0
  6
CONTINUOUS
 62
     7
100
AcDbLine
 10
-230.4503154159123
 20
21.33779061696103
 30
0.0
 11
-228.6895038899708
 21
21.33779061696103
 31
0.0
  0
LINE
  5
3E6
330
1F
100
AcDbEntity
  8
0
  6
CONTINUOUS
 62
     7
100
AcDbLine
 10
-92.28950388997066
 20
4.8377906169612
 30
0.0
 11
-94.28950388997066
 21
6.837790616961087
 31
0.0
  0
LINE
  5
3E7
330
1F
100
AcDbEntity
  8
0
  6
CONTINUOUS
 62
     7
100
AcDbLine
 10
-221.8895038899708
 20
18.63779061696121
 30
0.0
 11
-221.4895038899708
 21
18.63779061696121
 31
0.0
  0
LINE
  5
3E8
330
1F
100
AcDbEntity
  8
0
  6
CONTINUOUS
 62
     7
100
AcDbLine
 10
-163.2825568938386
 20
7.444701213005686
 30
0.0
 11
-202.9185105652326
 21
10.2859882145394
 31
0.0
  0
LINE
  5
3E9
330
1F
100
AcDbEntity
  8
0
  6
CONTINUOUS
 62
     7
100
AcDbLine
 10
-221.8895038899708
 20
18.63779061696121
 30
0.0
 11
-221.8895038899708
 21
18.13779061696121
 31
0.0
  0
LINE
  5
3EA
330
1F
100
AcDbEntity
  8
0
  6
CONTINUOUS
 62
     7
100
AcDbLine
 10
-144.0048092985309
 20
8.515591576688706
 30
0.0
 11
-163.0895038899708
 21
10.13779061696116
 31
0.0
  0
LINE
  5
3EB
330
1F
100
AcDbEntity
  8
0
  6
CONTINUOUS
 62
     7
100
AcDbLine
 10
-221.4895038899708
 20
18.63779061696121
 30
0.0
 11
-221.4895038899708
 21
17.63779061696121
 31
0.0
  0
LINE
  5
3EC
330
1F
100
AcDbEntity
  8
0
  6
CONTINUOUS
 62
     7
100
AcDbLine
 10
-230.4558121960898
 20
18.13779061696121
 30
0.0
 11
-221.8895038899708
 21
18.13779061696121
 31
0.0
  0
LINE
  5
3ED
330
1F
100
AcDbEntity
  8
0
  6
CONTINUOUS
 62
     7
100
AcDbLine
 10
-208.4895038899708
 20
14.13779061696121
 30
0.0
 11
-208.4895038899708
 21
7.037793239565502
 31
0.0
  0
LINE
  5
3EE
330
1F
100
AcDbEntity
  8
0
  6
CONTINUOUS
 62
     7
100
AcDbLine
 10
-227.6895038899709
 20
23.13779061696121
 30
0.0
 11
-225.3895038899709
 21
20.83779061696126
 31
0.0
  0
LINE
  5
3EF
330
1F
100
AcDbEntity
  8
0
  6
CONTINUOUS
 62
     7
100
AcDbLine
 10
-232.0895038899709
 20
32.48779061696112
 30
0.0
 11
-231.4483505411293
 21
22.27513370327031
 31
0.0
  0
LINE
  5
3F0
330
1F
100
AcDbEntity
  8
0
  6
CONTINUOUS
 62
     7
100
AcDbLine
 10
-232.5403695882566
 20
32.27164223711682
 30
0.0
 11
-233.5386381916851
 21
34.35393899680528
 31
0.0
  0
LINE
  5
3F1
330
1F
100
AcDbEntity
  8
0
  6
CONTINUOUS
 62
     7
100
AcDbLine
 10
-233.9526586638589
 20
21.4892484315267
 30
0.0
 11
-234.4890533853668
 21
34.11657030475615
 31
0.0
  0
LINE
  5
3F2
330
1F
100
AcDbEntity
  8
0
  6
CONTINUOUS
 62
     7
100
AcDbLine
 10
-234.4522081592544
 20
21.46802811932164
 30
0.0
 11
-234.9886028807622
 21
34.09534999255132
 31
0.0
  0
LINE
  5
3F3
330
1F
100
AcDbEntity
  8
0
  6
CONTINUOUS
 62
     7
100
AcDbLine
 10
-232.0895038899709
 20
32.48779061696112
 30
0.0
 11
-233.0877724933993
 21
34.57008737664958
 31
0.0
  0
LINE
  5
3F4
330
1F
100
AcDbEntity
  8
0
  6
CONTINUOUS
 62
     7
100
AcDbLine
 10
-234.2895038899708
 20
20.49638446827092
 30
0.0
 11
-234.2895038899708
 21
-54.86220938303885
 31
0.0
  0
LINE
  5
3F5
330
1F
100
AcDbEntity
  8
0
  6
CONTINUOUS
 62
     7
100
AcDbLine
 10
-212.9895038899708
 20
17.63779061696121
 30
0.0
 11
-212.9895038899708
 21
15.13779061696121
 31
0.0
  0
LINE
  5
3F6
330
1F
100
AcDbEntity
  8
0
  6
CONTINUOUS
 62
     7
100
AcDbLine
 10
-204.9395038899708
 20
20.83779061696126
 30
0.0
 11
-204.9395038899708
 21
20.56291568489976
 31
0.0
  0
LINE
  5
3F7
330
1F
100
AcDbEntity
  8
0
  6
CONTINUOUS
 62
     7
100
AcDbLine
 10
-147.404809298531
 20
6.094855381041697
 30
0.0
 11
-163.3181792868583
 21
7.447491830049529
 31
0.0
  0
LINE
  5
3F8
330
1F
100
AcDbEntity
  8
0
  6
CONTINUOUS
 62
     7
100
AcDbLine
 10
-228.6895038899708
 20
23.13779061696121
 30
0.0
 11
-228.6895038899708
 21
21.33779061696103
 31
0.0
  0
LINE
  5
3F9
330
1F
100
AcDbEntity
  8
0
  6
CONTINUOUS
 62
     7
100
AcDbLine
 10
-211.9895038899708
 20
14.13779061696121
 30
0.0
 11
-208.0976221549383
 21
14.13779061696121
 31
0.0
  0
LINE
  5
3FA
330
1F
100
AcDbEntity
  8
0
  6
CONTINUOUS
 62
     7
100
AcDbLine
 10
-230.4558121960898
 20
17.63779061696121
 30
0.0
 11
-209.9895038899708
 21
17.63779061696121
 31
0.0
  0
LINE
  5
3FB
330
1F
100
AcDbEntity
  8
0
  6
CONTINUOUS
 62
     7
100
AcDbLine
 10
-148.9895038899708
 20
-114.7622093830388
 30
0.0
 11
-148.9895038899708
 21
-111.2622093830388
 31
0.0
  0
LINE
  5
3FC
330
1F
100
AcDbEntity
  8
0
  6
CONTINUOUS
 62
     7
100
AcDbLine
 10
-234.9895038899708
 20
34.13779061696121
 30
0.0
 11
-234.9895038899708
 21
-54.86220938303885
 31
0.0
  0
LINE
  5
3FD
330
1F
100
AcDbEntity
  8
0
  6
CONTINUOUS
 62
     7
100
AcDbLine
 10
-221.4895038899708
 20
-128.3622093830388
 30
0.0
 11
-221.4895038899708
 21
-127.3622093830388
 31
0.0
  0
LINE
  5
3FE
330
1F
100
AcDbEntity
  8
0
  6
CONTINUOUS
 62
     7
100
AcDbLine
 10
-144.004809298531
 20
-118.2400103427666
 30
0.0
 11
-163.0895038899708
 21
-119.8622093830389
 31
0.0
  0
LINE
  5
3FF
330
1F
100
AcDbEntity
  8
0
  6
CONTINUOUS
 62
     7
100
AcDbLine
 10
-228.6895038899708
 20
23.13779061696121
 30
0.0
 11
-208.2395038899709
 21
23.13779061696121
 31
0.0
  0
LINE
  5
400
330
1F
100
AcDbEntity
  8
0
  6
CONTINUOUS
 62
     7
100
AcDbLine
 10
-163.2825568938386
 20
-117.1691199790837
 30
0.0
 11
-202.9185105652326
 21
-120.0104069806173
 31
0.0
  0
LINE
  5
401
330
1F
100
AcDbEntity
  8
0
  6
CONTINUOUS
 62
     7
100
AcDbLine
 10
-221.8895038899708
 20
-128.3622093830388
 30
0.0
 11
-221.8895038899708
 21
-127.8622093830388
 31
0.0
  0
LINE
  5
402
330
1F
100
AcDbEntity
  8
0
  6
CONTINUOUS
 62
     7
100
AcDbLine
 10
-225.3895038899708
 20
23.13779061696121
 30
0.0
 11
-225.3895038899708
 21
20.83779061696126
 31
0.0
  0
LINE
  5
403
330
1F
100
AcDbEntity
  8
0
  6
CONTINUOUS
 62
     7
100
AcDbLine
 10
-221.8895038899708
 20
-128.3622093830388
 30
0.0
 11
-221.4895038899708
 21
-128.3622093830388
 31
0.0
  0
LINE
  5
404
330
1F
100
AcDbEntity
  8
0
  6
CONTINUOUS
 62
     7
100
AcDbLine
 10
-230.4558121960898
 20
-127.8622093830388
 30
0.0
 11
-221.8895038899708
 21
-127.8622093830388
 31
0.0
  0
LINE
  5
405
330
1F
100
AcDbEntity
  8
0
  6
CONTINUOUS
 62
     7
100
AcDbLine
 10
-151.4895038899708
 20
-115.247867189004
 30
0.0
 11
-151.4895038899708
 21
-113.7622093830388
 31
0.0
  0
LINE
  5
406
330
1F
100
AcDbEntity
  8
0
  6
CONTINUOUS
 62
     7
100
AcDbLine
 10
-208.4895038899708
 20
-123.8622093830388
 30
0.0
 11
-208.4895038899708
 21
-116.7622120056432
 31
0.0
  0
LINE
  5
407
330
1F
100
AcDbEntity
  8
0
  6
CONTINUOUS
 62
     7
100
AcDbLine
 10
-233.9526586638589
 20
-131.2136671976043
 30
0.0
 11
-234.4890533853667
 21
-143.8409890708339
 31
0.0
  0
LINE
  5
408
330
1F
100
AcDbEntity
  8
0
  6
CONTINUOUS
 62
     7
100
AcDbLine
 10
-225.3895038899708
 20
-132.8622093830388
 30
0.0
 11
-225.3895038899708
 21
-130.5622093830389
 31
0.0
  0
LINE
  5
409
330
1F
100
AcDbEntity
  8
0
  6
CONTINUOUS
 62
     7
100
AcDbLine
 10
-227.6895038899708
 20
-132.8622093830388
 30
0.0
 11
-225.3895038899709
 21
-130.5622093830389
 31
0.0
  0
LINE
  5
40A
330
1F
100
AcDbEntity
  8
0
  6
CONTINUOUS
 62
     7
100
AcDbLine
 10
-232.5403695882566
 20
-141.9960610031947
 30
0.0
 11
-233.538638191685
 21
-144.078357762883
 31
0.0
  0
LINE
  5
40B
330
1F
100
AcDbEntity
  8
0
  6
CONTINUOUS
 62
     7
100
AcDbLine
 10
-232.0895038899709
 20
-142.2122093830388
 30
0.0
 11
-231.4483505411293
 21
-131.999552469348
 31
0.0
  0
LINE
  5
40C
330
1F
100
AcDbEntity
  8
0
  6
CONTINUOUS
 62
     7
100
AcDbLine
 10
-234.4522081592543
 20
-131.1924468853994
 30
0.0
 11
-234.9886028807622
 21
-143.819768758629
 31
0.0
  0
LINE
  5
40D
330
1F
100
AcDbEntity
  8
0
  6
CONTINUOUS
 62
     7
100
AcDbLine
 10
-232.0895038899709
 20
-142.2122093830388
 30
0.0
 11
-233.0877724933993
 21
-144.2945061427273
 31
0.0
  0
LINE
  5
40E
330
1F
100
AcDbEntity
  8
0
  6
CONTINUOUS
 62
     7
100
AcDbLine
 10
-208.2395038899708
 20
-132.8622093830388
 30
0.0
 11
-205.9395038899708
 21
-130.5622093830389
 31
0.0
  0
LINE
  5
40F
330
1F
100
AcDbEntity
  8
0
  6
CONTINUOUS
 62
     7
100
AcDbLine
 10
-228.6895038899708
 20
-132.8622093830388
 30
0.0
 11
-228.6895038899708
 21
-131.0622093830389
 31
0.0
  0
LINE
  5
410
330
1F
100
AcDbEntity
  8
0
  6
CONTINUOUS
 62
     7
100
AcDbLine
 10
-234.2895038899708
 20
-130.2208032343486
 30
0.0
 11
-234.2895038899708
 21
-54.86220938303885
 31
0.0
  0
LINE
  5
411
330
1F
100
AcDbEntity
  8
0
  6
CONTINUOUS
 62
     7
100
AcDbLine
 10
-152.404809298531
 20
-116.2442741471193
 30
0.0
 11
-163.3181792868583
 21
-117.1719105961272
 31
0.0
  0
LINE
  5
412
330
1F
100
AcDbEntity
  8
0
  6
CONTINUOUS
 62
     7
100
AcDbLine
 10
-204.9395038899708
 20
-130.5622093830389
 30
0.0
 11
-204.9395038899708
 21
-130.3092610626454
 31
0.0
  0
LINE
  5
413
330
1F
100
AcDbEntity
  8
0
  6
CONTINUOUS
 62
     7
100
AcDbLine
 10
-212.9895038899708
 20
-127.3622093830388
 30
0.0
 11
-212.9895038899708
 21
-124.8622093830388
 31
0.0
  0
LINE
  5
414
330
1F
100
AcDbEntity
  8
0
  6
CONTINUOUS
 62
     7
100
AcDbLine
 10
-208.2395038899709
 20
-132.8622093830388
 30
0.0
 11
-208.2395038899709
 21
-130.5622093830389
 31
0.0
  0
LINE
  5
415
330
1F
100
AcDbEntity
  8
0
  6
CONTINUOUS
 62
     7
100
AcDbLine
 10
-230.4503154159123
 20
-131.0622093830388
 30
0.0
 11
-228.6895038899708
 21
-131.0622093830388
 31
0.0
  0
LINE
  5
416
330
1F
100
AcDbEntity
  8
0
  6
CONTINUOUS
 62
     7
100
AcDbLine
 10
-211.9895038899708
 20
-123.8622093830388
 30
0.0
 11
-208.0976221549383
 21
-123.8622093830388
 31
0.0
  0
LINE
  5
417
330
1F
100
AcDbEntity
  8
0
  6
CONTINUOUS
 62
     7
100
AcDbLine
 10
-228.6895038899708
 20
-132.8622093830388
 30
0.0
 11
-208.2395038899709
 21
-132.8622093830388
 31
0.0
  0
LINE
  5
418
330
1F
100
AcDbEntity
  8
0
  6
CONTINUOUS
 62
     7
100
AcDbLine
 10
-230.4558121960898
 20
-127.3622093830388
 30
0.0
 11
-209.9895038899708
 21
-127.3622093830388
 31
0.0
  0
LINE
  5
419
330
1F
100
AcDbEntity
  8
0
  6
CONTINUOUS
 62
     7
100
AcDbLine
 10
-146.4895038899708
 20
-114.7622093830388
 30
0.0
 11
-146.4895038899708
 21
-113.1038425811919
 31
0.0
  0
LINE
  5
41A
330
1F
100
AcDbEntity
  8
0
  6
CONTINUOUS
 62
     7
100
AcDbLine
 10
-199.4270712852905
 20
-123.6290665793861
 30
0.0
 11
-163.0895038899708
 21
-119.8622093830387
 31
0.0
  0
LINE
  5
41B
330
1F
100
AcDbEntity
  8
0
  6
CONTINUOUS
 62
     7
100
AcDbLine
 10
-145.5069562964081
 20
-112.1039948860356
 30
0.0
 11
-85.80224185778445
 21
-111.0618452189887
 31
0.0
  0
LINE
  5
41C
330
1F
100
AcDbEntity
  8
0
  6
CONTINUOUS
 62
     7
100
AcDbLine
 10
-143.5069562964081
 20
-32.34505895099815
 30
0.0
 11
-84.0371466706589
 21
-31.3070095627119
 31
0.0
  0
LINE
  5
41D
330
1F
100
AcDbEntity
  8
0
  6
CONTINUOUS
 62
     7
100
AcDbLine
 10
-146.9895038899708
 20
-114.7622093830388
 30
0.0
 11
-146.4895038899708
 21
-114.7622093830388
 31
0.0
  0
LINE
  5
41E
330
1F
100
AcDbEntity
  8
0
  6
CONTINUOUS
 62
     7
100
AcDbLine
 10
-141.6156824996266
 20
5.012064968900148
 30
0.0
 11
-92.28950388997066
 21
4.151073318607672
 31
0.0
  0
LINE
  5
41F
330
1F
100
AcDbEntity
  8
0
  6
CONTINUOUS
 62
     7
100
AcDbLine
 10
-81.08950388997084
 20
-28.3074664772428
 30
0.0
 11
-81.08950388997084
 21
-3.658321009885327
 31
0.0
  0
LINE
  5
420
330
1F
100
AcDbEntity
  8
0
  6
CONTINUOUS
 62
     7
100
AcDbLine
 10
-143.5069562964081
 20
-77.37935981507954
 30
0.0
 11
-83.83714667065885
 21
-78.4209002163515
 31
0.0
  0
LINE
  5
421
330
1F
100
AcDbEntity
  8
0
  6
CONTINUOUS
 62
     7
100
AcDbLine
 10
-145.5069562964081
 20
2.379576119957818
 30
0.0
 11
-86.00224185778427
 21
1.340917465896695
 31
0.0
  0
LINE
  5
422
330
1F
100
AcDbEntity
  8
0
  6
CONTINUOUS
 62
     7
100
AcDbLine
 10
-141.6156824996266
 20
-114.7364837349779
 30
0.0
 11
-85.74988463847251
 21
-113.7613426060448
 31
0.0
  0
LINE
  5
423
330
1F
100
AcDbEntity
  8
0
  6
CONTINUOUS
 62
     7
100
AcDbLine
 10
-143.0895038899708
 20
6.511836511634641
 30
0.0
 11
-143.0895038899708
 21
7.519184618573348
 31
0.0
  0
LINE
  5
424
330
1F
100
AcDbEntity
  8
0
  6
CONTINUOUS
 62
     7
100
AcDbLine
 10
-143.0895038899708
 20
-117.243603384651
 30
0.0
 11
-143.0895038899708
 21
-116.2362552777123
 31
0.0
  0
LINE
  5
425
330
1F
100
AcDbEntity
  8
0
  6
CONTINUOUS
 62
     7
100
AcDbLine
 10
-80.8895038899708
 20
-106.0626067432066
 30
0.0
 11
-80.8895038899708
 21
-81.42044330182048
 31
0.0
  0
LINE
  5
426
330
1F
100
AcDbEntity
  8
0
  6
CONTINUOUS
 62
     7
100
AcDbLine
 10
-146.4895038899708
 20
-8.862209383038845
 30
0.0
 11
-146.4895038899708
 21
5.098448422926225
 31
0.0
  0
LINE
  5
427
330
1F
100
AcDbEntity
  8
0
  6
CONTINUOUS
 62
     7
100
AcDbLine
 10
-92.28950388997089
 20
4.151073318607672
 30
0.0
 11
-92.28950388997089
 21
31.13779061696121
 31
0.0
  0
LINE
  5
428
330
1F
100
AcDbEntity
  8
0
  6
CONTINUOUS
 62
     7
100
AcDbLine
 10
-77.88950388997091
 20
-105.7625610447935
 30
0.0
 11
-77.88950388997091
 21
-83.49224125635763
 31
0.0
  0
LINE
  5
429
330
1F
100
AcDbEntity
  8
0
  6
CONTINUOUS
 62
     7
100
AcDbLine
 10
-144.4895038899708
 20
-76.37951211992314
 30
0.0
 11
-144.4895038899708
 21
-33.34490664615456
 31
0.0
  0
LINE
  5
42A
330
1F
100
AcDbEntity
  8
0
  6
CONTINUOUS
 62
     7
100
AcDbLine
 10
-144.4895038899708
 20
-34.86220938303885
 30
0.0
 11
-78.48950388997071
 21
-34.86220938303885
 31
0.0
  0
LINE
  5
42B
330
1F
100
AcDbEntity
  8
0
  6
CONTINUOUS
 62
     7
100
AcDbLine
 10
-89.62945934429695
 20
27.52899812636591
 30
0.0
 11
-88.98950388997071
 21
26.13779061696121
 31
0.0
  0
LINE
  5
42C
330
1F
100
AcDbEntity
  8
0
  6
CONTINUOUS
 62
     7
100
AcDbLine
 10
-88.48950388997082
 20
26.13779061696121
 30
0.0
 11
-88.98950388997071
 21
26.13779061696121
 31
0.0
  0
LINE
  5
42D
330
1F
100
AcDbEntity
  8
0
  6
CONTINUOUS
 62
     7
100
AcDbLine
 10
-92.28950388997089
 20
6.837790616961087
 30
0.0
 11
-94.28950388997089
 21
6.837790616961087
 31
0.0
  0
LINE
  5
42E
330
1F
100
AcDbEntity
  8
0
  6
CONTINUOUS
 62
     7
100
AcDbLine
 10
-144.4895038899708
 20
-74.86220938303885
 30
0.0
 11
-79.98950388997071
 21
-74.86220938303885
 31
0.0
  0
LINE
  5
42F
330
1F
100
AcDbEntity
  8
0
  6
CONTINUOUS
 62
     7
100
AcDbLine
 10
-94.28950388997089
 20
6.8377906169612
 30
0.0
 11
-94.28950388997089
 21
26.83779061696103
 31
0.0
  0
LINE
  5
430
330
1F
100
AcDbEntity
  8
0
  6
CONTINUOUS
 62
     7
100
AcDbLine
 10
-78.48950388997071
 20
-74.82606805559445
 30
0.0
 11
-78.48950388997071
 21
5.137790616961155
 31
0.0
  0
LINE
  5
431
330
1F
100
AcDbEntity
  8
0
  6
CONTINUOUS
 62
     7
100
AcDbLine
 10
-64.48950388997082
 20
5.137790616961155
 30
0.0
 11
-88.98950388997071
 21
5.137790616961155
 31
0.0
  0
LINE
  5
432
330
1F
100
AcDbEntity
  8
0
  6
CONTINUOUS
 62
     7
100
AcDbLine
 10
-36.68950388997087
 20
-34.86220938303885
 30
0.0
 11
-36.68950388997087
 21
11.83779483697006
 31
0.0
  0
LINE
  5
433
330
1F
100
AcDbEntity
  8
0
  6
CONTINUOUS
 62
     7
100
AcDbLine
 10
-92.28950388997066
 20
28.83779061696103
 30
0.0
 11
-94.28950388997066
 21
26.83779061696103
 31
0.0
  0
LINE
  5
434
330
1F
100
AcDbEntity
  8
0
  6
CONTINUOUS
 62
     7
100
AcDbLine
 10
-36.68950388997087
 20
4.8377906169612
 30
0.0
 11
-34.68950388997087
 21
6.8377906169612
 31
0.0
  0
LINE
  5
435
330
1F
100
AcDbEntity
  8
0
  6
CONTINUOUS
 62
     7
100
AcDbLine
 10
-92.28950388997089
 20
26.83779061696103
 30
0.0
 11
-94.28950388997089
 21
26.83779061696103
 31
0.0
  0
LINE
  5
436
330
1F
100
AcDbEntity
  8
0
  6
CONTINUOUS
 62
     7
100
AcDbLine
 10
-64.48950388997082
 20
6.837790616961087
 30
0.0
 11
-34.68950388997087
 21
6.837790616961087
 31
0.0
  0
LINE
  5
437
330
1F
100
AcDbEntity
  8
0
  6
CONTINUOUS
 62
     7
100
AcDbLine
 10
-234.9895038899708
 20
-143.8622093830388
 30
0.0
 11
-234.9895038899708
 21
-54.86220938303885
 31
0.0
  0
LINE
  5
438
330
1F
100
AcDbEntity
  8
0
  6
CONTINUOUS
 62
     7
100
AcDbLine
 10
-39.98950388997082
 20
-34.86220938303885
 30
0.0
 11
-39.98950388997082
 21
-11.4721649603641
 31
0.0
  0
LINE
  5
439
330
1F
100
AcDbEntity
  8
0
  6
CONTINUOUS
 62
     7
100
AcDbLine
 10
-34.68950388997087
 20
6.8377906169612
 30
0.0
 11
-34.68950388997087
 21
11.83779483697006
 31
0.0
  0
LINE
  5
43A
330
1F
100
AcDbEntity
  8
0
  6
CONTINUOUS
 62
     7
100
AcDbLine
 10
-88.98950388997071
 20
5.137790616961155
 30
0.0
 11
-88.98950388997071
 21
26.13779061696121
 31
0.0
  0
LINE
  5
43B
330
1F
100
AcDbEntity
  8
0
  6
CONTINUOUS
 62
     7
100
AcDbLine
 10
-232.5403695882566
 20
-141.9960610031948
 30
0.0
 11
-232.0895038899709
 21
-142.212209383039
 31
0.0
  0
LINE
  5
43C
330
1F
100
AcDbEntity
  8
0
  6
CONTINUOUS
 62
     7
100
AcDbLine
 10
-232.0895038899709
 20
32.48779061696112
 30
0.0
 11
-232.5403695882566
 21
32.27164223711705
 31
0.0
  0
LINE
  5
43D
330
1F
100
AcDbEntity
  8
0
  6
CONTINUOUS
 62
     7
100
AcDbLine
 10
-208.2395038899709
 20
23.13779061696121
 30
0.0
 11
-208.2395038899709
 21
20.83779061696126
 31
0.0
  0
LINE
  5
43E
330
1F
100
AcDbEntity
  8
0
  6
CONTINUOUS
 62
     7
100
AcDbLine
 10
-225.3895038899708
 20
-130.5622093830389
 30
0.0
 11
-204.9395038899708
 21
-130.5622093830389
 31
0.0
  0
LINE
  5
43F
330
1F
100
AcDbEntity
  8
0
  6
CONTINUOUS
 62
     7
100
AcDbLine
 10
-208.2395038899708
 20
23.13779061696121
 30
0.0
 11
-205.9395038899708
 21
20.83779061696126
 31
0.0
  0
LINE
  5
440
330
1F
100
AcDbEntity
  8
0
  6
CONTINUOUS
 62
     7
100
AcDbLine
 10
-225.3895038899708
 20
20.83779061696126
 30
0.0
 11
-204.9395038899708
 21
20.83779061696126
 31
0.0
  0
ARC
  5
441
330
1F
100
AcDbEntity
  8
0
  6
CONTINUOUS
 62
     7
100
AcDbCircle
 10
-86.08950388997084
 20
-3.658321009885327
 30
0.0
 40
5.0
100
AcDbArc
 50
0.0
 51
89.00000000000003
  0
ARC
  5
442
330
1F
100
AcDbEntity
  8
0
  6
CONTINUOUS
 62
     7
100
AcDbCircle
 10
-83.8895038899708
 20
-81.42044330182048
 30
0.0
 40
3.0
100
AcDbArc
 50
0.0
 51
89.00000000000013
  0
ARC
  5
443
330
1F
100
AcDbEntity
  8
0
  6
CONTINUOUS
 62
     7
100
AcDbCircle
 10
-211.9895038899708
 20
-124.8622093830388
 30
0.0
 40
1.0
100
AcDbArc
 50
90.00000000000003
 51
180.0
  0
ARC
  5
444
330
1F
100
AcDbEntity
  8
0
  6
CONTINUOUS
 62
     7
100
AcDbCircle
 10
-211.9895038899708
 20
15.13779061696121
 30
0.0
 40
1.0
100
AcDbArc
 50
180.0
 51
270.0
  0
ARC
  5
445
330
1F
100
AcDbEntity
  8
0
  6
CONTINUOUS
 62
     7
100
AcDbCircle
 10
-147.4895038899708
 20
5.098448422926225
 30
0.0
 40
1.0
100
AcDbArc
 50
0.0
 51
85.14153708096569
  0
ARC
  5
446
330
1F
100
AcDbEntity
  8
0
  6
CONTINUOUS
 62
     7
100
AcDbCircle
 10
-222.3895038899708
 20
18.63779061696121
 30
0.0
 40
0.5
100
AcDbArc
 50
270.0
 51
360.0
  0
ARC
  5
447
330
1F
100
AcDbEntity
  8
0
  6
CONTINUOUS
 62
     7
100
AcDbCircle
 10
-220.9895038899708
 20
18.13779061696121
 30
0.0
 40
0.5
100
AcDbArc
 50
180.0
 51
270.0
  0
ARC
  5
448
330
1F
100
AcDbEntity
  8
0
  6
CONTINUOUS
 62
     7
100
AcDbCircle
 10
-144.0895038899708
 20
7.519184618573348
 30
0.0
 40
1.0
100
AcDbArc
 50
0.0000000000000127
 51
85.14153708096572
  0
ARC
  5
449
330
1F
100
AcDbEntity
  8
0
  6
CONTINUOUS
 62
     7
100
AcDbCircle
 10
-209.9895038899708
 20
16.13779061696121
 30
0.0
 40
1.5
100
AcDbArc
 50
1.014722224427783
 51
90.0
  0
ARC
  5
44A
330
1F
100
AcDbEntity
  8
0
  6
CONTINUOUS
 62
     7
100
AcDbCircle
 10
-230.4558121960898
 20
21.63779061696121
 30
0.0
 40
4.0
100
AcDbArc
 50
182.4323992405143
 51
270.0
  0
ARC
  5
44B
330
1F
100
AcDbEntity
  8
0
  6
CONTINUOUS
 62
     7
100
AcDbCircle
 10
-230.4503154159123
 20
22.33779061696103
 30
0.0
 40
1.0
100
AcDbArc
 50
183.5923298462492
 51
270.0
  0
ARC
  5
44C
330
1F
100
AcDbEntity
  8
0
  6
CONTINUOUS
 62
     7
100
AcDbCircle
 10
-233.9895038899708
 20
34.13779061696121
 30
0.0
 40
0.5
100
AcDbArc
 50
25.61340682524878
 51
182.4323992405144
  0
ARC
  5
44D
330
1F
100
AcDbEntity
  8
0
  6
CONTINUOUS
 62
     7
100
AcDbCircle
 10
-233.9895038899708
 20
34.13779061696121
 30
0.0
 40
1.0
100
AcDbArc
 50
25.61340682524878
 51
182.4323992405144
  0
ARC
  5
44E
330
1F
100
AcDbEntity
  8
0
  6
CONTINUOUS
 62
     7
100
AcDbCircle
 10
-230.4558121960898
 20
21.63779061696121
 30
0.0
 40
3.5
100
AcDbArc
 50
182.4323992405143
 51
270.0
  0
ARC
  5
44F
330
1F
100
AcDbEntity
  8
0
  6
CONTINUOUS
 62
     7
100
AcDbCircle
 10
-222.3895038899708
 20
-128.3622093830388
 30
0.0
 40
0.5
100
AcDbArc
 50
0.0
 51
90.00000000000003
  0
ARC
  5
450
330
1F
100
AcDbEntity
  8
0
  6
CONTINUOUS
 62
     7
100
AcDbCircle
 10
-198.8084091419721
 20
-129.5970861129019
 30
0.0
 40
6.0
100
AcDbArc
 50
95.91830704614503
 51
159.1398920741785
  0
ARC
  5
451
330
1F
100
AcDbEntity
  8
0
  6
CONTINUOUS
 62
     7
100
AcDbCircle
 10
-220.9895038899708
 20
-127.8622093830388
 30
0.0
 40
0.5
100
AcDbArc
 50
90.00000000000003
 51
180.0
  0
ARC
  5
452
330
1F
100
AcDbEntity
  8
0
  6
CONTINUOUS
 62
     7
100
AcDbCircle
 10
-144.0895038899708
 20
-117.243603384651
 30
0.0
 40
1.0
100
AcDbArc
 50
274.8584629190343
 51
360.0
  0
ARC
  5
453
330
1F
100
AcDbEntity
  8
0
  6
CONTINUOUS
 62
     7
100
AcDbCircle
 10
-209.9895038899708
 20
-125.8622093830388
 30
0.0
 40
1.5
100
AcDbArc
 50
270.0
 51
358.9852777755722
  0
ARC
  5
454
330
1F
100
AcDbEntity
  8
0
  6
CONTINUOUS
 62
     7
100
AcDbCircle
 10
-230.4558121960898
 20
-131.3622093830388
 30
0.0
 40
4.0
100
AcDbArc
 50
90.00000000000003
 51
177.5676007594858
  0
ARC
  5
455
330
1F
100
AcDbEntity
  8
0
  6
CONTINUOUS
 62
     7
100
AcDbCircle
 10
-233.9895038899708
 20
-143.8622093830388
 30
0.0
 40
0.5
100
AcDbArc
 50
177.5676007594856
 51
334.3865931747512
  0
ARC
  5
456
330
1F
100
AcDbEntity
  8
0
  6
CONTINUOUS
 62
     7
100
AcDbCircle
 10
-233.9895038899708
 20
-143.8622093830388
 30
0.0
 40
1.0
100
AcDbArc
 50
177.5676007594856
 51
334.3865931747512
  0
ARC
  5
457
330
1F
100
AcDbEntity
  8
0
  6
CONTINUOUS
 62
     7
100
AcDbCircle
 10
-230.4558121960898
 20
-131.3622093830388
 30
0.0
 40
3.5
100
AcDbArc
 50
90.00000000000003
 51
177.5676007594858
  0
ARC
  5
458
330
1F
100
AcDbEntity
  8
0
  6
CONTINUOUS
 62
     7
100
AcDbCircle
 10
-230.4503154159123
 20
-132.0622093830388
 30
0.0
 40
1.0
100
AcDbArc
 50
90.00000000000003
 51
176.4076701537508
  0
ARC
  5
459
330
1F
100
AcDbEntity
  8
0
  6
CONTINUOUS
 62
     7
100
AcDbCircle
 10
-152.4895038899708
 20
-115.2478671890038
 30
0.0
 40
1.0
100
AcDbArc
 50
274.8584629190343
 51
360.0
  0
ARC
  5
45A
330
1F
100
AcDbEntity
  8
0
  6
CONTINUOUS
 62
     7
100
AcDbCircle
 10
-148.9895038899708
 20
-113.7622093830388
 30
0.0
 40
2.5
100
AcDbArc
 50
90.00000000000003
 51
180.0
  0
ARC
  5
45B
330
1F
100
AcDbEntity
  8
0
  6
CONTINUOUS
 62
     7
100
AcDbCircle
 10
-145.4895038899708
 20
-113.1038425811919
 30
0.0
 40
1.0
100
AcDbArc
 50
90.99999999999999
 51
180.0
  0
ARC
  5
45C
330
1F
100
AcDbEntity
  8
0
  6
CONTINUOUS
 62
     7
100
AcDbCircle
 10
-202.4895038899708
 20
-125.9950501005181
 30
0.0
 40
6.0
100
AcDbArc
 50
94.10021071229119
 51
178.9852777755721
  0
ARC
  5
45D
330
1F
100
AcDbEntity
  8
0
  6
CONTINUOUS
 62
     7
100
AcDbCircle
 10
-141.5895038899708
 20
-116.2362552777123
 30
0.0
 40
1.5
100
AcDbArc
 50
91.0
 51
180.0
  0
ARC
  5
45E
330
1F
100
AcDbEntity
  8
0
  6
CONTINUOUS
 62
     7
100
AcDbCircle
 10
-85.8895038899708
 20
-106.0626067432066
 30
0.0
 40
5.0
100
AcDbArc
 50
271.0
 51
360.0
  0
ARC
  5
45F
330
1F
100
AcDbEntity
  8
0
  6
CONTINUOUS
 62
     7
100
AcDbCircle
 10
-202.4895038899708
 20
16.27063133444042
 30
0.0
 40
6.0
100
AcDbArc
 50
181.0147222244279
 51
265.8997892877088
  0
ARC
  5
460
330
1F
100
AcDbEntity
  8
0
  6
CONTINUOUS
 62
     7
100
AcDbCircle
 10
-141.5895038899708
 20
6.511836511634641
 30
0.0
 40
1.5
100
AcDbArc
 50
180.0
 51
269.0
  0
ARC
  5
461
330
1F
100
AcDbEntity
  8
0
  6
CONTINUOUS
 62
     7
100
AcDbCircle
 10
-145.4895038899708
 20
3.379423815114222
 30
0.0
 40
1.0
100
AcDbArc
 50
180.0
 51
269.0
  0
ARC
  5
462
330
1F
100
AcDbEntity
  8
0
  6
CONTINUOUS
 62
     7
100
AcDbCircle
 10
-79.98950388997071
 20
-34.86220938303885
 30
0.0
 40
40.0
100
AcDbArc
 50
270.0
 51
360.0
  0
ARC
  5
463
330
1F
100
AcDbEntity
  8
0
  6
CONTINUOUS
 62
     7
100
AcDbCircle
 10
-71.88950388997091
 20
-83.49224125635763
 30
0.0
 40
6.0
100
AcDbArc
 50
99.45658425121304
 51
180.0
  0
ARC
  5
464
330
1F
100
AcDbEntity
  8
0
  6
CONTINUOUS
 62
     7
100
AcDbCircle
 10
-143.4895038899708
 20
-33.34490664615456
 30
0.0
 40
1.0
100
AcDbArc
 50
90.99999999999999
 51
180.0
  0
ARC
  5
465
330
1F
100
AcDbEntity
  8
0
  6
CONTINUOUS
 62
     7
100
AcDbCircle
 10
-143.4895038899708
 20
-76.37951211992314
 30
0.0
 40
1.0
100
AcDbArc
 50
180.0
 51
269.0
  0
ARC
  5
466
330
1F
100
AcDbEntity
  8
0
  6
CONTINUOUS
 62
     7
100
AcDbCircle
 10
-79.98950388997071
 20
-34.86220938303885
 30
0.0
 40
43.3
100
AcDbArc
 50
279.456584251213
 51
360.0
  0
ARC
  5
467
330
1F
100
AcDbEntity
  8
0
  6
CONTINUOUS
 62
     7
100
AcDbCircle
 10
-85.8895038899708
 20
-105.7625610447935
 30
0.0
 40
8.0
100
AcDbArc
 50
271.0
 51
360.0
  0
ARC
  5
468
330
1F
100
AcDbEntity
  8
0
  6
CONTINUOUS
 62
     7
100
AcDbCircle
 10
-84.08950388997084
 20
-28.3074664772428
 30
0.0
 40
3.0
100
AcDbArc
 50
270.9999999999999
 51
360.0
  0
LINE
  5
469
330
1F
100
AcDbEntity
  8
0
  6
CONTINUOUS
 62
     7
100
AcDbLine
 10
-64.48950388997082
 20
4.8377906169612
 30
0.0
 11
-36.68950388997087
 21
4.8377906169612
 31
0.0
  0
LINE
  5
46A
330
1F
100
AcDbEntity
  8
0
  6
CONTINUOUS
 62
     7
100
AcDbLine
 10
90.98198483124139
 20
130.6302366534578
 30
0.0
 11
90.98198483124139
 21
146.6302366534577
 31
0.0
  0
LINE
  5
46B
330
1F
100
AcDbEntity
  8
0
  6
CONTINUOUS
 62
     7
100
AcDbLine
 10
-35.28950388997089
 20
118.8302336016999
 30
0.0
 11
-35.28950388997089
 21
146.6302366534577
 31
0.0
  0
LINE
  5
46C
330
1F
100
AcDbEntity
  8
0
  6
CENTER
 62
     7
100
AcDbLine
 10
-59.23950388997082
 20
-54.86220938303885
 30
0.0
 11
-59.23950388997082
 21
5.137790616961155
 31
0.0
  0
LINE
  5
46D
330
1F
100
AcDbEntity
  8
0
  6
CENTER
 62
     7
100
AcDbLine
 10
-240.0252278260913
 20
-54.86220938303885
 30
0.0
 11
-59.23950388997082
 21
-54.86220938303885
 31
0.0
  0
LINE
  5
46E
330
1F
100
AcDbEntity
  8
0
  6
CENTER
 62
     7
100
AcDbLine
 10
-64.48950388997082
 20
146.6302366534577
 30
0.0
 11
-64.48950388997082
 21
4.8377906169612
 31
0.0
  0
LINE
  5
46F
330
1F
100
AcDbEntity
  8
0
  6
CENTER
 62
     7
100
AcDbLine
 10
51.99620766140504
 20
124.9682210121419
 30
0.0
 11
40.37758571200914
 21
168.3295084412224
 31
0.0
  0
LINE
  5
470
330
1F
100
AcDbEntity
  8
0
  6
CENTER
 62
     7
100
AcDbLine
 10
55.11842855937937
 20
124.9070439039174
 30
0.0
 11
43.49478694326047
 21
168.2870649842448
 31
0.0
  0
LINE
  5
471
330
1F
100
AcDbEntity
  8
0
  6
CENTER
 62
     7
100
AcDbLine
 10
-64.48950388997082
 20
146.6302366534577
 30
0.0
 11
170.387280047676
 21
146.6302366534577
 31
0.0
  0
LINE
  5
472
330
1F
100
AcDbEntity
  8
0
  6
CONTINUOUS
 62
    31
100
AcDbLine
 10
-199.4270712852905
 20
-123.6290665793861
 30
0.0
 11
-163.0895038899708
 21
-119.8622093830387
 31
0.0
  0
LINE
  5
473
330
1F
100
AcDbEntity
  8
0
  6
CONTINUOUS
 62
    31
100
AcDbLine
 10
-199.4270712852904
 20
13.90464781330846
 30
0.0
 11
-163.0895038899708
 21
10.13779061696104
 31
0.0
  0
ARC
  5
474
330
1F
100
AcDbEntity
  8
0
  6
CONTINUOUS
 62
    31
100
AcDbCircle
 10
-198.8084091419721
 20
-129.5970861129019
 30
0.0
 40
6.0
100
AcDbArc
 50
95.91830704614505
 51
159.1398920741785
  0
ARC
  5
475
330
1F
100
AcDbEntity
  8
0
  6
CONTINUOUS
 62
    31
100
AcDbCircle
 10
-198.8084091419721
 20
19.87266734682433
 30
0.0
 40
6.0
100
AcDbArc
 50
200.8601079258215
 51
264.0816929538549
  0
ARC
  5
476
330
1F
100
AcDbEntity
  8
0
  6
CONTINUOUS
 62
    31
100
AcDbCircle
 10
-196.9410533294798
 20
-130.2873344509775
 30
0.0
 40
8.0
100
AcDbArc
 50
159.2828500300679
 51
180.0
  0
ARC
  5
477
330
1F
100
AcDbEntity
  8
0
  6
CONTINUOUS
 62
    31
100
AcDbCircle
 10
-196.9410533294798
 20
20.56291568489976
 30
0.0
 40
8.0
100
AcDbArc
 50
180.0
 51
200.7171499699314
  0
LINE
  5
478
330
1F
100
AcDbEntity
  8
0
  6
CONTINUOUS
 62
   123
100
AcDbLine
 10
-214.5895031270314
 20
7.637790187807781
 30
0.0
 11
-214.5895031270314
 21
13.13779323956558
 31
0.0
  0
LINE
  5
479
330
1F
100
AcDbEntity
  8
0
  6
CONTINUOUS
 62
   123
100
AcDbLine
 10
-215.6036914235819
 20
-119.7924517172017
 30
0.0
 11
-215.9858499653605
 21
-125.2575734803297
 31
0.0
  0
LINE
  5
47A
330
1F
100
AcDbEntity
  8
0
  6
CONTINUOUS
 62
   123
100
AcDbLine
 10
-212.9895038899708
 20
-125.3622081909459
 30
0.0
 11
-212.9895038899708
 21
-116.7622120056432
 31
0.0
  0
LINE
  5
47B
330
1F
100
AcDbEntity
  8
0
  6
CONTINUOUS
 62
   123
100
AcDbLine
 10
-213.5895031270313
 20
7.037793239565502
 30
0.0
 11
-188.0379953679371
 21
7.037793239565502
 31
0.0
  0
LINE
  5
47C
330
1F
100
AcDbEntity
  8
0
  6
CONTINUOUS
 62
   123
100
AcDbLine
 10
-214.4895038899708
 20
13.13779323956558
 30
0.0
 11
-214.1895038899708
 21
13.13779323956558
 31
0.0
  0
LINE
  5
47D
330
1F
100
AcDbEntity
  8
0
  6
CONTINUOUS
 62
   123
100
AcDbLine
 10
-168.9895031270314
 20
-55.11220938303885
 30
0.0
 11
-168.9895031270314
 21
-50.46220932343422
 31
0.0
  0
LINE
  5
47E
330
1F
100
AcDbEntity
  8
0
  6
CONTINUOUS
 62
   123
100
AcDbLine
 10
-214.1895031270313
 20
9.537793239565502
 30
0.0
 11
-213.9895038899708
 21
9.537793239565502
 31
0.0
  0
LINE
  5
47F
330
1F
100
AcDbEntity
  8
0
  6
CONTINUOUS
 62
   123
100
AcDbLine
 10
-213.5895031270313
 20
6.637790187807781
 30
0.0
 11
-188.0379953679371
 21
6.637790187807781
 31
0.0
  0
LINE
  5
480
330
1F
100
AcDbEntity
  8
0
  6
CONTINUOUS
 62
   123
100
AcDbLine
 10
-214.5895031270314
 20
-117.3622089538853
 30
0.0
 11
-214.5895031270314
 21
-118.4622089538854
 31
0.0
  0
LINE
  5
481
330
1F
100
AcDbEntity
  8
0
  6
CONTINUOUS
 62
   123
100
AcDbLine
 10
-214.6316624151089
 20
-8.362209812192219
 30
0.0
 11
-213.9895038899708
 21
-8.362209812192219
 31
0.0
  0
LINE
  5
482
330
1F
100
AcDbEntity
  8
0
  6
CONTINUOUS
 62
   123
100
AcDbLine
 10
-214.1895031270313
 20
-117.3622120056432
 30
0.0
 11
-214.1895031270313
 21
-122.8622120056432
 31
0.0
  0
LINE
  5
483
330
1F
100
AcDbEntity
  8
0
  6
CONTINUOUS
 62
   123
100
AcDbLine
 10
-214.1895031270313
 20
7.637793239565525
 30
0.0
 11
-214.1895031270313
 21
13.13779323956558
 31
0.0
  0
LINE
  5
484
330
1F
100
AcDbEntity
  8
0
  6
CONTINUOUS
 62
   123
100
AcDbLine
 10
-169.3895031270313
 20
-54.86220938303885
 30
0.0
 11
-169.3895031270313
 21
-50.46220932343422
 31
0.0
  0
LINE
  5
485
330
1F
100
AcDbEntity
  8
0
  6
CONTINUOUS
 62
   123
100
AcDbLine
 10
-213.5895031270313
 20
-116.3622089538853
 30
0.0
 11
-188.0379953679371
 21
-116.3622089538853
 31
0.0
  0
LINE
  5
486
330
1F
100
AcDbEntity
  8
0
  6
CONTINUOUS
 62
   123
100
AcDbLine
 10
-214.5895031270313
 20
13.13779323956558
 30
0.0
 11
-214.1895031270313
 21
13.13779323956558
 31
0.0
  0
LINE
  5
487
330
1F
100
AcDbEntity
  8
0
  6
CONTINUOUS
 62
   123
100
AcDbLine
 10
-214.4895031270314
 20
13.13779323956558
 30
0.0
 11
-214.1895031270313
 21
13.13779323956558
 31
0.0
  0
LINE
  5
488
330
1F
100
AcDbEntity
  8
0
  6
CONTINUOUS
 62
   123
100
AcDbLine
 10
-214.5895031270314
 20
-96.77881796486827
 30
0.0
 11
-214.5895031270314
 21
-116.6551021726988
 31
0.0
  0
LINE
  5
489
330
1F
100
AcDbEntity
  8
0
  6
CONTINUOUS
 62
   123
100
AcDbLine
 10
-212.9895038899708
 20
-7.362209812192219
 30
0.0
 11
-212.9895038899708
 21
6.637790187807781
 31
0.0
  0
LINE
  5
48A
330
1F
100
AcDbEntity
  8
0
  6
CONTINUOUS
 62
   123
100
AcDbLine
 10
-169.3895031270313
 20
-54.86220938303885
 30
0.0
 11
-169.3895031270313
 21
-59.26220944264347
 31
0.0
  0
LINE
  5
48B
330
1F
100
AcDbEntity
  8
0
  6
CONTINUOUS
 62
   123
100
AcDbLine
 10
-168.9895031270314
 20
-54.61220938303885
 30
0.0
 11
-168.9895031270314
 21
-59.26220944264347
 31
0.0
  0
LINE
  5
48C
330
1F
100
AcDbEntity
  8
0
  6
CONTINUOUS
 62
   123
100
AcDbLine
 10
-215.9895038899708
 20
-11.84824839727722
 30
0.0
 11
-215.9895038899708
 21
15.63778942486832
 31
0.0
  0
LINE
  5
48D
330
1F
100
AcDbEntity
  8
0
  6
CONTINUOUS
 62
   123
100
AcDbLine
 10
-212.9895038899708
 20
15.63778942486832
 30
0.0
 11
-212.9895038899708
 21
7.037793239565502
 31
0.0
  0
LINE
  5
48E
330
1F
100
AcDbEntity
  8
0
  6
CONTINUOUS
 62
   123
100
AcDbLine
 10
-215.6316624151089
 20
-120.1924555318991
 30
0.0
 11
-215.6316624151089
 21
-97.59568609117628
 31
0.0
  0
LINE
  5
48F
330
1F
100
AcDbEntity
  8
0
  6
CONTINUOUS
 62
   123
100
AcDbLine
 10
-214.5895031270314
 20
-12.9456008012094
 30
0.0
 11
-214.5895031270314
 21
-8.362209812192219
 31
0.0
  0
LINE
  5
490
330
1F
100
AcDbEntity
  8
0
  6
CONTINUOUS
 62
   123
100
AcDbLine
 10
-215.9895038899708
 20
-97.87617036880033
 30
0.0
 11
-215.9895038899708
 21
-125.3622081909459
 31
0.0
  0
LINE
  5
491
330
1F
100
AcDbEntity
  8
0
  6
CONTINUOUS
 62
   123
100
AcDbLine
 10
-213.5895031270313
 20
-116.7622120056432
 30
0.0
 11
-188.0379953679371
 21
-116.7622120056432
 31
0.0
  0
LINE
  5
492
330
1F
100
AcDbEntity
  8
0
  6
CONTINUOUS
 62
   123
100
AcDbLine
 10
-214.5895031270313
 20
-122.8622120056432
 30
0.0
 11
-214.1895031270313
 21
-122.8622120056432
 31
0.0
  0
LINE
  5
493
330
1F
100
AcDbEntity
  8
0
  6
CONTINUOUS
 62
   123
100
AcDbLine
 10
-214.5895031270314
 20
-117.3622089538853
 30
0.0
 11
-214.5895031270314
 21
-122.8622120056432
 31
0.0
  0
LINE
  5
494
330
1F
100
AcDbEntity
  8
0
  6
CONTINUOUS
 62
   123
100
AcDbLine
 10
-214.1895031270313
 20
-119.2622120056432
 30
0.0
 11
-213.9895038899708
 21
-119.2622120056432
 31
0.0
  0
LINE
  5
495
330
1F
100
AcDbEntity
  8
0
  6
CONTINUOUS
 62
   123
100
AcDbLine
 10
-168.9895031270314
 20
-55.11220938303885
 30
0.0
 11
-168.9895031270314
 21
-50.46220932343422
 31
0.0
  0
LINE
  5
496
330
1F
100
AcDbEntity
  8
0
  6
CONTINUOUS
 62
   123
100
AcDbLine
 10
-215.6316624151089
 20
10.46803676582144
 30
0.0
 11
-215.9858499653605
 21
15.53315471425211
 31
0.0
  0
LINE
  5
497
330
1F
100
AcDbEntity
  8
0
  6
CONTINUOUS
 62
   123
100
AcDbLine
 10
-215.6316624151089
 20
-12.12873267490139
 30
0.0
 11
-215.6316624151089
 21
10.46803676582144
 31
0.0
  0
LINE
  5
498
330
1F
100
AcDbEntity
  8
0
  6
CONTINUOUS
 62
   123
100
AcDbLine
 10
-214.5895031270314
 20
-116.6551021726988
 30
0.0
 11
-214.2966099082179
 21
-116.6551021726988
 31
0.0
  0
ARC
  5
499
330
1F
100
AcDbEntity
  8
0
  6
CONTINUOUS
 62
   123
100
AcDbCircle
 10
-213.9895038899708
 20
10.5377932395655
 30
0.0
 40
1.0
100
AcDbArc
 50
270.0
 51
360.0
  0
ARC
  5
49A
330
1F
100
AcDbEntity
  8
0
  6
CONTINUOUS
 62
   123
100
AcDbCircle
 10
-214.6316624151089
 20
-7.362209812192219
 30
0.0
 40
1.0
100
AcDbArc
 50
180.0
 51
270.0
  0
ARC
  5
49B
330
1F
100
AcDbEntity
  8
0
  6
CONTINUOUS
 62
   123
100
AcDbCircle
 10
-469.3895016878849
 20
-59.23282427993561
 30
0.0
 40
300.0
100
AcDbArc
 50
351.6033857397449
 51
359.9943878473128
  0
ARC
  5
49C
330
1F
100
AcDbEntity
  8
0
  6
CONTINUOUS
 62
   123
100
AcDbCircle
 10
-214.4895038899708
 20
-125.3622081909459
 30
0.0
 40
1.5
100
AcDbArc
 50
179.999991348578
 51
270.0000006832453
  0
ARC
  5
49D
330
1F
100
AcDbEntity
  8
0
  6
CONTINUOUS
 62
   123
100
AcDbCircle
 10
-213.5895031270314
 20
-117.3622120056432
 30
0.0
 40
0.6000000000000001
100
AcDbArc
 50
90.00000000000003
 51
180.0
  0
ARC
  5
49E
330
1F
100
AcDbEntity
  8
0
  6
CONTINUOUS
 62
   123
100
AcDbCircle
 10
-213.5895031270314
 20
7.637793239565525
 30
0.0
 40
0.6000000000000001
100
AcDbArc
 50
180.0
 51
270.0
  0
ARC
  5
49F
330
1F
100
AcDbEntity
  8
0
  6
CONTINUOUS
 62
   123
100
AcDbCircle
 10
-469.3895016878849
 20
-59.23282427993561
 30
0.0
 40
300.4
100
AcDbArc
 50
351.6033857397449
 51
359.9943878473128
  0
ARC
  5
4A0
330
1F
100
AcDbEntity
  8
0
  6
CONTINUOUS
 62
   123
100
AcDbCircle
 10
-214.4895038899708
 20
-125.3622081909459
 30
0.0
 40
1.5
100
AcDbArc
 50
269.9999974955218
 51
360.0
  0
ARC
  5
4A1
330
1F
100
AcDbEntity
  8
0
  6
CONTINUOUS
 62
   123
100
AcDbCircle
 10
-469.3895016878849
 20
-50.49159448614208
 30
0.0
 40
300.0
100
AcDbArc
 50
0.0056121526872011
 51
8.396614260255102
  0
ARC
  5
4A2
330
1F
100
AcDbEntity
  8
0
  6
CONTINUOUS
 62
   123
100
AcDbCircle
 10
-213.9895038899708
 20
-7.362209812192219
 30
0.0
 40
1.0
100
AcDbArc
 50
270.0
 51
360.0
  0
ARC
  5
4A3
330
1F
100
AcDbEntity
  8
0
  6
CONTINUOUS
 62
   123
100
AcDbCircle
 10
-188.0379953679371
 20
-8.962206760434498
 30
0.0
 40
15.59999980926514
100
AcDbArc
 50
8.402533230392066
 51
90.00000000000003
  0
ARC
  5
4A4
330
1F
100
AcDbEntity
  8
0
  6
CONTINUOUS
 62
   123
100
AcDbCircle
 10
-213.5895031270314
 20
-117.3622089538853
 30
0.0
 40
1.0
100
AcDbArc
 50
90.00000000000003
 51
180.0
  0
ARC
  5
4A5
330
1F
100
AcDbEntity
  8
0
  6
CONTINUOUS
 62
   123
100
AcDbCircle
 10
-213.5895031270314
 20
7.637790187807781
 30
0.0
 40
1.0
100
AcDbArc
 50
180.0
 51
270.0
  0
ARC
  5
4A6
330
1F
100
AcDbEntity
  8
0
  6
CONTINUOUS
 62
   123
100
AcDbCircle
 10
-214.4895038899708
 20
15.63778942486832
 30
0.0
 40
1.5
100
AcDbArc
 50
89.99999931675468
 51
180.000008651422
  0
ARC
  5
4A7
330
1F
100
AcDbEntity
  8
0
  6
CONTINUOUS
 62
   123
100
AcDbCircle
 10
-214.4895038899708
 20
15.63778942486832
 30
0.0
 40
1.5
100
AcDbArc
 50
0.0
 51
90.00000250447816
  0
ARC
  5
4A8
330
1F
100
AcDbEntity
  8
0
  6
CONTINUOUS
 62
   123
100
AcDbCircle
 10
-188.0379953679371
 20
-100.7622120056432
 30
0.0
 40
16.0
100
AcDbArc
 50
269.9999974955218
 51
351.5974671321044
  0
ARC
  5
4A9
330
1F
100
AcDbEntity
  8
0
  6
CONTINUOUS
 62
   123
100
AcDbCircle
 10
-188.0379953679371
 20
-100.7622120056432
 30
0.0
 40
15.59999980926514
100
AcDbArc
 50
270.0
 51
351.5974667696079
  0
ARC
  5
4AA
330
1F
100
AcDbEntity
  8
0
  6
CONTINUOUS
 62
   123
100
AcDbCircle
 10
-469.3895016878849
 20
-50.49159448614208
 30
0.0
 40
300.4
100
AcDbArc
 50
0.0056121526872011
 51
8.396614260255102
  0
ARC
  5
4AB
330
1F
100
AcDbEntity
  8
0
  6
CONTINUOUS
 62
   123
100
AcDbCircle
 10
-188.0379953679371
 20
-8.962206760434498
 30
0.0
 40
16.0
100
AcDbArc
 50
8.402532867895536
 51
90.00000250447816
  0
ARC
  5
4AC
330
1F
100
AcDbEntity
  8
0
  6
CONTINUOUS
 62
   123
100
AcDbCircle
 10
-213.9895038899708
 20
-120.2622120056432
 30
0.0
 40
1.0
100
AcDbArc
 50
0.0
 51
90.00000000000003
  0
ARC
  5
4AD
330
1F
100
AcDbEntity
  8
0
  6
CONTINUOUS
 62
   123
100
AcDbCircle
 10
-214.6061273733221
 20
-119.8622081909459
 30
0.0
 40
1.0
100
AcDbArc
 50
90.00000000000003
 51
176.0000000000003
  0
ARC
  5
4AE
330
1F
100
AcDbEntity
  8
0
  6
CONTINUOUS
 62
   123
100
AcDbCircle
 10
-214.6061273733221
 20
10.13778942486826
 30
0.0
 40
1.0
100
AcDbArc
 50
183.9999999999998
 51
270.0
  0
LINE
  5
4AF
330
1F
100
AcDbEntity
  8
0
  6
DASHED2
 62
     3
100
AcDbLine
 10
-40.48950388997082
 20
122.6302366534577
 30
0.0
 11
-39.98950388997082
 21
122.6302366534577
 31
0.0
  0
LINE
  5
4B0
330
1F
100
AcDbEntity
  8
0
  6
DASHED2
 62
     3
100
AcDbLine
 10
-39.98950606697645
 20
122.6302327235195
 30
0.0
 11
-36.48951100355089
 21
118.8302380920269
 31
0.0
  0
LINE
  5
4B1
330
1F
100
AcDbEntity
  8
0
  6
DASHED2
 62
     3
100
AcDbLine
 10
-40.48950388997082
 20
122.6302366534577
 30
0.0
 11
-40.48950388997082
 21
112.630236653458
 31
0.0
  0
LINE
  5
4B2
330
1F
100
AcDbEntity
  8
0
  6
CONTINUOUS
 62
     3
100
AcDbLine
 10
-33.28950388997089
 20
116.8302336016999
 30
0.0
 11
-25.58774868245234
 21
116.8302336016999
 31
0.0
  0
LINE
  5
4B3
330
1F
100
AcDbEntity
  8
0
  6
CONTINUOUS
 62
     3
100
AcDbLine
 10
-33.28950388997089
 20
116.8302336016999
 30
0.0
 11
-35.28950388997089
 21
118.8302336016999
 31
0.0
  0
LINE
  5
4B4
330
1F
100
AcDbEntity
  8
0
  6
CONTINUOUS
 62
     3
100
AcDbLine
 10
-33.28950388997089
 20
116.8302336016999
 30
0.0
 11
-33.28950388997089
 21
146.6302366534577
 31
0.0
  0
ARC
  5
4B5
330
1F
100
AcDbEntity
  8
0
  6
CONTINUOUS
 62
     3
100
AcDbCircle
 10
-30.67926430507623
 20
110.6913711895933
 30
0.0
 40
10.0
100
AcDbArc
 50
125.5226156579251
 51
168.8203139255723
  0
LINE
  5
4B6
330
1F
100
AcDbEntity
  8
0
  6
CONTINUOUS
 62
     3
100
AcDbLine
 10
-88.48950388997071
 20
5.137790616961155
 30
0.0
 11
-64.48950388997082
 21
5.137790616961155
 31
0.0
  0
LINE
  5
4B7
330
1F
100
AcDbEntity
  8
0
  6
CONTINUOUS
 62
     3
100
AcDbLine
 10
-88.48950388997093
 20
86.2771609576279
 30
0.0
 11
-88.48950388997071
 21
5.137790616961155
 31
0.0
  0
LINE
  5
4B8
330
1F
100
AcDbEntity
  8
0
  6
CONTINUOUS
 62
     3
100
AcDbLine
 10
-86.13365181463576
 20
86.69256124106752
 30
0.0
 11
-86.48950388997071
 21
5.137790616961098
 31
0.0
  0
LINE
  5
4B9
330
1F
100
AcDbEntity
  8
0
  6
CONTINUOUS
 62
     3
100
AcDbLine
 10
-40.48950388997082
 20
94.74085603163442
 30
0.0
 11
-40.48950388997082
 21
41.13779025933334
 31
0.0
  0
LINE
  5
4BA
330
1F
100
AcDbEntity
  8
0
  6
CONTINUOUS
 62
     3
100
AcDbLine
 10
-40.48950388997082
 20
112.630236653458
 30
0.0
 11
-40.48950388997082
 21
99.81798909106311
 31
0.0
  0
LINE
  5
4BB
330
1F
100
AcDbEntity
  8
0
  6
CONTINUOUS
 62
     3
100
AcDbLine
 10
-36.48950388997082
 20
118.8302336016999
 30
0.0
 11
-25.58774868245234
 21
118.8302336016999
 31
0.0
  0
LINE
  5
4BC
330
1F
100
AcDbEntity
  8
0
  6
CONTINUOUS
 62
     3
100
AcDbLine
 10
-64.48950388997082
 20
170.6302366534577
 30
0.0
 11
-40.48950388997082
 21
170.6302366534577
 31
0.0
  0
LINE
  5
4BD
330
1F
100
AcDbEntity
  8
0
  6
CONTINUOUS
 62
     3
100
AcDbLine
 10
-14.48950388997082
 20
173.430226774414
 30
0.0
 11
-14.48950388997082
 21
174.4302397052155
 31
0.0
  0
LINE
  5
4BE
330
1F
100
AcDbEntity
  8
0
  6
CONTINUOUS
 62
     3
100
AcDbLine
 10
-36.48950388997082
 20
174.4302397052155
 30
0.0
 11
-14.48950388997082
 21
174.4302397052155
 31
0.0
  0
LINE
  5
4BF
330
1F
100
AcDbEntity
  8
0
  6
CONTINUOUS
 62
     3
100
AcDbLine
 10
-37.18950388997087
 20
171.1302366534577
 30
0.0
 11
-37.18950388997087
 21
146.6302366534577
 31
0.0
  0
LINE
  5
4C0
330
1F
100
AcDbEntity
  8
0
  6
CONTINUOUS
 62
     3
100
AcDbLine
 10
-37.18950388997087
 20
171.1302366534577
 30
0.0
 11
-19.08950388997084
 21
171.1302366534577
 31
0.0
  0
LINE
  5
4C1
330
1F
100
AcDbEntity
  8
0
  6
CONTINUOUS
 62
     3
100
AcDbLine
 10
-14.48950388997082
 20
173.430226774414
 30
0.0
 11
-19.08950388997084
 21
171.1302366534576
 31
0.0
  0
LINE
  5
4C2
330
1F
100
AcDbEntity
  8
0
  6
CONTINUOUS
 62
     3
100
AcDbLine
 10
-19.08950388997084
 20
171.1302366534577
 30
0.0
 11
-19.08950388997084
 21
171.1282366534578
 31
0.0
  0
LINE
  5
4C3
330
1F
100
AcDbEntity
  8
0
  6
CONTINUOUS
 62
     3
100
AcDbLine
 10
-33.28950388997089
 20
176.4302397052155
 30
0.0
 11
-35.28950388997089
 21
174.4302397052154
 31
0.0
  0
LINE
  5
4C4
330
1F
100
AcDbEntity
  8
0
  6
CONTINUOUS
 62
     3
100
AcDbLine
 10
-33.28950388997089
 20
176.4302397052155
 30
0.0
 11
-18.28950388997089
 21
176.4302397052155
 31
0.0
  0
LINE
  5
4C5
330
1F
100
AcDbEntity
  8
0
  6
CONTINUOUS
 62
     3
100
AcDbLine
 10
-18.28950388997077
 20
176.4302397052155
 30
0.0
 11
-16.28950388997077
 21
174.4302397052155
 31
0.0
  0
LINE
  5
4C6
330
1F
100
AcDbEntity
  8
0
  6
CONTINUOUS
 62
     3
100
AcDbLine
 10
-18.28950388997089
 20
176.4302397052155
 30
0.0
 11
-18.28950388997089
 21
174.4302397052155
 31
0.0
  0
LINE
  5
4C7
330
1F
100
AcDbEntity
  8
0
  6
CONTINUOUS
 62
     3
100
AcDbLine
 10
-33.28950388997089
 20
176.4302397052155
 30
0.0
 11
-33.28950388997089
 21
174.4302397052155
 31
0.0
  0
LINE
  5
4C8
330
1F
100
AcDbEntity
  8
0
  6
CONTINUOUS
 62
     3
100
AcDbLine
 10
-36.48949657590515
 20
174.4302397052155
 30
0.0
 11
-40.48950388997082
 21
170.6302366534577
 31
0.0
  0
LINE
  5
4C9
330
1F
100
AcDbEntity
  8
0
  6
CONTINUOUS
 62
     3
100
AcDbLine
 10
-64.48950388997082
 20
167.5175821941787
 30
0.0
 11
-41.38018306273432
 21
167.5175821941787
 31
0.0
  0
LINE
  5
4CA
330
1F
100
AcDbEntity
  8
0
  6
CONTINUOUS
 62
     3
100
AcDbLine
 10
-41.38018306273432
 20
167.5175821941787
 30
0.0
 11
-37.18950388997087
 21
171.1302366534576
 31
0.0
  0
LINE
  5
4CB
330
1F
100
AcDbEntity
  8
0
  6
CONTINUOUS
 62
     3
100
AcDbLine
 10
-41.38018306273432
 20
167.5175821941787
 30
0.0
 11
-41.38018306273432
 21
146.6302366534577
 31
0.0
  0
LINE
  5
4CC
330
1F
100
AcDbEntity
  8
0
  6
CONTINUOUS
 62
     3
100
AcDbLine
 10
-88.48950388997071
 20
146.6302366534577
 30
0.0
 11
-88.48950388997071
 21
91.35429401705662
 31
0.0
  0
LINE
  5
4CD
330
1F
100
AcDbEntity
  8
0
  6
CONTINUOUS
 62
     3
100
AcDbLine
 10
-85.37684943069178
 20
146.6302366534577
 30
0.0
 11
-85.61582682082289
 21
91.86100081819062
 31
0.0
  0
LINE
  5
4CE
330
1F
100
AcDbEntity
  8
0
  6
CONTINUOUS
 62
     3
100
AcDbLine
 10
-36.48950388997082
 20
118.8302405500552
 30
0.0
 11
-36.48950388997082
 21
146.6302366534577
 31
0.0
  0
ARC
  5
4CF
330
1F
100
AcDbEntity
  8
0
  6
CONTINUOUS
 62
     3
100
AcDbCircle
 10
-64.48950388997082
 20
146.6302366534577
 30
0.0
 40
24.0
100
AcDbArc
 50
89.99999499104368
 51
179.9999974955219
  0
ARC
  5
4D0
330
1F
100
AcDbEntity
  8
0
  6
CONTINUOUS
 62
     3
100
AcDbCircle
 10
-64.48950388997082
 20
146.6302366534577
 30
0.0
 40
20.88734554072107
100
AcDbArc
 50
89.99999499104368
 51
179.9999974955219
  0
LINE
  5
4D1
330
1F
100
AcDbEntity
  8
0
  6
CONTINUOUS
 62
    32
100
AcDbLine
 10
-5.587748682452343
 20
125.6302361170159
 30
0.0
 11
-0.8377496361266594
 21
125.6302361170159
 31
0.0
  0
ARC
  5
4D2
330
1F
100
AcDbEntity
  8
0
  6
CONTINUOUS
 62
    32
100
AcDbCircle
 10
-0.8377496361266594
 20
126.3802361170159
 30
0.0
 40
0.75
100
AcDbArc
 50
269.9999974955219
 51
360.0000000000001
  0
LINE
  5
4D3
330
1F
100
AcDbEntity
  8
0
  6
CONTINUOUS
 62
    32
100
AcDbLine
 10
-22.08774868245234
 20
169.0302357355462
 30
0.0
 11
-22.08774868245234
 21
146.6302366534577
 31
0.0
  0
LINE
  5
4D4
330
1F
100
AcDbEntity
  8
0
  6
CONTINUOUS
 62
    32
100
AcDbLine
 10
-20.58774868245234
 20
170.5302357355462
 30
0.0
 11
-20.08774829502215
 21
170.5302357355462
 31
0.0
  0
LINE
  5
4D5
330
1F
100
AcDbEntity
  8
0
  6
CONTINUOUS
 62
    32
100
AcDbLine
 10
-12.08774868245234
 20
174.3802361170159
 30
0.0
 11
-12.08774868245234
 21
170.5302357355462
 31
0.0
  0
LINE
  5
4D6
330
1F
100
AcDbEntity
  8
0
  6
CONTINUOUS
 62
    32
100
AcDbLine
 10
-7.587748682452343
 20
167.6302361170159
 30
0.0
 11
-0.8377496361266594
 21
167.6302361170159
 31
0.0
  0
LINE
  5
4D7
330
1F
100
AcDbEntity
  8
0
  6
CONTINUOUS
 62
    32
100
AcDbLine
 10
-8.099374070183899
 20
162.118878634999
 30
0.0
 11
12.91225089854549
 21
161.6302362002387
 31
0.0
  0
LINE
  5
4D8
330
1F
100
AcDbEntity
  8
0
  6
CONTINUOUS
 62
    32
100
AcDbLine
 10
-8.087748682452343
 20
166.1302361170159
 30
0.0
 11
-0.8377496361266594
 21
166.1302361170159
 31
0.0
  0
LINE
  5
4D9
330
1F
100
AcDbEntity
  8
0
  6
CONTINUOUS
 62
    32
100
AcDbLine
 10
-12.08774868245234
 20
166.0302357355462
 30
0.0
 11
-12.08774868245234
 21
146.6302366534577
 31
0.0
  0
LINE
  5
4DA
330
1F
100
AcDbEntity
  8
0
  6
CONTINUOUS
 62
    32
100
AcDbLine
 10
-22.08774868245234
 20
168.0302357355462
 30
0.0
 11
-14.08774868245234
 21
168.0302357355462
 31
0.0
  0
LINE
  5
4DB
330
1F
100
AcDbEntity
  8
0
  6
CONTINUOUS
 62
    32
100
AcDbLine
 10
-10.08774868245234
 20
159.6302370706902
 30
0.0
 11
16.4122508407105
 21
159.6302370706902
 31
0.0
  0
LINE
  5
4DC
330
1F
100
AcDbEntity
  8
0
  6
CONTINUOUS
 62
    32
100
AcDbLine
 10
-12.08774868245234
 20
174.3802361170159
 30
0.0
 11
-8.587748682452343
 21
174.3802361170159
 31
0.0
  0
ARC
  5
4DD
330
1F
100
AcDbEntity
  8
0
  6
CONTINUOUS
 62
    32
100
AcDbCircle
 10
-14.08774868245234
 20
166.0302357355462
 30
0.0
 40
2.0
100
AcDbArc
 50
0.0000000000001018
 51
90.00000250447828
  0
ARC
  5
4DE
330
1F
100
AcDbEntity
  8
0
  6
CONTINUOUS
 62
    32
100
AcDbCircle
 10
-20.58774868245234
 20
169.0302357355462
 30
0.0
 40
1.5
100
AcDbArc
 50
90.00000250447828
 51
180.0000050089564
  0
ARC
  5
4DF
330
1F
100
AcDbEntity
  8
0
  6
CONTINUOUS
 62
    32
100
AcDbCircle
 10
-7.587748682452343
 20
168.6302361170159
 30
0.0
 40
1.0
100
AcDbArc
 50
179.9999949910438
 51
269.9999974955219
  0
ARC
  5
4E0
330
1F
100
AcDbEntity
  8
0
  6
CONTINUOUS
 62
    32
100
AcDbCircle
 10
-8.087748682452343
 20
162.6187443415032
 30
0.0
 40
0.5
100
AcDbArc
 50
179.9999949910438
 51
268.6677827582893
  0
ARC
  5
4E1
330
1F
100
AcDbEntity
  8
0
  6
CONTINUOUS
 62
    32
100
AcDbCircle
 10
-8.087748682452343
 20
165.6302361170159
 30
0.0
 40
0.5
100
AcDbArc
 50
90.00000250447828
 51
180.0000050089564
  0
ARC
  5
4E2
330
1F
100
AcDbEntity
  8
0
  6
CONTINUOUS
 62
    32
100
AcDbCircle
 10
-10.08774868245234
 20
161.6302370706902
 30
0.0
 40
2.0
100
AcDbArc
 50
179.9999949910438
 51
269.9999974955219
  0
ARC
  5
4E3
330
1F
100
AcDbEntity
  8
0
  6
CONTINUOUS
 62
    32
100
AcDbCircle
 10
-0.8377496361266594
 20
166.8802361170159
 30
0.0
 40
0.75
100
AcDbArc
 50
269.9999974955219
 51
450.0000025044783
  0
LINE
  5
4E4
330
1F
100
AcDbEntity
  8
0
  6
CONTINUOUS
 62
    32
100
AcDbLine
 10
-0.0877496361266594
 20
166.8802361170159
 30
0.0
 11
-0.0877496361266594
 21
162.6302366534578
 31
0.0
  0
LINE
  5
4E5
330
1F
100
AcDbEntity
  8
0
  6
CONTINUOUS
 62
    32
100
AcDbLine
 10
12.91225092875845
 20
161.6302363355347
 30
0.0
 11
15.23916373811119
 21
161.1106136916659
 31
0.0
  0
ARC
  5
4E6
330
1F
100
AcDbEntity
  8
0
  6
CONTINUOUS
 62
    32
100
AcDbCircle
 10
14.9122508407105
 20
159.6466717401849
 30
0.0
 40
1.5
100
AcDbArc
 50
0.0000000000001018
 51
77.4118204301722
  0
LINE
  5
4E7
330
1F
100
AcDbEntity
  8
0
  6
CONTINUOUS
 62
    32
100
AcDbLine
 10
16.4122508407105
 20
146.6302366534577
 30
0.0
 11
16.4122508407105
 21
159.6466717401849
 31
0.0
  0
LINE
  5
4E8
330
1F
100
AcDbEntity
  8
0
  6
CONTINUOUS
 62
    32
100
AcDbLine
 10
-0.0877496361266594
 20
146.6302366534577
 30
0.0
 11
-0.0877496361266594
 21
126.3802361170159
 31
0.0
  0
LINE
  5
4E9
330
1F
100
AcDbEntity
  8
0
  6
CONTINUOUS
 62
    32
100
AcDbLine
 10
-8.587748682452343
 20
162.6187443415031
 30
0.0
 11
-8.587748682452343
 21
165.6302361170159
 31
0.0
  0
LINE
  5
4EA
330
1F
100
AcDbEntity
  8
0
  6
CONTINUOUS
 62
   150
100
AcDbLine
 10
-9.087748682452343
 20
115.0343603833185
 30
0.0
 11
-24.78774868245239
 21
115.0343603833185
 31
0.0
  0
LINE
  5
4EB
330
1F
100
AcDbEntity
  8
0
  6
CONTINUOUS
 62
   150
100
AcDbLine
 10
-9.087748682452343
 20
115.6715614002576
 30
0.0
 11
-24.78774868245239
 21
115.6715614002576
 31
0.0
  0
LINE
  5
4EC
330
1F
100
AcDbEntity
  8
0
  6
CONTINUOUS
 62
   150
100
AcDbLine
 10
-9.587748682452343
 20
116.5741466846074
 30
0.0
 11
-24.58774868245234
 21
116.5741466846074
 31
0.0
  0
LINE
  5
4ED
330
1F
100
AcDbEntity
  8
0
  6
CONTINUOUS
 62
   150
100
AcDbLine
 10
-9.087748682452343
 20
118.4809588878673
 30
0.0
 11
-24.78774868245239
 21
118.4809588878673
 31
0.0
  0
LINE
  5
4EE
330
1F
100
AcDbEntity
  8
0
  6
CONTINUOUS
 62
   150
100
AcDbLine
 10
-9.087748682452343
 20
119.4182170814684
 30
0.0
 11
-24.78774868245239
 21
119.4182170814684
 31
0.0
  0
LINE
  5
4EF
330
1F
100
AcDbEntity
  8
0
  6
CONTINUOUS
 62
   150
100
AcDbLine
 10
-7.587748682452343
 20
142.1899523350052
 30
0.0
 11
-24.78774868245239
 21
142.1899523350052
 31
0.0
  0
LINE
  5
4F0
330
1F
100
AcDbEntity
  8
0
  6
CONTINUOUS
 62
   150
100
AcDbLine
 10
-9.587748682452343
 20
120.2115704217596
 30
0.0
 11
-24.58774868245234
 21
120.2115704217596
 31
0.0
  0
LINE
  5
4F1
330
1F
100
AcDbEntity
  8
0
  6
CONTINUOUS
 62
   150
100
AcDbLine
 10
-8.587748682452343
 20
137.1725256748172
 30
0.0
 11
-24.58774868245234
 21
137.1725256748172
 31
0.0
  0
LINE
  5
4F2
330
1F
100
AcDbEntity
  8
0
  6
CONTINUOUS
 62
   150
100
AcDbLine
 10
-8.587748682452343
 20
123.1447044664338
 30
0.0
 11
-24.78774868245239
 21
123.1447044664338
 31
0.0
  0
LINE
  5
4F3
330
1F
100
AcDbEntity
  8
0
  6
CONTINUOUS
 62
   150
100
AcDbLine
 10
-8.587748682452343
 20
124.3541685957326
 30
0.0
 11
-24.78774868245239
 21
124.3541685957326
 31
0.0
  0
LINE
  5
4F4
330
1F
100
AcDbEntity
  8
0
  6
CONTINUOUS
 62
   150
100
AcDbLine
 10
-9.087748682452343
 20
125.0036166440627
 30
0.0
 11
-24.58774868245234
 21
125.0036166440627
 31
0.0
  0
LINE
  5
4F5
330
1F
100
AcDbEntity
  8
0
  6
CONTINUOUS
 62
   150
100
AcDbLine
 10
-8.087748682452343
 20
128.8217690581003
 30
0.0
 11
-24.78774868245239
 21
128.8217690581003
 31
0.0
  0
LINE
  5
4F6
330
1F
100
AcDbEntity
  8
0
  6
CONTINUOUS
 62
   150
100
AcDbLine
 10
-8.087748682452343
 20
130.2636911765532
 30
0.0
 11
-24.78774868245239
 21
130.2636911765532
 31
0.0
  0
LINE
  5
4F7
330
1F
100
AcDbEntity
  8
0
  6
CONTINUOUS
 62
   150
100
AcDbLine
 10
-8.587748682452343
 20
130.7408499368128
 30
0.0
 11
-24.58774868245234
 21
130.7408499368128
 31
0.0
  0
LINE
  5
4F8
330
1F
100
AcDbEntity
  8
0
  6
CONTINUOUS
 62
   150
100
AcDbLine
 10
-8.087748682452343
 20
135.2640376986327
 30
0.0
 11
-24.78774868245239
 21
135.2640376986327
 31
0.0
  0
LINE
  5
4F9
330
1F
100
AcDbEntity
  8
0
  6
CONTINUOUS
 62
   150
100
AcDbLine
 10
-8.087748682452343
 20
136.8885103301133
 30
0.0
 11
-24.78774868245239
 21
136.8885103301133
 31
0.0
  0
LINE
  5
4FA
330
1F
100
AcDbEntity
  8
0
  6
CONTINUOUS
 62
   150
100
AcDbLine
 10
-9.587748682452343
 20
112.3302366534578
 30
0.0
 11
-24.58774868245234
 21
112.3302366534578
 31
0.0
  0
LINE
  5
4FB
330
1F
100
AcDbEntity
  8
0
  6
CONTINUOUS
 62
   150
100
AcDbLine
 10
-9.087748682452343
 20
112.9555418460507
 30
0.0
 11
-24.58774868245234
 21
112.9555418460507
 31
0.0
  0
LINE
  5
4FC
330
1F
100
AcDbEntity
  8
0
  6
CONTINUOUS
 62
   150
100
AcDbLine
 10
-9.587748682452343
 20
114.2503183042152
 30
0.0
 11
-24.58774868245234
 21
114.2503183042152
 31
0.0
  0
LINE
  5
4FD
330
1F
100
AcDbEntity
  8
0
  6
CONTINUOUS
 62
   150
100
AcDbLine
 10
-9.087748682452343
 20
113.2779483838174
 30
0.0
 11
-24.58774868245234
 21
113.2779483838174
 31
0.0
  0
ARC
  5
4FE
330
1F
100
AcDbEntity
  8
0
  6
CONTINUOUS
 62
   150
100
AcDbCircle
 10
-24.78774868245239
 20
123.9447044664337
 30
0.0
 40
0.8
100
AcDbArc
 50
180.0000000000001
 51
270.0000000000001
  0
ARC
  5
4FF
330
1F
100
AcDbEntity
  8
0
  6
CONTINUOUS
 62
   150
100
AcDbCircle
 10
-9.587748682452343
 20
116.3302366534578
 30
0.0
 40
4.0
100
AcDbArc
 50
270.0000000000001
 51
360.0000000000001
  0
ARC
  5
500
330
1F
100
AcDbEntity
  8
0
  6
CONTINUOUS
 62
   150
100
AcDbCircle
 10
-8.087748682452343
 20
139.3885103301133
 30
0.0
 40
2.5
100
AcDbArc
 50
270.0000000000001
 51
360.0000000000001
  0
ARC
  5
501
330
1F
100
AcDbEntity
  8
0
  6
CONTINUOUS
 62
   150
100
AcDbCircle
 10
-24.78774868245239
 20
120.2182170814685
 30
0.0
 40
0.8
100
AcDbArc
 50
180.0000000000001
 51
270.0000000000001
  0
ARC
  5
502
330
1F
100
AcDbEntity
  8
0
  6
CONTINUOUS
 62
   150
100
AcDbCircle
 10
-24.78774868245239
 20
125.1541685957325
 30
0.0
 40
0.8
100
AcDbArc
 50
180.0000000000001
 51
270.0000000000001
  0
ARC
  5
503
330
1F
100
AcDbEntity
  8
0
  6
CONTINUOUS
 62
   150
100
AcDbCircle
 10
-24.78774868245239
 20
129.6217690581002
 30
0.0
 40
0.8
100
AcDbArc
 50
180.0000000000001
 51
270.0000000000001
  0
ARC
  5
504
330
1F
100
AcDbEntity
  8
0
  6
CONTINUOUS
 62
   150
100
AcDbCircle
 10
-24.58774868245234
 20
131.7408499368128
 30
0.0
 40
1.0
100
AcDbArc
 50
180.0000000000001
 51
270.0000000000001
  0
ARC
  5
505
330
1F
100
AcDbEntity
  8
0
  6
CONTINUOUS
 62
   150
100
AcDbCircle
 10
-24.58774868245234
 20
138.1725256748172
 30
0.0
 40
1.0
100
AcDbArc
 50
180.0000000000001
 51
270.0000000000001
  0
ARC
  5
506
330
1F
100
AcDbEntity
  8
0
  6
CONTINUOUS
 62
   150
100
AcDbCircle
 10
-24.78774868245239
 20
142.9899523350051
 30
0.0
 40
0.8
100
AcDbArc
 50
180.0000000000001
 51
270.0000000000001
  0
ARC
  5
507
330
1F
100
AcDbEntity
  8
0
  6
CONTINUOUS
 62
   150
100
AcDbCircle
 10
-24.78774868245239
 20
136.0640376986327
 30
0.0
 40
0.8
100
AcDbArc
 50
180.0000000000001
 51
270.0000000000001
  0
ARC
  5
508
330
1F
100
AcDbEntity
  8
0
  6
CONTINUOUS
 62
   150
100
AcDbCircle
 10
-24.78774868245239
 20
131.0636911765533
 30
0.0
 40
0.8
100
AcDbArc
 50
180.0000000000001
 51
270.0000000000001
  0
ARC
  5
509
330
1F
100
AcDbEntity
  8
0
  6
CONTINUOUS
 62
   150
100
AcDbCircle
 10
-24.78774868245239
 20
137.6885103301133
 30
0.0
 40
0.8
100
AcDbArc
 50
180.0000000000001
 51
270.0000000000001
  0
ARC
  5
50A
330
1F
100
AcDbEntity
  8
0
  6
CONTINUOUS
 62
   150
100
AcDbCircle
 10
-8.587748682452343
 20
140.1725256748172
 30
0.0
 40
3.0
100
AcDbArc
 50
270.0000000000001
 51
360.0000000000001
  0
ARC
  5
50B
330
1F
100
AcDbEntity
  8
0
  6
CONTINUOUS
 62
   150
100
AcDbCircle
 10
-8.087748682452343
 20
137.7640376986327
 30
0.0
 40
2.5
100
AcDbArc
 50
270.0000000000001
 51
360.0000000000001
  0
ARC
  5
50C
330
1F
100
AcDbEntity
  8
0
  6
CONTINUOUS
 62
   150
100
AcDbCircle
 10
-8.587748682452343
 20
133.7408499368128
 30
0.0
 40
3.0
100
AcDbArc
 50
270.0000000000001
 51
360.0000000000001
  0
ARC
  5
50D
330
1F
100
AcDbEntity
  8
0
  6
CONTINUOUS
 62
   150
100
AcDbCircle
 10
-8.087748682452343
 20
132.7636911765532
 30
0.0
 40
2.5
100
AcDbArc
 50
270.0000000000001
 51
360.0000000000001
  0
ARC
  5
50E
330
1F
100
AcDbEntity
  8
0
  6
CONTINUOUS
 62
   150
100
AcDbCircle
 10
-9.087748682452343
 20
128.5036166440627
 30
0.0
 40
3.5
100
AcDbArc
 50
270.0000000000001
 51
360.0000000000001
  0
ARC
  5
50F
330
1F
100
AcDbEntity
  8
0
  6
CONTINUOUS
 62
   150
100
AcDbCircle
 10
-8.087748682452343
 20
131.3217690581003
 30
0.0
 40
2.5
100
AcDbArc
 50
270.0000000000001
 51
360.0000000000001
  0
ARC
  5
510
330
1F
100
AcDbEntity
  8
0
  6
CONTINUOUS
 62
   150
100
AcDbCircle
 10
-9.087748682452343
 20
116.7779483838175
 30
0.0
 40
3.5
100
AcDbArc
 50
270.0000000000001
 51
360.0000000000001
  0
ARC
  5
511
330
1F
100
AcDbEntity
  8
0
  6
CONTINUOUS
 62
   150
100
AcDbCircle
 10
-9.587748682452343
 20
120.5741466846074
 30
0.0
 40
4.0
100
AcDbArc
 50
270.0000000000001
 51
360.0000000000001
  0
ARC
  5
512
330
1F
100
AcDbEntity
  8
0
  6
CONTINUOUS
 62
   150
100
AcDbCircle
 10
-24.58774868245234
 20
113.3302366534578
 30
0.0
 40
1.0
100
AcDbArc
 50
180.0000000000001
 51
270.0000000000001
  0
ARC
  5
513
330
1F
100
AcDbEntity
  8
0
  6
CONTINUOUS
 62
   150
100
AcDbCircle
 10
-9.587748682452343
 20
124.2115704217596
 30
0.0
 40
4.0
100
AcDbArc
 50
270.0000000000001
 51
360.0000000000001
  0
ARC
  5
514
330
1F
100
AcDbEntity
  8
0
  6
CONTINUOUS
 62
   150
100
AcDbCircle
 10
-9.587748682452343
 20
118.2503183042152
 30
0.0
 40
4.0
100
AcDbArc
 50
270.0000000000001
 51
360.0000000000001
  0
ARC
  5
515
330
1F
100
AcDbEntity
  8
0
  6
CONTINUOUS
 62
   150
100
AcDbCircle
 10
-9.087748682452343
 20
116.4555418460507
 30
0.0
 40
3.5
100
AcDbArc
 50
270.0000000000001
 51
360.0000000000001
  0
ARC
  5
516
330
1F
100
AcDbEntity
  8
0
  6
CONTINUOUS
 62
   150
100
AcDbCircle
 10
-9.087748682452343
 20
121.9809588878673
 30
0.0
 40
3.5
100
AcDbArc
 50
270.0000000000001
 51
360.0000000000001
  0
ARC
  5
517
330
1F
100
AcDbEntity
  8
0
  6
CONTINUOUS
 62
   150
100
AcDbCircle
 10
-9.087748682452343
 20
119.1715614002576
 30
0.0
 40
3.5
100
AcDbArc
 50
270.0000000000001
 51
360.0000000000001
  0
ARC
  5
518
330
1F
100
AcDbEntity
  8
0
  6
CONTINUOUS
 62
   150
100
AcDbCircle
 10
-9.087748682452343
 20
122.9182170814684
 30
0.0
 40
3.5
100
AcDbArc
 50
270.0000000000001
 51
360.0000000000001
  0
ARC
  5
519
330
1F
100
AcDbEntity
  8
0
  6
CONTINUOUS
 62
   150
100
AcDbCircle
 10
-8.587748682452343
 20
126.1447044664338
 30
0.0
 40
3.0
100
AcDbArc
 50
270.0000000000001
 51
360.0000000000001
  0
ARC
  5
51A
330
1F
100
AcDbEntity
  8
0
  6
CONTINUOUS
 62
   150
100
AcDbCircle
 10
-8.587748682452343
 20
127.3541685957326
 30
0.0
 40
3.0
100
AcDbArc
 50
270.0000000000001
 51
360.0000000000001
  0
ARC
  5
51B
330
1F
100
AcDbEntity
  8
0
  6
CONTINUOUS
 62
   150
100
AcDbCircle
 10
-24.58774868245234
 20
126.0036166440627
 30
0.0
 40
1.0
100
AcDbArc
 50
180.0000000000001
 51
270.0000000000001
  0
ARC
  5
51C
330
1F
100
AcDbEntity
  8
0
  6
CONTINUOUS
 62
   150
100
AcDbCircle
 10
-9.087748682452343
 20
118.5343603833185
 30
0.0
 40
3.5
100
AcDbArc
 50
270.0000000000001
 51
360.0000000000001
  0
ARC
  5
51D
330
1F
100
AcDbEntity
  8
0
  6
CONTINUOUS
 62
   150
100
AcDbCircle
 10
-24.58774868245234
 20
121.2115704217596
 30
0.0
 40
1.0
100
AcDbArc
 50
180.0000000000001
 51
270.0000000000001
  0
ARC
  5
51E
330
1F
100
AcDbEntity
  8
0
  6
CONTINUOUS
 62
   150
100
AcDbCircle
 10
-24.78774868245239
 20
119.2809588878672
 30
0.0
 40
0.8
100
AcDbArc
 50
180.0000000000001
 51
270.0000000000001
  0
ARC
  5
51F
330
1F
100
AcDbEntity
  8
0
  6
CONTINUOUS
 62
   150
100
AcDbCircle
 10
-24.58774868245234
 20
117.5741466846074
 30
0.0
 40
1.0
100
AcDbArc
 50
180.0000000000001
 51
270.0000000000001
  0
ARC
  5
520
330
1F
100
AcDbEntity
  8
0
  6
CONTINUOUS
 62
   150
100
AcDbCircle
 10
-24.78774868245239
 20
116.4715614002576
 30
0.0
 40
0.8
100
AcDbArc
 50
180.0000000000001
 51
270.0000000000001
  0
ARC
  5
521
330
1F
100
AcDbEntity
  8
0
  6
CONTINUOUS
 62
   150
100
AcDbCircle
 10
-24.78774868245239
 20
115.8343603833185
 30
0.0
 40
0.8
100
AcDbArc
 50
180.0000000000001
 51
270.0000000000001
  0
ARC
  5
522
330
1F
100
AcDbEntity
  8
0
  6
CONTINUOUS
 62
   150
100
AcDbCircle
 10
-24.58774868245234
 20
115.2503183042152
 30
0.0
 40
1.0
100
AcDbArc
 50
180.0000000000001
 51
270.0000000000001
  0
ARC
  5
523
330
1F
100
AcDbEntity
  8
0
  6
CONTINUOUS
 62
   150
100
AcDbCircle
 10
-24.58774868245234
 20
114.2779483838175
 30
0.0
 40
1.0
100
AcDbArc
 50
180.0000000000001
 51
270.0000000000001
  0
ARC
  5
524
330
1F
100
AcDbEntity
  8
0
  6
CONTINUOUS
 62
   150
100
AcDbCircle
 10
-24.58774868245234
 20
113.9555418460507
 30
0.0
 40
1.0
100
AcDbArc
 50
180.0000000000001
 51
270.0000000000001
  0
LINE
  5
525
330
1F
100
AcDbEntity
  8
0
  6
CONTINUOUS
 62
   150
100
AcDbLine
 10
-8.587748682452343
 20
175.0302366534578
 30
0.0
 11
-8.587748682452343
 21
168.6302361170159
 31
0.0
  0
LINE
  5
526
330
1F
100
AcDbEntity
  8
0
  6
CONTINUOUS
 62
   150
100
AcDbLine
 10
-24.58774868245234
 20
176.7302366534578
 30
0.0
 11
-24.58774868245234
 21
176.4302397052155
 31
0.0
  0
LINE
  5
527
330
1F
100
AcDbEntity
  8
0
  6
CONTINUOUS
 62
   150
100
AcDbLine
 10
-10.28774868245239
 20
176.7302366534578
 30
0.0
 11
-25.08774868245234
 21
176.7302366534578
 31
0.0
  0
LINE
  5
528
330
1F
100
AcDbEntity
  8
0
  6
CONTINUOUS
 62
   150
100
AcDbLine
 10
-8.587748682452343
 20
175.0302366534577
 30
0.0
 11
-10.28774868245239
 21
176.7302366534578
 31
0.0
  0
LINE
  5
529
330
1F
100
AcDbEntity
  8
0
  6
CONTINUOUS
 62
   150
100
AcDbLine
 10
-22.88774868245253
 20
175.0302366534577
 30
0.0
 11
-24.58774868245246
 21
176.7302366534578
 31
0.0
  0
LINE
  5
52A
330
1F
100
AcDbEntity
  8
0
  6
CONTINUOUS
 62
   150
100
AcDbLine
 10
-10.28774868245239
 20
176.7302366534578
 30
0.0
 11
-10.28774868245239
 21
174.3802361170159
 31
0.0
  0
LINE
  5
52B
330
1F
100
AcDbEntity
  8
0
  6
CONTINUOUS
 62
   150
100
AcDbLine
 10
-22.88774868245241
 20
176.7302366534578
 30
0.0
 11
-22.88774868245241
 21
176.4302397052155
 31
0.0
  0
LINE
  5
52C
330
1F
100
AcDbEntity
  8
0
  6
CONTINUOUS
 62
   150
100
AcDbLine
 10
-8.587748682452343
 20
175.0302366534578
 30
0.0
 11
-22.88774868245241
 21
175.0302366534578
 31
0.0
  0
LINE
  5
52D
330
1F
100
AcDbEntity
  8
0
  6
CONTINUOUS
 62
   150
100
AcDbLine
 10
-5.587748682452343
 20
170.8302366534578
 30
0.0
 11
-8.587748682452343
 21
170.8302366534578
 31
0.0
  0
LINE
  5
52E
330
1F
100
AcDbEntity
  8
0
  6
CONTINUOUS
 62
   150
100
AcDbLine
 10
-5.587748682452343
 20
176.9302366534578
 30
0.0
 11
-5.587748682452343
 21
167.6302361170159
 31
0.0
  0
LINE
  5
52F
330
1F
100
AcDbEntity
  8
0
  6
CONTINUOUS
 62
   150
100
AcDbLine
 10
-8.087748682452343
 20
144.0175487657205
 30
0.0
 11
-24.58774868245234
 21
144.0175487657205
 31
0.0
  0
LINE
  5
530
330
1F
100
AcDbEntity
  8
0
  6
CONTINUOUS
 62
   150
100
AcDbLine
 10
-7.587748682452343
 20
143.9390896699927
 30
0.0
 11
-24.78774868245239
 21
143.9390896699927
 31
0.0
  0
ARC
  5
531
330
1F
100
AcDbEntity
  8
0
  6
CONTINUOUS
 62
   150
100
AcDbCircle
 10
-25.08774868245234
 20
177.2302366534578
 30
0.0
 40
0.5
100
AcDbArc
 50
180.0000000000001
 51
270.0000000000001
  0
ARC
  5
532
330
1F
100
AcDbEntity
  8
0
  6
CONTINUOUS
 62
   150
100
AcDbCircle
 10
-24.58774868245234
 20
145.0175487657205
 30
0.0
 40
1.0
100
AcDbArc
 50
180.0000000000001
 51
270.0000000000001
  0
ARC
  5
533
330
1F
100
AcDbEntity
  8
0
  6
CONTINUOUS
 62
   150
100
AcDbCircle
 10
-24.78774868245239
 20
144.7390896699926
 30
0.0
 40
0.8
100
AcDbArc
 50
180.0000000000001
 51
270.0000000000001
  0
ARC
  5
534
330
1F
100
AcDbEntity
  8
0
  6
CONTINUOUS
 62
   150
100
AcDbCircle
 10
-7.587748682452343
 20
145.9390896699927
 30
0.0
 40
2.0
100
AcDbArc
 50
270.0000000000001
 51
360.0000000000001
  0
ARC
  5
535
330
1F
100
AcDbEntity
  8
0
  6
CONTINUOUS
 62
   150
100
AcDbCircle
 10
-8.087748682452343
 20
146.5175487657205
 30
0.0
 40
2.5
100
AcDbArc
 50
270.0000000000001
 51
360.0000000000001
  0
LINE
  5
536
330
1F
100
AcDbEntity
  8
0
  6
CONTINUOUS
 62
   150
100
AcDbLine
 10
-9.587748682452343
 20
180.9302366534578
 30
0.0
 11
-24.58774868245234
 21
180.9302366534578
 31
0.0
  0
ARC
  5
537
330
1F
100
AcDbEntity
  8
0
  6
CONTINUOUS
 62
   150
100
AcDbCircle
 10
-24.58774868245234
 20
179.9302366534578
 30
0.0
 40
1.0
100
AcDbArc
 50
90.00000000000003
 51
180.0
  0
LINE
  5
538
330
1F
100
AcDbEntity
  8
0
  6
CONTINUOUS
 62
   150
100
AcDbLine
 10
-5.587748682452343
 20
116.3302366534578
 30
0.0
 11
-5.587748682452343
 21
146.6302366534577
 31
0.0
  0
ARC
  5
539
330
1F
100
AcDbEntity
  8
0
  6
CONTINUOUS
 62
   150
100
AcDbCircle
 10
-7.587748682452343
 20
144.1899523350052
 30
0.0
 40
2.0
100
AcDbArc
 50
270.0000000000001
 51
360.0000000000001
  0
LINE
  5
53A
330
1F
100
AcDbEntity
  8
0
  6
CONTINUOUS
 62
   150
100
AcDbLine
 10
-25.58774868245234
 20
146.6302366534577
 30
0.0
 11
-25.58774868245234
 21
113.3302366534578
 31
0.0
  0
ARC
  5
53B
330
1F
100
AcDbEntity
  8
0
  6
CONTINUOUS
 62
   150
100
AcDbCircle
 10
-9.587748682452343
 20
176.9302366534578
 30
0.0
 40
4.0
100
AcDbArc
 50
0.0000000000000509
 51
90.00000000000003
  0
LINE
  5
53C
330
1F
100
AcDbEntity
  8
0
  6
CONTINUOUS
 62
   150
100
AcDbLine
 10
-25.58774868245234
 20
179.9302366534578
 30
0.0
 11
-25.58774868245234
 21
176.4302397052155
 31
0.0
  0
LINE
  5
53D
330
1F
100
AcDbEntity
  8
0
  6
DASHED2
 62
   150
100
AcDbLine
 10
-10.58774868245234
 20
179.9302366534578
 30
0.0
 11
-24.58774868245234
 21
179.9302366534578
 31
0.0
  0
ARC
  5
53E
330
1F
100
AcDbEntity
  8
0
  6
DASHED2
 62
   150
100
AcDbCircle
 10
-24.58774868245234
 20
178.9302366534578
 30
0.0
 40
1.0
100
AcDbArc
 50
90.00000000000003
 51
180.0
  0
ARC
  5
53F
330
1F
100
AcDbEntity
  8
0
  6
DASHED2
 62
   150
100
AcDbCircle
 10
-10.58774868245234
 20
174.9302366534578
 30
0.0
 40
5.0
100
AcDbArc
 50
0.0000000000000509
 51
90.00000000000003
  0
ARC
  5
540
330
1F
100
AcDbEntity
  8
0
  6
CONTINUOUS
 62
   100
100
AcDbCircle
 10
8.149784831241391
 20
130.5302366534578
 30
0.0
 40
1.450000000000003
100
AcDbArc
 50
201.5520888872132
 51
338.4479111127868
  0
LINE
  5
541
330
1F
100
AcDbEntity
  8
0
  6
CONTINUOUS
 62
   100
100
AcDbLine
 10
48.42849060426249
 20
130.6302366534577
 30
0.0
 11
50.47907514278211
 21
130.6302366534577
 31
0.0
  0
LINE
  5
542
330
1F
100
AcDbEntity
  8
0
  6
CONTINUOUS
 62
   100
100
AcDbLine
 10
31.64978483124139
 20
130.6302366534577
 30
0.0
 11
29.42849060426249
 21
130.6302366534577
 31
0.0
  0
LINE
  5
543
330
1F
100
AcDbEntity
  8
0
  6
CONTINUOUS
 62
   100
100
AcDbLine
 10
15.37107905822018
 20
130.6302366534577
 30
0.0
 11
12.64978483124139
 21
130.6302366534577
 31
0.0
  0
LINE
  5
544
330
1F
100
AcDbEntity
  8
0
  6
CONTINUOUS
 62
   100
100
AcDbLine
 10
24.87107909769304
 20
130.6302365535167
 30
0.0
 11
19.92849064373547
 21
130.6302365535167
 31
0.0
  0
LINE
  5
545
330
1F
100
AcDbEntity
  8
0
  6
CONTINUOUS
 62
   100
100
AcDbLine
 10
31.64978483124139
 20
130.6302366534577
 30
0.0
 11
34.37107905822006
 21
130.6302366534577
 31
0.0
  0
LINE
  5
546
330
1F
100
AcDbEntity
  8
0
  6
CONTINUOUS
 62
   100
100
AcDbLine
 10
38.92849060426249
 20
130.6302366534577
 30
0.0
 11
43.87107905822018
 21
130.6302366534577
 31
0.0
  0
LINE
  5
547
330
1F
100
AcDbEntity
  8
0
  6
CONTINUOUS
 62
   100
100
AcDbLine
 10
10.42849060426249
 20
130.6302366534577
 30
0.0
 11
12.64978483124139
 21
130.6302366534577
 31
0.0
  0
LINE
  5
548
330
1F
100
AcDbEntity
  8
0
  6
CONTINUOUS
 62
   100
100
AcDbLine
 10
-0.0877496361266594
 20
130.6302366534577
 30
0.0
 11
5.871079058220175
 21
130.6302366534577
 31
0.0
  0
ARC
  5
549
330
1F
100
AcDbEntity
  8
0
  6
CONTINUOUS
 62
   100
100
AcDbCircle
 10
55.64978483124139
 20
130.5302366534578
 30
0.0
 40
1.450000000000003
100
AcDbArc
 50
201.5520888872132
 51
338.4479111127868
  0
ARC
  5
54A
330
1F
100
AcDbEntity
  8
0
  6
CONTINUOUS
 62
   100
100
AcDbCircle
 10
57.92849060426249
 20
129.6302366534577
 30
0.0
 40
1.0
100
AcDbArc
 50
90.00000000000006
 51
158.4479111127868
  0
ARC
  5
54B
330
1F
100
AcDbEntity
  8
0
  6
CONTINUOUS
 62
   100
100
AcDbCircle
 10
53.37107905822006
 20
129.6302366534577
 30
0.0
 40
1.0
100
AcDbArc
 50
21.55208888721328
 51
77.26662101176963
  0
ARC
  5
54C
330
1F
100
AcDbEntity
  8
0
  6
CONTINUOUS
 62
   100
100
AcDbCircle
 10
17.64978483124139
 20
130.5302366534578
 30
0.0
 40
1.450000000000003
100
AcDbArc
 50
201.5520888872131
 51
338.4479111127867
  0
ARC
  5
54D
330
1F
100
AcDbEntity
  8
0
  6
CONTINUOUS
 62
   100
100
AcDbCircle
 10
27.14978483124139
 20
130.5302366534578
 30
0.0
 40
1.450000000000003
100
AcDbArc
 50
201.5520888872131
 51
338.4479111127867
  0
ARC
  5
54E
330
1F
100
AcDbEntity
  8
0
  6
CONTINUOUS
 62
   100
100
AcDbCircle
 10
15.37107905822018
 20
129.6302366534577
 30
0.0
 40
1.0
100
AcDbArc
 50
21.55208888721318
 51
89.99999999999987
  0
ARC
  5
54F
330
1F
100
AcDbEntity
  8
0
  6
CONTINUOUS
 62
   100
100
AcDbCircle
 10
19.92849060426249
 20
129.6302366534577
 30
0.0
 40
1.0
100
AcDbArc
 50
89.9999999999999
 51
158.4479111127866
  0
ARC
  5
550
330
1F
100
AcDbEntity
  8
0
  6
CONTINUOUS
 62
   100
100
AcDbCircle
 10
24.87107909769304
 20
129.6302365535167
 30
0.0
 40
1.0
100
AcDbArc
 50
21.55208888721318
 51
89.99999999999987
  0
ARC
  5
551
330
1F
100
AcDbEntity
  8
0
  6
CONTINUOUS
 62
   100
100
AcDbCircle
 10
29.42849060426249
 20
129.6302366534577
 30
0.0
 40
1.0
100
AcDbArc
 50
89.9999999999999
 51
158.4479111127866
  0
ARC
  5
552
330
1F
100
AcDbEntity
  8
0
  6
CONTINUOUS
 62
   100
100
AcDbCircle
 10
46.14978483124128
 20
130.5302366534578
 30
0.0
 40
1.450000000000003
100
AcDbArc
 50
201.5520888872132
 51
338.4479111127868
  0
ARC
  5
553
330
1F
100
AcDbEntity
  8
0
  6
CONTINUOUS
 62
   100
100
AcDbCircle
 10
36.64978483124128
 20
130.5302366534578
 30
0.0
 40
1.450000000000003
100
AcDbArc
 50
201.5520888872132
 51
338.4479111127868
  0
ARC
  5
554
330
1F
100
AcDbEntity
  8
0
  6
CONTINUOUS
 62
   100
100
AcDbCircle
 10
48.42849060426249
 20
129.6302366534577
 30
0.0
 40
1.0
100
AcDbArc
 50
90.00000000000006
 51
158.4479111127868
  0
ARC
  5
555
330
1F
100
AcDbEntity
  8
0
  6
CONTINUOUS
 62
   100
100
AcDbCircle
 10
43.87107905822006
 20
129.6302366534577
 30
0.0
 40
1.0
100
AcDbArc
 50
21.55208888721328
 51
90.00000000000003
  0
ARC
  5
556
330
1F
100
AcDbEntity
  8
0
  6
CONTINUOUS
 62
   100
100
AcDbCircle
 10
38.92849060426238
 20
129.6302366534577
 30
0.0
 40
1.0
100
AcDbArc
 50
90.00000000000006
 51
158.4479111127868
  0
ARC
  5
557
330
1F
100
AcDbEntity
  8
0
  6
CONTINUOUS
 62
   100
100
AcDbCircle
 10
34.37107905822006
 20
129.6302366534577
 30
0.0
 40
1.0
100
AcDbArc
 50
21.55208888721328
 51
90.00000000000003
  0
ARC
  5
558
330
1F
100
AcDbEntity
  8
0
  6
CONTINUOUS
 62
   100
100
AcDbCircle
 10
8.149784831241391
 20
130.5302366534578
 30
0.0
 40
1.450000000000003
100
AcDbArc
 50
201.5520888872132
 51
338.4479111127868
  0
ARC
  5
559
330
1F
100
AcDbEntity
  8
0
  6
CONTINUOUS
 62
   100
100
AcDbCircle
 10
10.42849060426249
 20
129.6302366534577
 30
0.0
 40
1.0
100
AcDbArc
 50
90.00000000000006
 51
158.4479111127868
  0
ARC
  5
55A
330
1F
100
AcDbEntity
  8
0
  6
CONTINUOUS
 62
   100
100
AcDbCircle
 10
5.871079058220175
 20
129.6302366534577
 30
0.0
 40
1.0
100
AcDbArc
 50
21.55208888721328
 51
90.00000000000003
  0
LINE
  5
55B
330
1F
100
AcDbEntity
  8
0
  6
CONTINUOUS
 62
   100
100
AcDbLine
 10
60.14978483124139
 20
130.6302366534577
 30
0.0
 11
57.92849060426249
 21
130.6302366534577
 31
0.0
  0
LINE
  5
55C
330
1F
100
AcDbEntity
  8
0
  6
CONTINUOUS
 62
   100
100
AcDbLine
 10
60.14978483124139
 20
130.6302366534577
 30
0.0
 11
62.87107905822006
 21
130.6302366534577
 31
0.0
  0
LINE
  5
55D
330
1F
100
AcDbEntity
  8
0
  6
CONTINUOUS
 62
   100
100
AcDbLine
 10
114.9284906042623
 20
130.6302366534577
 30
0.0
 11
118.917687842261
 21
130.6302366534577
 31
0.0
  0
ARC
  5
55E
330
1F
100
AcDbEntity
  8
0
  6
CONTINUOUS
 62
   100
100
AcDbCircle
 10
112.6497848312412
 20
130.5302366534578
 30
0.0
 40
1.450000000000003
100
AcDbArc
 50
201.5520888872132
 51
338.4479111127868
  0
ARC
  5
55F
330
1F
100
AcDbEntity
  8
0
  6
CONTINUOUS
 62
   100
100
AcDbCircle
 10
114.9284906042623
 20
129.6302366534577
 30
0.0
 40
1.0
100
AcDbArc
 50
90.00000000000006
 51
158.4479111127868
  0
ARC
  5
560
330
1F
100
AcDbEntity
  8
0
  6
CONTINUOUS
 62
   100
100
AcDbCircle
 10
110.3710790582201
 20
129.6302366534577
 30
0.0
 40
1.0
100
AcDbArc
 50
21.55208888721328
 51
90.00000000000003
  0
LINE
  5
561
330
1F
100
AcDbEntity
  8
0
  6
CONTINUOUS
 62
   100
100
AcDbLine
 10
48.55524758512286
 20
137.810058843643
 30
0.0
 11
47.49840657580137
 21
129.9975834922922
 31
0.0
  0
LINE
  5
562
330
1F
100
AcDbEntity
  8
0
  6
CONTINUOUS
 62
   100
100
AcDbLine
 10
48.42849060426249
 20
130.6302366534577
 30
0.0
 11
49.13427049949644
 21
135.6491159084547
 31
0.0
  0
LINE
  5
563
330
1F
100
AcDbEntity
  8
0
  6
CONTINUOUS
 62
   100
100
AcDbLine
 10
8.649784831241391
 20
162.6302366534578
 30
0.0
 11
5.928490604262493
 21
162.6302366534578
 31
0.0
  0
LINE
  5
564
330
1F
100
AcDbEntity
  8
0
  6
CONTINUOUS
 62
   100
100
AcDbLine
 10
-8.128920941779825
 20
162.6302366534578
 30
0.0
 11
-8.587748682452343
 21
162.6302366534578
 31
0.0
  0
LINE
  5
565
330
1F
100
AcDbEntity
  8
0
  6
CONTINUOUS
 62
   100
100
AcDbLine
 10
1.371079058220175
 20
162.6302366534578
 30
0.0
 11
-3.571509395737508
 21
162.6302366534578
 31
0.0
  0
LINE
  5
566
330
1F
100
AcDbEntity
  8
0
  6
CONTINUOUS
 62
   100
100
AcDbLine
 10
8.649784831241391
 20
162.6302366534578
 30
0.0
 11
10.87107905822018
 21
162.6302366534578
 31
0.0
  0
LINE
  5
567
330
1F
100
AcDbEntity
  8
0
  6
CONTINUOUS
 62
   100
100
AcDbLine
 10
24.92849060426249
 20
162.6302366534578
 30
0.0
 11
27.64978483124139
 21
162.6302366534578
 31
0.0
  0
LINE
  5
568
330
1F
100
AcDbEntity
  8
0
  6
CONTINUOUS
 62
   100
100
AcDbLine
 10
15.42849060426249
 20
162.6302366534578
 30
0.0
 11
20.37107905822018
 21
162.6302366534578
 31
0.0
  0
LINE
  5
569
330
1F
100
AcDbEntity
  8
0
  6
CONTINUOUS
 62
   100
100
AcDbLine
 10
15.42849060426249
 20
161.9302366534578
 30
0.0
 11
20.37107905822018
 21
161.9302366534578
 31
0.0
  0
LINE
  5
56A
330
1F
100
AcDbEntity
  8
0
  6
CONTINUOUS
 62
   100
100
AcDbLine
 10
5.928490604262493
 20
161.9302366534578
 30
0.0
 11
10.87107905822018
 21
161.9302366534578
 31
0.0
  0
LINE
  5
56B
330
1F
100
AcDbEntity
  8
0
  6
CONTINUOUS
 62
   100
100
AcDbLine
 10
0.0122312418798174
 20
161.9302366534578
 30
0.0
 11
1.371079058220175
 21
161.9302366534578
 31
0.0
  0
LINE
  5
56C
330
1F
100
AcDbEntity
  8
0
  6
CONTINUOUS
 62
   100
100
AcDbLine
 10
13.89256645842841
 20
162.8340415392449
 30
0.0
 11
14.09779856150647
 21
161.3654918238862
 31
0.0
  0
LINE
  5
56D
330
1F
100
AcDbEntity
  8
0
  6
CONTINUOUS
 62
   100
100
AcDbLine
 10
27.17849060426249
 20
146.6302366534577
 30
0.0
 11
24.92849060426249
 21
161.9302366534578
 31
0.0
  0
LINE
  5
56E
330
1F
100
AcDbEntity
  8
0
  6
CONTINUOUS
 62
   100
100
AcDbLine
 10
24.14249631007772
 20
146.6302366534577
 30
0.0
 11
21.90700320405415
 21
162.6264317676708
 31
0.0
  0
LINE
  5
56F
330
1F
100
AcDbEntity
  8
0
  6
CONTINUOUS
 62
   100
100
AcDbLine
 10
23.39256645842841
 20
162.8340415392447
 30
0.0
 11
25.65707335240484
 21
146.6302366534577
 31
0.0
  0
LINE
  5
570
330
1F
100
AcDbEntity
  8
0
  6
CONTINUOUS
 62
   100
100
AcDbLine
 10
20.37107905822018
 20
161.9302366534578
 30
0.0
 11
22.62107905822018
 21
146.6302366534577
 31
0.0
  0
CIRCLE
  5
571
330
1F
100
AcDbEntity
  8
0
  6
CONTINUOUS
 62
   100
100
AcDbCircle
 10
22.64978483124139
 20
162.7302366534578
 30
0.0
 40
0.5
  0
CIRCLE
  5
572
330
1F
100
AcDbEntity
  8
0
  6
CONTINUOUS
 62
   100
100
AcDbCircle
 10
22.64978483124139
 20
162.7302366534578
 30
0.0
 40
0.75
  0
CIRCLE
  5
573
330
1F
100
AcDbEntity
  8
0
  6
CONTINUOUS
 62
   100
100
AcDbCircle
 10
-5.850215168758609
 20
162.7302366534578
 30
0.0
 40
0.5
  0
ARC
  5
574
330
1F
100
AcDbEntity
  8
0
  6
CONTINUOUS
 62
   100
100
AcDbCircle
 10
-5.850215168758609
 20
162.7302366534578
 30
0.0
 40
1.450000000000003
100
AcDbArc
 50
21.55208888721323
 51
158.4479111127869
  0
ARC
  5
575
330
1F
100
AcDbEntity
  8
0
  6
CONTINUOUS
 62
   100
100
AcDbCircle
 10
3.649784831241391
 20
162.7302366534578
 30
0.0
 40
1.450000000000003
100
AcDbArc
 50
21.55208888721323
 51
158.4479111127869
  0
ARC
  5
576
330
1F
100
AcDbEntity
  8
0
  6
CONTINUOUS
 62
   100
100
AcDbCircle
 10
-8.128920941779825
 20
163.6302366534578
 30
0.0
 40
1.0
100
AcDbArc
 50
270.0000000000001
 51
338.4479111127868
  0
ARC
  5
577
330
1F
100
AcDbEntity
  8
0
  6
CONTINUOUS
 62
   100
100
AcDbCircle
 10
-3.571509395737508
 20
163.6302366534578
 30
0.0
 40
1.0
100
AcDbArc
 50
201.5520888872133
 51
270.0000000000001
  0
CIRCLE
  5
578
330
1F
100
AcDbEntity
  8
0
  6
CONTINUOUS
 62
   100
100
AcDbCircle
 10
3.649784831241391
 20
162.7302366534578
 30
0.0
 40
0.75
  0
CIRCLE
  5
579
330
1F
100
AcDbEntity
  8
0
  6
CONTINUOUS
 62
   100
100
AcDbCircle
 10
3.649784831241391
 20
162.7302366534578
 30
0.0
 40
0.5
  0
ARC
  5
57A
330
1F
100
AcDbEntity
  8
0
  6
CONTINUOUS
 62
   100
100
AcDbCircle
 10
1.371079058220175
 20
163.6302366534578
 30
0.0
 40
1.0
100
AcDbArc
 50
270.0000000000001
 51
338.4479111127868
  0
ARC
  5
57B
330
1F
100
AcDbEntity
  8
0
  6
CONTINUOUS
 62
   100
100
AcDbCircle
 10
5.928490604262493
 20
163.6302366534578
 30
0.0
 40
1.0
100
AcDbArc
 50
201.5520888872133
 51
270.0000000000001
  0
ARC
  5
57C
330
1F
100
AcDbEntity
  8
0
  6
CONTINUOUS
 62
   100
100
AcDbCircle
 10
22.64978483124139
 20
162.7302366534578
 30
0.0
 40
1.450000000000003
100
AcDbArc
 50
21.55208888721318
 51
158.4479111127868
  0
ARC
  5
57D
330
1F
100
AcDbEntity
  8
0
  6
CONTINUOUS
 62
   100
100
AcDbCircle
 10
13.14978483124139
 20
162.7302366534578
 30
0.0
 40
1.450000000000003
100
AcDbArc
 50
21.55208888721318
 51
158.4479111127868
  0
ARC
  5
57E
330
1F
100
AcDbEntity
  8
0
  6
CONTINUOUS
 62
   100
100
AcDbCircle
 10
24.92849060426249
 20
163.6302366534578
 30
0.0
 40
1.0
100
AcDbArc
 50
201.5520888872132
 51
269.9999999999999
  0
ARC
  5
57F
330
1F
100
AcDbEntity
  8
0
  6
CONTINUOUS
 62
   100
100
AcDbCircle
 10
20.37107905822018
 20
163.6302366534578
 30
0.0
 40
1.0
100
AcDbArc
 50
270.0
 51
338.4479111127867
  0
CIRCLE
  5
580
330
1F
100
AcDbEntity
  8
0
  6
CONTINUOUS
 62
   100
100
AcDbCircle
 10
13.14978483124139
 20
162.7302366534578
 30
0.0
 40
0.75
  0
CIRCLE
  5
581
330
1F
100
AcDbEntity
  8
0
  6
CONTINUOUS
 62
   100
100
AcDbCircle
 10
13.14978483124139
 20
162.7302366534578
 30
0.0
 40
0.5
  0
ARC
  5
582
330
1F
100
AcDbEntity
  8
0
  6
CONTINUOUS
 62
   100
100
AcDbCircle
 10
15.42849060426249
 20
163.6302366534578
 30
0.0
 40
1.0
100
AcDbArc
 50
201.5520888872132
 51
269.9999999999999
  0
ARC
  5
583
330
1F
100
AcDbEntity
  8
0
  6
CONTINUOUS
 62
   100
100
AcDbCircle
 10
10.87107905822018
 20
163.6302366534578
 30
0.0
 40
1.0
100
AcDbArc
 50
270.0
 51
338.4479111127867
  0
ARC
  5
584
330
1F
100
AcDbEntity
  8
0
  6
CONTINUOUS
 62
   100
100
AcDbCircle
 10
-8.128920941779825
 20
163.6302366534578
 30
0.0
 40
1.700000000000003
100
AcDbArc
 50
295.9961870571775
 51
338.4479111127868
  0
ARC
  5
585
330
1F
100
AcDbEntity
  8
0
  6
CONTINUOUS
 62
   100
100
AcDbCircle
 10
-3.571509395737508
 20
163.6302366534578
 30
0.0
 40
1.700000000000003
100
AcDbArc
 50
201.5520888872133
 51
250.6050770192714
  0
ARC
  5
586
330
1F
100
AcDbEntity
  8
0
  6
CONTINUOUS
 62
   100
100
AcDbCircle
 10
1.371079058220175
 20
163.6302366534578
 30
0.0
 40
1.700000000000003
100
AcDbArc
 50
270.0000000000001
 51
338.4479111127868
  0
ARC
  5
587
330
1F
100
AcDbEntity
  8
0
  6
CONTINUOUS
 62
   100
100
AcDbCircle
 10
5.928490604262493
 20
163.6302366534578
 30
0.0
 40
1.700000000000003
100
AcDbArc
 50
201.5520888872133
 51
270.0000000000001
  0
ARC
  5
588
330
1F
100
AcDbEntity
  8
0
  6
CONTINUOUS
 62
   100
100
AcDbCircle
 10
20.37107905822018
 20
163.6302366534578
 30
0.0
 40
1.700000000000003
100
AcDbArc
 50
270.0
 51
338.4479111127867
  0
ARC
  5
589
330
1F
100
AcDbEntity
  8
0
  6
CONTINUOUS
 62
   100
100
AcDbCircle
 10
24.92849060426249
 20
163.6302366534578
 30
0.0
 40
1.700000000000003
100
AcDbArc
 50
201.5520888872132
 51
269.9999999999999
  0
ARC
  5
58A
330
1F
100
AcDbEntity
  8
0
  6
CONTINUOUS
 62
   100
100
AcDbCircle
 10
10.87107905822018
 20
163.6302366534578
 30
0.0
 40
1.700000000000003
100
AcDbArc
 50
270.0
 51
338.4479111127867
  0
ARC
  5
58B
330
1F
100
AcDbEntity
  8
0
  6
CONTINUOUS
 62
   100
100
AcDbCircle
 10
15.42849060426249
 20
163.6302366534578
 30
0.0
 40
1.700000000000003
100
AcDbArc
 50
201.5520888872132
 51
269.9999999999999
  0
LINE
  5
58C
330
1F
100
AcDbEntity
  8
0
  6
CONTINUOUS
 62
   100
100
AcDbLine
 10
17.67849060426249
 20
146.6302366534577
 30
0.0
 11
16.4122508407105
 21
155.2406670456119
 31
0.0
  0
LINE
  5
58D
330
1F
100
AcDbEntity
  8
0
  6
CONTINUOUS
 62
   100
100
AcDbLine
 10
15.56575609492643
 20
160.9968313169432
 30
0.0
 11
15.42849060426249
 21
161.9302366534578
 31
0.0
  0
LINE
  5
58E
330
1F
100
AcDbEntity
  8
0
  6
CONTINUOUS
 62
   100
100
AcDbLine
 10
46.14978483124139
 20
162.6302366534578
 30
0.0
 11
48.37107905822018
 21
162.6302366534578
 31
0.0
  0
LINE
  5
58F
330
1F
100
AcDbEntity
  8
0
  6
CONTINUOUS
 62
   100
100
AcDbLine
 10
46.14978483124139
 20
162.6302366534578
 30
0.0
 11
45.01052952621637
 21
162.6302366534578
 31
0.0
  0
LINE
  5
590
330
1F
100
AcDbEntity
  8
0
  6
CONTINUOUS
 62
   100
100
AcDbLine
 10
39.37107905822018
 20
162.6302366534578
 30
0.0
 11
34.42849060426249
 21
162.6302366534578
 31
0.0
  0
LINE
  5
591
330
1F
100
AcDbEntity
  8
0
  6
CONTINUOUS
 62
   100
100
AcDbLine
 10
45.19809396091819
 20
161.9302366534578
 30
0.0
 11
48.37107905822018
 21
161.9302366534578
 31
0.0
  0
LINE
  5
592
330
1F
100
AcDbEntity
  8
0
  6
CONTINUOUS
 62
   100
100
AcDbLine
 10
34.42849060426249
 20
161.9302366534578
 30
0.0
 11
39.37107905822018
 21
161.9302366534578
 31
0.0
  0
LINE
  5
593
330
1F
100
AcDbEntity
  8
0
  6
CONTINUOUS
 62
   100
100
AcDbLine
 10
33.64249631007772
 20
146.6302366534577
 30
0.0
 11
31.40700320405415
 21
162.6264317676708
 31
0.0
  0
LINE
  5
594
330
1F
100
AcDbEntity
  8
0
  6
CONTINUOUS
 62
   100
100
AcDbLine
 10
29.87107905822018
 20
161.9302366534578
 30
0.0
 11
32.12107905822018
 21
146.6302366534577
 31
0.0
  0
LINE
  5
595
330
1F
100
AcDbEntity
  8
0
  6
CONTINUOUS
 62
   100
100
AcDbLine
 10
32.89256645842841
 20
162.8340415392447
 30
0.0
 11
35.15707335240484
 21
146.6302366534577
 31
0.0
  0
LINE
  5
596
330
1F
100
AcDbEntity
  8
0
  6
CONTINUOUS
 62
   100
100
AcDbLine
 10
36.67849060426249
 20
146.6302366534577
 30
0.0
 11
34.42849060426249
 21
161.9302366534578
 31
0.0
  0
LINE
  5
597
330
1F
100
AcDbEntity
  8
0
  6
CONTINUOUS
 62
   100
100
AcDbLine
 10
39.37107905822018
 20
161.9302366534578
 30
0.0
 11
41.62107905822018
 21
146.6302366534577
 31
0.0
  0
LINE
  5
598
330
1F
100
AcDbEntity
  8
0
  6
CONTINUOUS
 62
   100
100
AcDbLine
 10
42.9839322572119
 20
158.6024907123941
 30
0.0
 11
44.65707335240484
 21
146.6302366534577
 31
0.0
  0
LINE
  5
599
330
1F
100
AcDbEntity
  8
0
  6
CONTINUOUS
 62
   100
100
AcDbLine
 10
43.14249631007772
 20
146.6302366534577
 30
0.0
 11
40.90700320405415
 21
162.6264317676708
 31
0.0
  0
LINE
  5
59A
330
1F
100
AcDbEntity
  8
0
  6
CONTINUOUS
 62
   100
100
AcDbLine
 10
52.14249631007772
 20
146.6302366534578
 30
0.0
 11
49.90700320405415
 21
162.6264317676708
 31
0.0
  0
LINE
  5
59B
330
1F
100
AcDbEntity
  8
0
  6
CONTINUOUS
 62
   100
100
AcDbLine
 10
55.17849060426249
 20
146.6302366534577
 30
0.0
 11
52.92849060426249
 21
161.9302366534578
 31
0.0
  0
LINE
  5
59C
330
1F
100
AcDbEntity
  8
0
  6
CONTINUOUS
 62
   100
100
AcDbLine
 10
51.39256645842841
 20
162.8340415392447
 30
0.0
 11
53.65707335240484
 21
146.6302366534577
 31
0.0
  0
LINE
  5
59D
330
1F
100
AcDbEntity
  8
0
  6
CONTINUOUS
 62
   100
100
AcDbLine
 10
48.37107905822006
 20
161.9302366534578
 30
0.0
 11
50.64978483124116
 21
146.4350373969136
 31
0.0
  0
CIRCLE
  5
59E
330
1F
100
AcDbEntity
  8
0
  6
CONTINUOUS
 62
   100
100
AcDbCircle
 10
32.14978483124139
 20
162.7302366534578
 30
0.0
 40
0.75
  0
CIRCLE
  5
59F
330
1F
100
AcDbEntity
  8
0
  6
CONTINUOUS
 62
   100
100
AcDbCircle
 10
32.14978483124139
 20
162.7302366534578
 30
0.0
 40
0.5
  0
ARC
  5
5A0
330
1F
100
AcDbEntity
  8
0
  6
CONTINUOUS
 62
   100
100
AcDbCircle
 10
32.14978483124139
 20
162.7302366534578
 30
0.0
 40
1.450000000000003
100
AcDbArc
 50
21.55208888721323
 51
158.4479111127869
  0
ARC
  5
5A1
330
1F
100
AcDbEntity
  8
0
  6
CONTINUOUS
 62
   100
100
AcDbCircle
 10
41.64978483124139
 20
162.7302366534578
 30
0.0
 40
1.450000000000003
100
AcDbArc
 50
96.25922390859485
 51
158.4479111127869
  0
ARC
  5
5A2
330
1F
100
AcDbEntity
  8
0
  6
CONTINUOUS
 62
   100
100
AcDbCircle
 10
29.87107905822018
 20
163.6302366534578
 30
0.0
 40
1.0
100
AcDbArc
 50
270.0000000000001
 51
338.4479111127868
  0
ARC
  5
5A3
330
1F
100
AcDbEntity
  8
0
  6
CONTINUOUS
 62
   100
100
AcDbCircle
 10
34.42849060426249
 20
163.6302366534578
 30
0.0
 40
1.0
100
AcDbArc
 50
201.5520888872133
 51
270.0000000000001
  0
ARC
  5
5A4
330
1F
100
AcDbEntity
  8
0
  6
CONTINUOUS
 62
   100
100
AcDbCircle
 10
41.64978483124139
 20
162.7302366534578
 30
0.0
 40
0.75
100
AcDbArc
 50
87.91455043567224
 51
302.0854495643287
  0
ARC
  5
5A5
330
1F
100
AcDbEntity
  8
0
  6
CONTINUOUS
 62
   100
100
AcDbCircle
 10
41.64978483124139
 20
162.7302366534578
 30
0.0
 40
0.5
100
AcDbArc
 50
78.85167839231021
 51
311.1483216076899
  0
ARC
  5
5A6
330
1F
100
AcDbEntity
  8
0
  6
CONTINUOUS
 62
   100
100
AcDbCircle
 10
39.37107905822018
 20
163.6302366534578
 30
0.0
 40
1.0
100
AcDbArc
 50
270.0000000000001
 51
338.4479111127868
  0
CIRCLE
  5
5A7
330
1F
100
AcDbEntity
  8
0
  6
CONTINUOUS
 62
   100
100
AcDbCircle
 10
50.64978483124139
 20
162.7302366534578
 30
0.0
 40
0.75
  0
CIRCLE
  5
5A8
330
1F
100
AcDbEntity
  8
0
  6
CONTINUOUS
 62
   100
100
AcDbCircle
 10
50.64978483124139
 20
162.7302366534578
 30
0.0
 40
0.5
  0
ARC
  5
5A9
330
1F
100
AcDbEntity
  8
0
  6
CONTINUOUS
 62
   100
100
AcDbCircle
 10
50.64978483124139
 20
162.7302366534578
 30
0.0
 40
1.450000000000003
100
AcDbArc
 50
21.55208888721323
 51
158.4479111127869
  0
ARC
  5
5AA
330
1F
100
AcDbEntity
  8
0
  6
CONTINUOUS
 62
   100
100
AcDbCircle
 10
48.37107905822018
 20
163.6302366534578
 30
0.0
 40
1.0
100
AcDbArc
 50
270.0000000000001
 51
338.4479111127868
  0
ARC
  5
5AB
330
1F
100
AcDbEntity
  8
0
  6
CONTINUOUS
 62
   100
100
AcDbCircle
 10
52.92849060426249
 20
163.6302366534578
 30
0.0
 40
1.0
100
AcDbArc
 50
201.5520888872133
 51
270.0000000000001
  0
ARC
  5
5AC
330
1F
100
AcDbEntity
  8
0
  6
CONTINUOUS
 62
   100
100
AcDbCircle
 10
29.87107905822018
 20
163.6302366534578
 30
0.0
 40
1.700000000000003
100
AcDbArc
 50
270.0000000000001
 51
338.4479111127868
  0
ARC
  5
5AD
330
1F
100
AcDbEntity
  8
0
  6
CONTINUOUS
 62
   100
100
AcDbCircle
 10
34.42849060426249
 20
163.6302366534578
 30
0.0
 40
1.700000000000003
100
AcDbArc
 50
201.5520888872133
 51
270.0000000000001
  0
ARC
  5
5AE
330
1F
100
AcDbEntity
  8
0
  6
CONTINUOUS
 62
   100
100
AcDbCircle
 10
39.37107905822018
 20
163.6302366534578
 30
0.0
 40
1.700000000000003
100
AcDbArc
 50
270.0000000000001
 51
338.4479111127868
  0
ARC
  5
5AF
330
1F
100
AcDbEntity
  8
0
  6
CONTINUOUS
 62
   100
100
AcDbCircle
 10
48.37107905822018
 20
163.6302366534578
 30
0.0
 40
1.700000000000003
100
AcDbArc
 50
270.0000000000001
 51
338.4479111127868
  0
ARC
  5
5B0
330
1F
100
AcDbEntity
  8
0
  6
CONTINUOUS
 62
   100
100
AcDbCircle
 10
52.92849060426249
 20
163.6302366534578
 30
0.0
 40
1.700000000000003
100
AcDbArc
 50
201.5520888872133
 51
270.0000000000001
  0
LINE
  5
5B1
330
1F
100
AcDbEntity
  8
0
  6
CONTINUOUS
 62
   100
100
AcDbLine
 10
49.74840662879376
 20
146.6302366534577
 30
0.0
 11
49.59720683387332
 21
145.512523903359
 31
0.0
  0
LINE
  5
5B2
330
1F
100
AcDbEntity
  8
0
  6
CONTINUOUS
 62
   100
100
AcDbLine
 10
109.9284906042625
 20
162.6302366534578
 30
0.0
 11
112.1497848312414
 21
162.6302366534578
 31
0.0
  0
LINE
  5
5B3
330
1F
100
AcDbEntity
  8
0
  6
CONTINUOUS
 62
   100
100
AcDbLine
 10
131.1497848312414
 20
162.6302366534578
 30
0.0
 11
128.9284906042625
 21
162.6302366534578
 31
0.0
  0
LINE
  5
5B4
330
1F
100
AcDbEntity
  8
0
  6
CONTINUOUS
 62
   100
100
AcDbLine
 10
114.8710790582201
 20
162.6302366534578
 30
0.0
 11
112.1497848312414
 21
162.6302366534578
 31
0.0
  0
LINE
  5
5B5
330
1F
100
AcDbEntity
  8
0
  6
CONTINUOUS
 62
   100
100
AcDbLine
 10
124.3710790582201
 20
162.6302366534578
 30
0.0
 11
119.4284906042625
 21
162.6302366534578
 31
0.0
  0
LINE
  5
5B6
330
1F
100
AcDbEntity
  8
0
  6
CONTINUOUS
 62
   100
100
AcDbLine
 10
128.9284906042625
 20
161.9302366534578
 30
0.0
 11
131.1497848312414
 21
161.9302366534578
 31
0.0
  0
LINE
  5
5B7
330
1F
100
AcDbEntity
  8
0
  6
CONTINUOUS
 62
   100
100
AcDbLine
 10
119.4284906042625
 20
161.9302366534578
 30
0.0
 11
124.3710790582201
 21
161.9302366534578
 31
0.0
  0
LINE
  5
5B8
330
1F
100
AcDbEntity
  8
0
  6
CONTINUOUS
 62
   100
100
AcDbLine
 10
109.9284906042625
 20
161.9302366534578
 30
0.0
 11
114.8710790582201
 21
161.9302366534578
 31
0.0
  0
LINE
  5
5B9
330
1F
100
AcDbEntity
  8
0
  6
CONTINUOUS
 62
   100
100
AcDbLine
 10
108.3925664584284
 20
162.8340415392447
 30
0.0
 11
110.6570733524048
 21
146.6302366534578
 31
0.0
  0
LINE
  5
5BA
330
1F
100
AcDbEntity
  8
0
  6
CONTINUOUS
 62
   100
100
AcDbLine
 10
112.1784906042625
 20
146.6302366534577
 30
0.0
 11
109.9284906042625
 21
161.9302366534578
 31
0.0
  0
LINE
  5
5BB
330
1F
100
AcDbEntity
  8
0
  6
CONTINUOUS
 62
   100
100
AcDbLine
 10
109.1424963100777
 20
146.6302366534578
 30
0.0
 11
106.9070032040542
 21
162.6264317676708
 31
0.0
  0
LINE
  5
5BC
330
1F
100
AcDbEntity
  8
0
  6
CONTINUOUS
 62
   100
100
AcDbLine
 10
105.3710790582201
 20
161.9302366534578
 30
0.0
 11
107.6210790582201
 21
146.6302366534577
 31
0.0
  0
LINE
  5
5BD
330
1F
100
AcDbEntity
  8
0
  6
CONTINUOUS
 62
   100
100
AcDbLine
 10
114.8710790582201
 20
161.9302366534578
 30
0.0
 11
117.1210790582201
 21
146.6302366534577
 31
0.0
  0
LINE
  5
5BE
330
1F
100
AcDbEntity
  8
0
  6
CONTINUOUS
 62
   100
100
AcDbLine
 10
118.6424963100775
 20
146.6302366534578
 30
0.0
 11
116.4070032040542
 21
162.6264317676708
 31
0.0
  0
LINE
  5
5BF
330
1F
100
AcDbEntity
  8
0
  6
CONTINUOUS
 62
   100
100
AcDbLine
 10
121.6784906042625
 20
146.6302366534577
 30
0.0
 11
119.4284906042625
 21
161.9302366534578
 31
0.0
  0
LINE
  5
5C0
330
1F
100
AcDbEntity
  8
0
  6
CONTINUOUS
 62
   100
100
AcDbLine
 10
117.8925664584284
 20
162.8340415392447
 30
0.0
 11
120.1570733524048
 21
146.6302366534577
 31
0.0
  0
LINE
  5
5C1
330
1F
100
AcDbEntity
  8
0
  6
CONTINUOUS
 62
   100
100
AcDbLine
 10
124.3710790582201
 20
161.9302366534578
 30
0.0
 11
126.6497848312414
 21
146.4350373969136
 31
0.0
  0
LINE
  5
5C2
330
1F
100
AcDbEntity
  8
0
  6
CONTINUOUS
 62
   100
100
AcDbLine
 10
131.1784906042625
 20
146.6302366534578
 30
0.0
 11
128.9284906042625
 21
161.9302366534578
 31
0.0
  0
LINE
  5
5C3
330
1F
100
AcDbEntity
  8
0
  6
CONTINUOUS
 62
   100
100
AcDbLine
 10
128.1424963100775
 20
146.6302366534578
 30
0.0
 11
125.9070032040539
 21
162.6264317676708
 31
0.0
  0
LINE
  5
5C4
330
1F
100
AcDbEntity
  8
0
  6
CONTINUOUS
 62
   100
100
AcDbLine
 10
127.3925664584282
 20
162.8340415392447
 30
0.0
 11
129.6570733524046
 21
146.6302366534578
 31
0.0
  0
CIRCLE
  5
5C5
330
1F
100
AcDbEntity
  8
0
  6
CONTINUOUS
 62
   100
100
AcDbCircle
 10
107.6497848312414
 20
162.7302366534578
 30
0.0
 40
0.75
  0
CIRCLE
  5
5C6
330
1F
100
AcDbEntity
  8
0
  6
CONTINUOUS
 62
   100
100
AcDbCircle
 10
107.6497848312414
 20
162.7302366534578
 30
0.0
 40
0.5
  0
ARC
  5
5C7
330
1F
100
AcDbEntity
  8
0
  6
CONTINUOUS
 62
   100
100
AcDbCircle
 10
107.6497848312414
 20
162.7302366534578
 30
0.0
 40
1.450000000000003
100
AcDbArc
 50
21.55208888721319
 51
158.4479111127868
  0
ARC
  5
5C8
330
1F
100
AcDbEntity
  8
0
  6
CONTINUOUS
 62
   100
100
AcDbCircle
 10
105.3710790582201
 20
163.6302366534578
 30
0.0
 40
1.0
100
AcDbArc
 50
270.0
 51
338.4479111127867
  0
ARC
  5
5C9
330
1F
100
AcDbEntity
  8
0
  6
CONTINUOUS
 62
   100
100
AcDbCircle
 10
109.9284906042625
 20
163.6302366534578
 30
0.0
 40
1.0
100
AcDbArc
 50
201.5520888872133
 51
270.0
  0
CIRCLE
  5
5CA
330
1F
100
AcDbEntity
  8
0
  6
CONTINUOUS
 62
   100
100
AcDbCircle
 10
117.1497848312414
 20
162.7302366534578
 30
0.0
 40
0.75
  0
CIRCLE
  5
5CB
330
1F
100
AcDbEntity
  8
0
  6
CONTINUOUS
 62
   100
100
AcDbCircle
 10
117.1497848312414
 20
162.7302366534578
 30
0.0
 40
0.5
  0
ARC
  5
5CC
330
1F
100
AcDbEntity
  8
0
  6
CONTINUOUS
 62
   100
100
AcDbCircle
 10
117.1497848312414
 20
162.7302366534578
 30
0.0
 40
1.450000000000003
100
AcDbArc
 50
21.55208888721323
 51
158.4479111127869
  0
ARC
  5
5CD
330
1F
100
AcDbEntity
  8
0
  6
CONTINUOUS
 62
   100
100
AcDbCircle
 10
126.6497848312414
 20
162.7302366534578
 30
0.0
 40
1.450000000000003
100
AcDbArc
 50
21.55208888721323
 51
158.4479111127869
  0
ARC
  5
5CE
330
1F
100
AcDbEntity
  8
0
  6
CONTINUOUS
 62
   100
100
AcDbCircle
 10
114.8710790582201
 20
163.6302366534578
 30
0.0
 40
1.0
100
AcDbArc
 50
270.0000000000001
 51
338.4479111127868
  0
ARC
  5
5CF
330
1F
100
AcDbEntity
  8
0
  6
CONTINUOUS
 62
   100
100
AcDbCircle
 10
119.4284906042625
 20
163.6302366534578
 30
0.0
 40
1.0
100
AcDbArc
 50
201.5520888872133
 51
270.0000000000001
  0
CIRCLE
  5
5D0
330
1F
100
AcDbEntity
  8
0
  6
CONTINUOUS
 62
   100
100
AcDbCircle
 10
126.6497848312414
 20
162.7302366534578
 30
0.0
 40
0.75
  0
CIRCLE
  5
5D1
330
1F
100
AcDbEntity
  8
0
  6
CONTINUOUS
 62
   100
100
AcDbCircle
 10
126.6497848312414
 20
162.7302366534578
 30
0.0
 40
0.5
  0
ARC
  5
5D2
330
1F
100
AcDbEntity
  8
0
  6
CONTINUOUS
 62
   100
100
AcDbCircle
 10
124.3710790582201
 20
163.6302366534578
 30
0.0
 40
1.0
100
AcDbArc
 50
270.0000000000001
 51
338.4479111127868
  0
ARC
  5
5D3
330
1F
100
AcDbEntity
  8
0
  6
CONTINUOUS
 62
   100
100
AcDbCircle
 10
128.9284906042625
 20
163.6302366534578
 30
0.0
 40
1.0
100
AcDbArc
 50
201.5520888872133
 51
270.0000000000001
  0
ARC
  5
5D4
330
1F
100
AcDbEntity
  8
0
  6
CONTINUOUS
 62
   100
100
AcDbCircle
 10
105.3710790582201
 20
163.6302366534578
 30
0.0
 40
1.700000000000003
100
AcDbArc
 50
270.0
 51
338.4479111127867
  0
ARC
  5
5D5
330
1F
100
AcDbEntity
  8
0
  6
CONTINUOUS
 62
   100
100
AcDbCircle
 10
109.9284906042625
 20
163.6302366534578
 30
0.0
 40
1.700000000000003
100
AcDbArc
 50
201.5520888872133
 51
270.0
  0
ARC
  5
5D6
330
1F
100
AcDbEntity
  8
0
  6
CONTINUOUS
 62
   100
100
AcDbCircle
 10
114.8710790582201
 20
163.6302366534578
 30
0.0
 40
1.700000000000003
100
AcDbArc
 50
270.0000000000001
 51
338.4479111127868
  0
ARC
  5
5D7
330
1F
100
AcDbEntity
  8
0
  6
CONTINUOUS
 62
   100
100
AcDbCircle
 10
119.4284906042625
 20
163.6302366534578
 30
0.0
 40
1.700000000000003
100
AcDbArc
 50
201.5520888872133
 51
270.0000000000001
  0
ARC
  5
5D8
330
1F
100
AcDbEntity
  8
0
  6
CONTINUOUS
 62
   100
100
AcDbCircle
 10
124.3710790582201
 20
163.6302366534578
 30
0.0
 40
1.700000000000003
100
AcDbArc
 50
270.0000000000001
 51
338.4479111127868
  0
ARC
  5
5D9
330
1F
100
AcDbEntity
  8
0
  6
CONTINUOUS
 62
   100
100
AcDbCircle
 10
128.9284906042625
 20
163.6302366534578
 30
0.0
 40
1.700000000000003
100
AcDbArc
 50
201.5520888872133
 51
270.0000000000001
  0
LINE
  5
5DA
330
1F
100
AcDbEntity
  8
0
  6
CONTINUOUS
 62
   100
100
AcDbLine
 10
131.1497848312414
 20
162.6302366534578
 30
0.0
 11
133.8710790582203
 21
162.6302366534578
 31
0.0
  0
LINE
  5
5DB
330
1F
100
AcDbEntity
  8
0
  6
CONTINUOUS
 62
   100
100
AcDbLine
 10
147.9284906042627
 20
162.6302366534578
 30
0.0
 11
150.1497848312414
 21
162.6302366534578
 31
0.0
  0
LINE
  5
5DC
330
1F
100
AcDbEntity
  8
0
  6
CONTINUOUS
 62
   100
100
AcDbLine
 10
138.4284906042627
 20
162.6302366534578
 30
0.0
 11
143.3710790582203
 21
162.6302366534578
 31
0.0
  0
LINE
  5
5DD
330
1F
100
AcDbEntity
  8
0
  6
CONTINUOUS
 62
   100
100
AcDbLine
 10
169.1497848312414
 20
162.6302366534578
 30
0.0
 11
166.9284906042625
 21
162.6302366534578
 31
0.0
  0
LINE
  5
5DE
330
1F
100
AcDbEntity
  8
0
  6
CONTINUOUS
 62
   100
100
AcDbLine
 10
152.8710790582203
 20
162.6302366534578
 30
0.0
 11
150.1497848312414
 21
162.6302366534578
 31
0.0
  0
LINE
  5
5DF
330
1F
100
AcDbEntity
  8
0
  6
CONTINUOUS
 62
   100
100
AcDbLine
 10
162.3710790582203
 20
162.6302366534578
 30
0.0
 11
157.4284906042627
 21
162.6302366534578
 31
0.0
  0
LINE
  5
5E0
330
1F
100
AcDbEntity
  8
0
  6
CONTINUOUS
 62
   100
100
AcDbLine
 10
169.1497848312414
 20
162.6302366534578
 30
0.0
 11
169.1497848312414
 21
151.1302366534578
 31
0.0
  0
LINE
  5
5E1
330
1F
100
AcDbEntity
  8
0
  6
CONTINUOUS
 62
   100
100
AcDbLine
 10
164.6497848312414
 20
146.6302366534578
 30
0.0
 11
169.1497848312414
 21
151.1302366534578
 31
0.0
  0
LINE
  5
5E2
330
1F
100
AcDbEntity
  8
0
  6
CONTINUOUS
 62
   100
100
AcDbLine
 10
166.9284906042625
 20
161.9302366534578
 30
0.0
 11
169.1497848312414
 21
161.9302366534578
 31
0.0
  0
LINE
  5
5E3
330
1F
100
AcDbEntity
  8
0
  6
CONTINUOUS
 62
   100
100
AcDbLine
 10
157.4284906042627
 20
161.9302366534578
 30
0.0
 11
162.3710790582203
 21
161.9302366534578
 31
0.0
  0
LINE
  5
5E4
330
1F
100
AcDbEntity
  8
0
  6
CONTINUOUS
 62
   100
100
AcDbLine
 10
147.9284906042627
 20
161.9302366534578
 30
0.0
 11
152.8710790582203
 21
161.9302366534578
 31
0.0
  0
LINE
  5
5E5
330
1F
100
AcDbEntity
  8
0
  6
CONTINUOUS
 62
   100
100
AcDbLine
 10
138.4284906042627
 20
161.9302366534578
 30
0.0
 11
143.3710790582203
 21
161.9302366534578
 31
0.0
  0
LINE
  5
5E6
330
1F
100
AcDbEntity
  8
0
  6
CONTINUOUS
 62
   100
100
AcDbLine
 10
131.1497848312414
 20
161.9302366534578
 30
0.0
 11
133.8710790582203
 21
161.9302366534578
 31
0.0
  0
LINE
  5
5E7
330
1F
100
AcDbEntity
  8
0
  6
CONTINUOUS
 62
   100
100
AcDbLine
 10
133.8710790582203
 20
161.9302366534578
 30
0.0
 11
136.1210790582203
 21
146.6302366534577
 31
0.0
  0
LINE
  5
5E8
330
1F
100
AcDbEntity
  8
0
  6
CONTINUOUS
 62
   100
100
AcDbLine
 10
137.6424963100777
 20
146.6302366534577
 30
0.0
 11
135.4070032040542
 21
162.6264317676708
 31
0.0
  0
LINE
  5
5E9
330
1F
100
AcDbEntity
  8
0
  6
CONTINUOUS
 62
   100
100
AcDbLine
 10
140.6784906042627
 20
146.6302366534577
 30
0.0
 11
138.4284906042627
 21
161.9302366534578
 31
0.0
  0
LINE
  5
5EA
330
1F
100
AcDbEntity
  8
0
  6
CONTINUOUS
 62
   100
100
AcDbLine
 10
136.8925664584284
 20
162.8340415392447
 30
0.0
 11
139.1570733524048
 21
146.6302366534577
 31
0.0
  0
LINE
  5
5EB
330
1F
100
AcDbEntity
  8
0
  6
CONTINUOUS
 62
   100
100
AcDbLine
 10
146.3925664584284
 20
162.8340415392447
 30
0.0
 11
148.6570733524048
 21
146.6302366534578
 31
0.0
  0
LINE
  5
5EC
330
1F
100
AcDbEntity
  8
0
  6
CONTINUOUS
 62
   100
100
AcDbLine
 10
150.1784906042627
 20
146.6302366534577
 30
0.0
 11
147.9284906042627
 21
161.9302366534578
 31
0.0
  0
LINE
  5
5ED
330
1F
100
AcDbEntity
  8
0
  6
CONTINUOUS
 62
   100
100
AcDbLine
 10
147.1424963100777
 20
146.6302366534578
 30
0.0
 11
144.9070032040542
 21
162.6264317676708
 31
0.0
  0
LINE
  5
5EE
330
1F
100
AcDbEntity
  8
0
  6
CONTINUOUS
 62
   100
100
AcDbLine
 10
143.3710790582203
 20
161.9302366534578
 30
0.0
 11
145.6210790582203
 21
146.6302366534577
 31
0.0
  0
LINE
  5
5EF
330
1F
100
AcDbEntity
  8
0
  6
CONTINUOUS
 62
   100
100
AcDbLine
 10
152.8710790582203
 20
161.9302366534578
 30
0.0
 11
155.1210790582203
 21
146.6302366534577
 31
0.0
  0
LINE
  5
5F0
330
1F
100
AcDbEntity
  8
0
  6
CONTINUOUS
 62
   100
100
AcDbLine
 10
156.6424963100777
 20
146.6302366534578
 30
0.0
 11
154.4070032040542
 21
162.6264317676708
 31
0.0
  0
LINE
  5
5F1
330
1F
100
AcDbEntity
  8
0
  6
CONTINUOUS
 62
   100
100
AcDbLine
 10
159.6784906042627
 20
146.6302366534577
 30
0.0
 11
157.4284906042627
 21
161.9302366534578
 31
0.0
  0
LINE
  5
5F2
330
1F
100
AcDbEntity
  8
0
  6
CONTINUOUS
 62
   100
100
AcDbLine
 10
155.8925664584284
 20
162.8340415392447
 30
0.0
 11
158.1570733524048
 21
146.6302366534577
 31
0.0
  0
LINE
  5
5F3
330
1F
100
AcDbEntity
  8
0
  6
CONTINUOUS
 62
   100
100
AcDbLine
 10
162.3710790582203
 20
161.9302366534578
 30
0.0
 11
164.6497848312414
 21
146.4350373969136
 31
0.0
  0
LINE
  5
5F4
330
1F
100
AcDbEntity
  8
0
  6
CONTINUOUS
 62
   100
100
AcDbLine
 10
168.5978873000291
 20
150.5783391222455
 30
0.0
 11
166.9284906042625
 21
161.9302366534578
 31
0.0
  0
LINE
  5
5F5
330
1F
100
AcDbEntity
  8
0
  6
CONTINUOUS
 62
   100
100
AcDbLine
 10
165.9594662922367
 20
147.9399181144532
 30
0.0
 11
163.9070032040542
 21
162.6264317676708
 31
0.0
  0
LINE
  5
5F6
330
1F
100
AcDbEntity
  8
0
  6
CONTINUOUS
 62
   100
100
AcDbLine
 10
165.3925664584284
 20
162.8340415392447
 30
0.0
 11
167.2883322530796
 21
149.2687840752959
 31
0.0
  0
CIRCLE
  5
5F7
330
1F
100
AcDbEntity
  8
0
  6
CONTINUOUS
 62
   100
100
AcDbCircle
 10
145.6497848312414
 20
162.7302366534578
 30
0.0
 40
0.75
  0
CIRCLE
  5
5F8
330
1F
100
AcDbEntity
  8
0
  6
CONTINUOUS
 62
   100
100
AcDbCircle
 10
145.6497848312414
 20
162.7302366534578
 30
0.0
 40
0.5
  0
ARC
  5
5F9
330
1F
100
AcDbEntity
  8
0
  6
CONTINUOUS
 62
   100
100
AcDbCircle
 10
145.6497848312414
 20
162.7302366534578
 30
0.0
 40
1.450000000000003
100
AcDbArc
 50
21.55208888721319
 51
158.4479111127868
  0
ARC
  5
5FA
330
1F
100
AcDbEntity
  8
0
  6
CONTINUOUS
 62
   100
100
AcDbCircle
 10
143.3710790582203
 20
163.6302366534578
 30
0.0
 40
1.0
100
AcDbArc
 50
270.0
 51
338.4479111127867
  0
ARC
  5
5FB
330
1F
100
AcDbEntity
  8
0
  6
CONTINUOUS
 62
   100
100
AcDbCircle
 10
147.9284906042627
 20
163.6302366534578
 30
0.0
 40
1.0
100
AcDbArc
 50
201.5520888872133
 51
270.0
  0
CIRCLE
  5
5FC
330
1F
100
AcDbEntity
  8
0
  6
CONTINUOUS
 62
   100
100
AcDbCircle
 10
136.1497848312414
 20
162.7302366534578
 30
0.0
 40
0.75
  0
CIRCLE
  5
5FD
330
1F
100
AcDbEntity
  8
0
  6
CONTINUOUS
 62
   100
100
AcDbCircle
 10
136.1497848312414
 20
162.7302366534578
 30
0.0
 40
0.5
  0
ARC
  5
5FE
330
1F
100
AcDbEntity
  8
0
  6
CONTINUOUS
 62
   100
100
AcDbCircle
 10
136.1497848312414
 20
162.7302366534578
 30
0.0
 40
1.450000000000003
100
AcDbArc
 50
21.55208888721319
 51
158.4479111127868
  0
ARC
  5
5FF
330
1F
100
AcDbEntity
  8
0
  6
CONTINUOUS
 62
   100
100
AcDbCircle
 10
138.4284906042627
 20
163.6302366534578
 30
0.0
 40
1.0
100
AcDbArc
 50
201.5520888872133
 51
270.0
  0
ARC
  5
600
330
1F
100
AcDbEntity
  8
0
  6
CONTINUOUS
 62
   100
100
AcDbCircle
 10
133.8710790582203
 20
163.6302366534578
 30
0.0
 40
1.0
100
AcDbArc
 50
270.0
 51
338.4479111127867
  0
CIRCLE
  5
601
330
1F
100
AcDbEntity
  8
0
  6
CONTINUOUS
 62
   100
100
AcDbCircle
 10
155.1497848312414
 20
162.7302366534578
 30
0.0
 40
0.75
  0
CIRCLE
  5
602
330
1F
100
AcDbEntity
  8
0
  6
CONTINUOUS
 62
   100
100
AcDbCircle
 10
155.1497848312414
 20
162.7302366534578
 30
0.0
 40
0.5
  0
ARC
  5
603
330
1F
100
AcDbEntity
  8
0
  6
CONTINUOUS
 62
   100
100
AcDbCircle
 10
155.1497848312414
 20
162.7302366534578
 30
0.0
 40
1.450000000000003
100
AcDbArc
 50
21.55208888721323
 51
158.4479111127869
  0
ARC
  5
604
330
1F
100
AcDbEntity
  8
0
  6
CONTINUOUS
 62
   100
100
AcDbCircle
 10
164.6497848312414
 20
162.7302366534578
 30
0.0
 40
1.450000000000003
100
AcDbArc
 50
21.55208888721323
 51
158.4479111127869
  0
ARC
  5
605
330
1F
100
AcDbEntity
  8
0
  6
CONTINUOUS
 62
   100
100
AcDbCircle
 10
152.8710790582203
 20
163.6302366534578
 30
0.0
 40
1.0
100
AcDbArc
 50
270.0000000000001
 51
338.4479111127868
  0
ARC
  5
606
330
1F
100
AcDbEntity
  8
0
  6
CONTINUOUS
 62
   100
100
AcDbCircle
 10
157.4284906042627
 20
163.6302366534578
 30
0.0
 40
1.0
100
AcDbArc
 50
201.5520888872133
 51
270.0000000000001
  0
CIRCLE
  5
607
330
1F
100
AcDbEntity
  8
0
  6
CONTINUOUS
 62
   100
100
AcDbCircle
 10
164.6497848312414
 20
162.7302366534578
 30
0.0
 40
0.75
  0
CIRCLE
  5
608
330
1F
100
AcDbEntity
  8
0
  6
CONTINUOUS
 62
   100
100
AcDbCircle
 10
164.6497848312414
 20
162.7302366534578
 30
0.0
 40
0.5
  0
ARC
  5
609
330
1F
100
AcDbEntity
  8
0
  6
CONTINUOUS
 62
   100
100
AcDbCircle
 10
162.3710790582203
 20
163.6302366534578
 30
0.0
 40
1.0
100
AcDbArc
 50
270.0000000000001
 51
338.4479111127868
  0
ARC
  5
60A
330
1F
100
AcDbEntity
  8
0
  6
CONTINUOUS
 62
   100
100
AcDbCircle
 10
166.9284906042625
 20
163.6302366534578
 30
0.0
 40
1.0
100
AcDbArc
 50
201.5520888872133
 51
270.0000000000001
  0
ARC
  5
60B
330
1F
100
AcDbEntity
  8
0
  6
CONTINUOUS
 62
   100
100
AcDbCircle
 10
133.8710790582203
 20
163.6302366534578
 30
0.0
 40
1.700000000000003
100
AcDbArc
 50
270.0
 51
338.4479111127867
  0
ARC
  5
60C
330
1F
100
AcDbEntity
  8
0
  6
CONTINUOUS
 62
   100
100
AcDbCircle
 10
138.4284906042627
 20
163.6302366534578
 30
0.0
 40
1.700000000000003
100
AcDbArc
 50
201.5520888872133
 51
270.0
  0
ARC
  5
60D
330
1F
100
AcDbEntity
  8
0
  6
CONTINUOUS
 62
   100
100
AcDbCircle
 10
143.3710790582203
 20
163.6302366534578
 30
0.0
 40
1.700000000000003
100
AcDbArc
 50
270.0
 51
338.4479111127867
  0
ARC
  5
60E
330
1F
100
AcDbEntity
  8
0
  6
CONTINUOUS
 62
   100
100
AcDbCircle
 10
147.9284906042627
 20
163.6302366534578
 30
0.0
 40
1.700000000000003
100
AcDbArc
 50
201.5520888872133
 51
270.0
  0
ARC
  5
60F
330
1F
100
AcDbEntity
  8
0
  6
CONTINUOUS
 62
   100
100
AcDbCircle
 10
152.8710790582203
 20
163.6302366534578
 30
0.0
 40
1.700000000000003
100
AcDbArc
 50
270.0000000000001
 51
338.4479111127868
  0
ARC
  5
610
330
1F
100
AcDbEntity
  8
0
  6
CONTINUOUS
 62
   100
100
AcDbCircle
 10
157.4284906042627
 20
163.6302366534578
 30
0.0
 40
1.700000000000003
100
AcDbArc
 50
201.5520888872133
 51
270.0000000000001
  0
ARC
  5
611
330
1F
100
AcDbEntity
  8
0
  6
CONTINUOUS
 62
   100
100
AcDbCircle
 10
162.3710790582203
 20
163.6302366534578
 30
0.0
 40
1.700000000000003
100
AcDbArc
 50
270.0000000000001
 51
338.4479111127868
  0
ARC
  5
612
330
1F
100
AcDbEntity
  8
0
  6
CONTINUOUS
 62
   100
100
AcDbCircle
 10
166.9284906042625
 20
163.6302366534578
 30
0.0
 40
1.700000000000003
100
AcDbArc
 50
201.5520888872133
 51
270.0000000000001
  0
LINE
  5
613
330
1F
100
AcDbEntity
  8
0
  6
CONTINUOUS
 62
   100
100
AcDbLine
 10
164.6497848312414
 20
130.6302366534577
 30
0.0
 11
164.6497848312414
 21
146.5802366534578
 31
0.0
  0
LINE
  5
614
330
1F
100
AcDbEntity
  8
0
  6
CONTINUOUS
 62
   100
100
AcDbLine
 10
157.485941096162
 20
130.6302366534577
 30
0.0
 11
157.485941096162
 21
146.5802366534578
 31
0.0
  0
LINE
  5
615
330
1F
100
AcDbEntity
  8
0
  6
CONTINUOUS
 62
   100
100
AcDbLine
 10
162.4284906042623
 20
130.6302366534577
 30
0.0
 11
164.6497848312412
 21
130.6302366534577
 31
0.0
  0
LINE
  5
616
330
1F
100
AcDbEntity
  8
0
  6
CONTINUOUS
 62
   100
100
AcDbLine
 10
152.9284906042623
 20
130.6302366534577
 30
0.0
 11
157.8710790582201
 21
130.6302366534577
 31
0.0
  0
LINE
  5
617
330
1F
100
AcDbEntity
  8
0
  6
CONTINUOUS
 62
   100
100
AcDbLine
 10
154.2484066287938
 20
146.6302366534577
 30
0.0
 11
151.9984065758014
 21
129.9975834922922
 31
0.0
  0
LINE
  5
618
330
1F
100
AcDbEntity
  8
0
  6
CONTINUOUS
 62
   100
100
AcDbLine
 10
152.9284906042625
 20
130.6302366534577
 30
0.0
 11
155.1784906042625
 21
146.6302366534577
 31
0.0
  0
LINE
  5
619
330
1F
100
AcDbEntity
  8
0
  6
CONTINUOUS
 62
   100
100
AcDbLine
 10
162.4284906042625
 20
130.6302366534577
 30
0.0
 11
164.6784906042625
 21
146.6302366534578
 31
0.0
  0
LINE
  5
61A
330
1F
100
AcDbEntity
  8
0
  6
CONTINUOUS
 62
   100
100
AcDbLine
 10
158.8011630866812
 20
129.9975834922922
 30
0.0
 11
161.0511630866812
 21
146.6302366534578
 31
0.0
  0
LINE
  5
61B
330
1F
100
AcDbEntity
  8
0
  6
CONTINUOUS
 62
   100
100
AcDbLine
 10
160.1210790582201
 20
146.6302366534578
 30
0.0
 11
157.8710790582201
 21
130.6302366534577
 31
0.0
  0
LINE
  5
61C
330
1F
100
AcDbEntity
  8
0
  6
CONTINUOUS
 62
   100
100
AcDbLine
 10
163.7484066287938
 20
146.6302366534577
 30
0.0
 11
161.4984065758014
 21
129.9975834922922
 31
0.0
  0
ARC
  5
61D
330
1F
100
AcDbEntity
  8
0
  6
CONTINUOUS
 62
   100
100
AcDbCircle
 10
160.1497848312412
 20
130.5302366534578
 30
0.0
 40
1.450000000000003
100
AcDbArc
 50
201.5520888872132
 51
338.4479111127868
  0
ARC
  5
61E
330
1F
100
AcDbEntity
  8
0
  6
CONTINUOUS
 62
   100
100
AcDbCircle
 10
150.6497848312412
 20
130.5302366534578
 30
0.0
 40
1.450000000000003
100
AcDbArc
 50
330.9759386224081
 51
338.4479111127868
  0
ARC
  5
61F
330
1F
100
AcDbEntity
  8
0
  6
CONTINUOUS
 62
   100
100
AcDbCircle
 10
162.4284906042623
 20
129.6302366534577
 30
0.0
 40
1.0
100
AcDbArc
 50
90.00000000000006
 51
158.4479111127868
  0
ARC
  5
620
330
1F
100
AcDbEntity
  8
0
  6
CONTINUOUS
 62
   100
100
AcDbCircle
 10
157.8710790582201
 20
129.6302366534577
 30
0.0
 40
1.0
100
AcDbArc
 50
21.55208888721328
 51
90.00000000000003
  0
ARC
  5
621
330
1F
100
AcDbEntity
  8
0
  6
CONTINUOUS
 62
   100
100
AcDbCircle
 10
152.9284906042623
 20
129.6302366534577
 30
0.0
 40
1.0
100
AcDbArc
 50
90.00000000000006
 51
158.4479111127868
  0
LINE
  5
622
330
1F
100
AcDbEntity
  8
0
  6
CONTINUOUS
 62
   100
100
AcDbLine
 10
8.121079058220175
 20
146.6302366534577
 30
0.0
 11
5.871079058220175
 21
130.6302366534577
 31
0.0
  0
LINE
  5
623
330
1F
100
AcDbEntity
  8
0
  6
CONTINUOUS
 62
   100
100
AcDbLine
 10
6.801163086681299
 20
129.9975834922922
 30
0.0
 11
9.051163086681299
 21
146.6302366534577
 31
0.0
  0
LINE
  5
624
330
1F
100
AcDbEntity
  8
0
  6
CONTINUOUS
 62
   100
100
AcDbLine
 10
11.74840662879387
 20
146.6302366534577
 30
0.0
 11
9.498406575801482
 21
129.9975834922922
 31
0.0
  0
LINE
  5
625
330
1F
100
AcDbEntity
  8
0
  6
CONTINUOUS
 62
   100
100
AcDbLine
 10
10.42849060426249
 20
130.6302366534577
 30
0.0
 11
12.67849060426249
 21
146.6302366534577
 31
0.0
  0
LINE
  5
626
330
1F
100
AcDbEntity
  8
0
  6
CONTINUOUS
 62
   100
100
AcDbLine
 10
19.92849060426249
 20
130.6302366534577
 30
0.0
 11
22.17849060426249
 21
146.6302366534577
 31
0.0
  0
LINE
  5
627
330
1F
100
AcDbEntity
  8
0
  6
CONTINUOUS
 62
   100
100
AcDbLine
 10
21.24840662879399
 20
146.6302366534577
 30
0.0
 11
18.99840657580148
 21
129.9975834922922
 31
0.0
  0
LINE
  5
628
330
1F
100
AcDbEntity
  8
0
  6
CONTINUOUS
 62
   100
100
AcDbLine
 10
17.62107905822018
 20
146.6302366534577
 30
0.0
 11
15.37107905822018
 21
130.6302366534577
 31
0.0
  0
LINE
  5
629
330
1F
100
AcDbEntity
  8
0
  6
CONTINUOUS
 62
   100
100
AcDbLine
 10
16.30116308668119
 20
129.9975834922922
 30
0.0
 11
18.5511630866813
 21
146.6302366534577
 31
0.0
  0
LINE
  5
62A
330
1F
100
AcDbEntity
  8
0
  6
CONTINUOUS
 62
   100
100
AcDbLine
 10
29.42849060426249
 20
130.6302366534577
 30
0.0
 11
31.67849060426249
 21
146.6302366534577
 31
0.0
  0
LINE
  5
62B
330
1F
100
AcDbEntity
  8
0
  6
CONTINUOUS
 62
   100
100
AcDbLine
 10
27.12107905822029
 20
146.6302366534577
 30
0.0
 11
24.87107905822029
 21
130.6302366534577
 31
0.0
  0
LINE
  5
62C
330
1F
100
AcDbEntity
  8
0
  6
CONTINUOUS
 62
   100
100
AcDbLine
 10
30.74840662879399
 20
146.6302366534577
 30
0.0
 11
28.49840657580148
 21
129.9975834922922
 31
0.0
  0
LINE
  5
62D
330
1F
100
AcDbEntity
  8
0
  6
CONTINUOUS
 62
   100
100
AcDbLine
 10
25.8011630866813
 20
129.9975834922922
 30
0.0
 11
28.0511630866813
 21
146.6302366534577
 31
0.0
  0
LINE
  5
62E
330
1F
100
AcDbEntity
  8
0
  6
CONTINUOUS
 62
   100
100
AcDbLine
 10
40.24840662879376
 20
146.6302366534577
 30
0.0
 11
37.99840657580137
 21
129.9975834922922
 31
0.0
  0
LINE
  5
62F
330
1F
100
AcDbEntity
  8
0
  6
CONTINUOUS
 62
   100
100
AcDbLine
 10
35.30116308668119
 20
129.9975834922922
 30
0.0
 11
37.55116308668119
 21
146.6302366534577
 31
0.0
  0
LINE
  5
630
330
1F
100
AcDbEntity
  8
0
  6
CONTINUOUS
 62
   100
100
AcDbLine
 10
36.62107905822006
 20
146.6302366534577
 30
0.0
 11
34.37107905822006
 21
130.6302366534577
 31
0.0
  0
LINE
  5
631
330
1F
100
AcDbEntity
  8
0
  6
CONTINUOUS
 62
   100
100
AcDbLine
 10
38.92849060426249
 20
130.6302366534577
 30
0.0
 11
41.17849060426249
 21
146.6302366534577
 31
0.0
  0
LINE
  5
632
330
1F
100
AcDbEntity
  8
0
  6
CONTINUOUS
 62
   100
100
AcDbLine
 10
44.80116308668119
 20
129.9975834922922
 30
0.0
 11
46.76288911040558
 21
144.4992317366649
 31
0.0
  0
LINE
  5
633
330
1F
100
AcDbEntity
  8
0
  6
CONTINUOUS
 62
   100
100
AcDbLine
 10
46.12107905822018
 20
146.6302366534577
 30
0.0
 11
43.87107905822018
 21
130.6302366534577
 31
0.0
  0
LINE
  5
634
330
1F
100
AcDbEntity
  8
0
  6
CONTINUOUS
 62
   100
100
AcDbLine
 10
59.24840662879376
 20
146.6302366534577
 30
0.0
 11
56.99840657580137
 21
129.9975834922922
 31
0.0
  0
LINE
  5
635
330
1F
100
AcDbEntity
  8
0
  6
CONTINUOUS
 62
   100
100
AcDbLine
 10
55.62107905822006
 20
146.6302366534577
 30
0.0
 11
53.44467423030653
 21
131.1535800994057
 31
0.0
  0
LINE
  5
636
330
1F
100
AcDbEntity
  8
0
  6
CONTINUOUS
 62
   100
100
AcDbLine
 10
54.30116308668119
 20
129.9975834922922
 30
0.0
 11
56.55116308668119
 21
146.6302366534577
 31
0.0
  0
LINE
  5
637
330
1F
100
AcDbEntity
  8
0
  6
CONTINUOUS
 62
   100
100
AcDbLine
 10
57.92849060426249
 20
130.6302366534577
 30
0.0
 11
60.17849060426249
 21
146.6302366534577
 31
0.0
  0
LINE
  5
638
330
1F
100
AcDbEntity
  8
0
  6
CONTINUOUS
 62
   100
100
AcDbLine
 10
0.9284906042627199
 20
130.6302366534577
 30
0.0
 11
3.17849060426272
 21
146.6302366534577
 31
0.0
  0
LINE
  5
639
330
1F
100
AcDbEntity
  8
0
  6
CONTINUOUS
 62
   100
100
AcDbLine
 10
2.248406628794101
 20
146.6302366534577
 30
0.0
 11
0.083989412908636
 21
130.6302366534577
 31
0.0
  0
LINE
  5
63A
330
1F
100
AcDbEntity
  8
0
  6
CONTINUOUS
 62
   100
100
AcDbLine
 10
116.2484066287938
 20
146.6302366534578
 30
0.0
 11
113.9984065758014
 21
129.9975834922922
 31
0.0
  0
LINE
  5
63B
330
1F
100
AcDbEntity
  8
0
  6
CONTINUOUS
 62
   100
100
AcDbLine
 10
111.3011630866812
 20
129.9975834922922
 30
0.0
 11
113.5511630866812
 21
146.6302366534578
 31
0.0
  0
LINE
  5
63C
330
1F
100
AcDbEntity
  8
0
  6
CONTINUOUS
 62
   100
100
AcDbLine
 10
112.6210790582201
 20
146.6302366534578
 30
0.0
 11
110.3710790582201
 21
130.6302366534577
 31
0.0
  0
LINE
  5
63D
330
1F
100
AcDbEntity
  8
0
  6
CONTINUOUS
 62
   100
100
AcDbLine
 10
114.9284906042625
 20
130.6302366534577
 30
0.0
 11
117.1784906042625
 21
146.6302366534578
 31
0.0
  0
LINE
  5
63E
330
1F
100
AcDbEntity
  8
0
  6
CONTINUOUS
 62
   100
100
AcDbLine
 10
50.20324927177683
 20
143.2507427335601
 30
0.0
 11
50.67849060426249
 21
146.6302366534577
 31
0.0
  0
LINE
  5
63F
330
1F
100
AcDbEntity
  8
0
  6
CONTINUOUS
 62
   100
100
AcDbLine
 10
29.87107905822018
 20
162.6302366534578
 30
0.0
 11
27.64978483124139
 21
162.6302366534578
 31
0.0
  0
LINE
  5
640
330
1F
100
AcDbEntity
  8
0
  6
CONTINUOUS
 62
   100
100
AcDbLine
 10
24.92849060426249
 20
161.9302366534578
 30
0.0
 11
29.87107905822018
 21
161.9302366534578
 31
0.0
  0
LINE
  5
641
330
1F
100
AcDbEntity
  8
0
  6
CONTINUOUS
 62
   100
100
AcDbLine
 10
57.87107905822029
 20
162.6302366534578
 30
0.0
 11
52.92849060426249
 21
162.6302366534578
 31
0.0
  0
LINE
  5
642
330
1F
100
AcDbEntity
  8
0
  6
CONTINUOUS
 62
   100
100
AcDbLine
 10
52.92849060426249
 20
161.9302366534578
 30
0.0
 11
57.87107905822029
 21
161.9302366534578
 31
0.0
  0
ARC
  5
643
330
1F
100
AcDbEntity
  8
0
  6
CONTINUOUS
 62
   100
100
AcDbCircle
 10
-5.850215168758609
 20
162.7302366534578
 30
0.0
 40
0.75
100
AcDbArc
 50
296.4597668919669
 51
600.8757934350304
  0
CIRCLE
  5
644
330
1F
100
AcDbEntity
  8
0
  6
CONTINUOUS
 62
   100
100
AcDbCircle
 10
98.14978483124139
 20
162.7302366534578
 30
0.0
 40
0.75
  0
CIRCLE
  5
645
330
1F
100
AcDbEntity
  8
0
  6
CONTINUOUS
 62
   100
100
AcDbCircle
 10
98.14978483124139
 20
162.7302366534578
 30
0.0
 40
0.5
  0
ARC
  5
646
330
1F
100
AcDbEntity
  8
0
  6
CONTINUOUS
 62
   100
100
AcDbCircle
 10
95.87107905822006
 20
163.6302366534578
 30
0.0
 40
1.0
100
AcDbArc
 50
270.0
 51
338.4479111127867
  0
ARC
  5
647
330
1F
100
AcDbEntity
  8
0
  6
CONTINUOUS
 62
   100
100
AcDbCircle
 10
95.87107905822006
 20
163.6302366534578
 30
0.0
 40
1.700000000000003
100
AcDbArc
 50
270.0
 51
338.4479111127867
  0
ARC
  5
648
330
1F
100
AcDbEntity
  8
0
  6
CONTINUOUS
 62
   100
100
AcDbCircle
 10
100.4284906042625
 20
163.6302366534578
 30
0.0
 40
1.0
100
AcDbArc
 50
201.5520888872133
 51
270.0
  0
ARC
  5
649
330
1F
100
AcDbEntity
  8
0
  6
CONTINUOUS
 62
   100
100
AcDbCircle
 10
103.1497848312412
 20
130.5302366534578
 30
0.0
 40
1.450000000000003
100
AcDbArc
 50
201.5520888872132
 51
338.4479111127868
  0
LINE
  5
64A
330
1F
100
AcDbEntity
  8
0
  6
CONTINUOUS
 62
   100
100
AcDbLine
 10
98.89256645842841
 20
162.8340415392447
 30
0.0
 11
101.1570733524048
 21
146.6302366534578
 31
0.0
  0
LINE
  5
64B
330
1F
100
AcDbEntity
  8
0
  6
CONTINUOUS
 62
   100
100
AcDbLine
 10
99.64249631007772
 20
146.6302366534578
 30
0.0
 11
97.40700320405415
 21
162.6264317676708
 31
0.0
  0
LINE
  5
64C
330
1F
100
AcDbEntity
  8
0
  6
CONTINUOUS
 62
   100
100
AcDbLine
 10
95.87107905822006
 20
161.9302366534578
 30
0.0
 11
98.12107905822006
 21
146.6302366534577
 31
0.0
  0
ARC
  5
64D
330
1F
100
AcDbEntity
  8
0
  6
CONTINUOUS
 62
   100
100
AcDbCircle
 10
98.14978483124139
 20
162.7302366534578
 30
0.0
 40
1.450000000000003
100
AcDbArc
 50
21.55208888721319
 51
158.4479111127868
  0
ARC
  5
64E
330
1F
100
AcDbEntity
  8
0
  6
CONTINUOUS
 62
   100
100
AcDbCircle
 10
100.4284906042625
 20
163.6302366534578
 30
0.0
 40
1.700000000000003
100
AcDbArc
 50
201.5520888872133
 51
270.0
  0
LINE
  5
64F
330
1F
100
AcDbEntity
  8
0
  6
CONTINUOUS
 62
   100
100
AcDbLine
 10
100.4284906042625
 20
162.6302366534578
 30
0.0
 11
105.3710790582201
 21
162.6302366534578
 31
0.0
  0
LINE
  5
650
330
1F
100
AcDbEntity
  8
0
  6
CONTINUOUS
 62
   100
100
AcDbLine
 10
100.4284906042625
 20
161.9302366534578
 30
0.0
 11
105.3710790582201
 21
161.9302366534578
 31
0.0
  0
LINE
  5
651
330
1F
100
AcDbEntity
  8
0
  6
CONTINUOUS
 62
   100
100
AcDbLine
 10
102.6784906042625
 20
146.6302366534577
 30
0.0
 11
100.4284906042625
 21
161.9302366534578
 31
0.0
  0
LINE
  5
652
330
1F
100
AcDbEntity
  8
0
  6
CONTINUOUS
 62
   100
100
AcDbLine
 10
105.4284906042623
 20
130.6302366534577
 30
0.0
 11
110.3710790582201
 21
130.6302366534577
 31
0.0
  0
ARC
  5
653
330
1F
100
AcDbEntity
  8
0
  6
CONTINUOUS
 62
   100
100
AcDbCircle
 10
105.4284906042623
 20
129.6302366534577
 30
0.0
 40
1.0
100
AcDbArc
 50
90.00000000000006
 51
158.4479111127868
  0
ARC
  5
654
330
1F
100
AcDbEntity
  8
0
  6
CONTINUOUS
 62
   100
100
AcDbCircle
 10
100.8710790582201
 20
129.6302366534577
 30
0.0
 40
1.0
100
AcDbArc
 50
21.55208888721328
 51
90.00000000000003
  0
LINE
  5
655
330
1F
100
AcDbEntity
  8
0
  6
CONTINUOUS
 62
   100
100
AcDbLine
 10
106.7484066287938
 20
146.6302366534578
 30
0.0
 11
104.4984065758014
 21
129.9975834922922
 31
0.0
  0
LINE
  5
656
330
1F
100
AcDbEntity
  8
0
  6
CONTINUOUS
 62
   100
100
AcDbLine
 10
101.8011630866812
 20
129.9975834922922
 30
0.0
 11
104.0511630866812
 21
146.6302366534578
 31
0.0
  0
LINE
  5
657
330
1F
100
AcDbEntity
  8
0
  6
CONTINUOUS
 62
   100
100
AcDbLine
 10
103.1210790582201
 20
146.6302366534578
 30
0.0
 11
100.8710790582201
 21
130.6302366534577
 31
0.0
  0
LINE
  5
658
330
1F
100
AcDbEntity
  8
0
  6
CONTINUOUS
 62
   100
100
AcDbLine
 10
105.4284906042625
 20
130.6302366534577
 30
0.0
 11
107.6784906042625
 21
146.6302366534578
 31
0.0
  0
CIRCLE
  5
659
330
1F
100
AcDbEntity
  8
0
  6
CONTINUOUS
 62
   100
100
AcDbCircle
 10
88.64978483124139
 20
162.7302366534578
 30
0.0
 40
0.75
  0
CIRCLE
  5
65A
330
1F
100
AcDbEntity
  8
0
  6
CONTINUOUS
 62
   100
100
AcDbCircle
 10
88.64978483124139
 20
162.7302366534578
 30
0.0
 40
0.5
  0
ARC
  5
65B
330
1F
100
AcDbEntity
  8
0
  6
CONTINUOUS
 62
   100
100
AcDbCircle
 10
86.37107905822006
 20
163.6302366534578
 30
0.0
 40
1.0
100
AcDbArc
 50
270.0
 51
338.4479111127867
  0
ARC
  5
65C
330
1F
100
AcDbEntity
  8
0
  6
CONTINUOUS
 62
   100
100
AcDbCircle
 10
86.37107905822006
 20
163.6302366534578
 30
0.0
 40
1.700000000000003
100
AcDbArc
 50
270.0
 51
338.4479111127867
  0
ARC
  5
65D
330
1F
100
AcDbEntity
  8
0
  6
CONTINUOUS
 62
   100
100
AcDbCircle
 10
90.92849060426249
 20
163.6302366534578
 30
0.0
 40
1.0
100
AcDbArc
 50
201.5520888872133
 51
270.0
  0
ARC
  5
65E
330
1F
100
AcDbEntity
  8
0
  6
CONTINUOUS
 62
   100
100
AcDbCircle
 10
93.64978483124116
 20
130.5302366534578
 30
0.0
 40
1.450000000000003
100
AcDbArc
 50
201.5520888872132
 51
338.4479111127868
  0
LINE
  5
65F
330
1F
100
AcDbEntity
  8
0
  6
CONTINUOUS
 62
   100
100
AcDbLine
 10
89.39256645842841
 20
162.8340415392447
 30
0.0
 11
91.65707335240484
 21
146.6302366534578
 31
0.0
  0
LINE
  5
660
330
1F
100
AcDbEntity
  8
0
  6
CONTINUOUS
 62
   100
100
AcDbLine
 10
90.14249631007772
 20
146.6302366534578
 30
0.0
 11
87.90700320405415
 21
162.6264317676708
 31
0.0
  0
LINE
  5
661
330
1F
100
AcDbEntity
  8
0
  6
CONTINUOUS
 62
   100
100
AcDbLine
 10
86.37107905822006
 20
161.9302366534578
 30
0.0
 11
88.62107905822006
 21
146.6302366534577
 31
0.0
  0
ARC
  5
662
330
1F
100
AcDbEntity
  8
0
  6
CONTINUOUS
 62
   100
100
AcDbCircle
 10
88.64978483124139
 20
162.7302366534578
 30
0.0
 40
1.450000000000003
100
AcDbArc
 50
21.55208888721319
 51
158.4479111127868
  0
ARC
  5
663
330
1F
100
AcDbEntity
  8
0
  6
CONTINUOUS
 62
   100
100
AcDbCircle
 10
90.92849060426249
 20
163.6302366534578
 30
0.0
 40
1.700000000000003
100
AcDbArc
 50
201.5520888872133
 51
270.0
  0
LINE
  5
664
330
1F
100
AcDbEntity
  8
0
  6
CONTINUOUS
 62
   100
100
AcDbLine
 10
90.92849060426249
 20
162.6302366534578
 30
0.0
 11
95.87107905822006
 21
162.6302366534578
 31
0.0
  0
LINE
  5
665
330
1F
100
AcDbEntity
  8
0
  6
CONTINUOUS
 62
   100
100
AcDbLine
 10
90.92849060426249
 20
161.9302366534578
 30
0.0
 11
95.87107905822006
 21
161.9302366534578
 31
0.0
  0
LINE
  5
666
330
1F
100
AcDbEntity
  8
0
  6
CONTINUOUS
 62
   100
100
AcDbLine
 10
93.17849060426249
 20
146.6302366534577
 30
0.0
 11
90.92849060426249
 21
161.9302366534578
 31
0.0
  0
LINE
  5
667
330
1F
100
AcDbEntity
  8
0
  6
CONTINUOUS
 62
   100
100
AcDbLine
 10
95.92849060426227
 20
130.6302366534577
 30
0.0
 11
100.8710790582201
 21
130.6302366534577
 31
0.0
  0
ARC
  5
668
330
1F
100
AcDbEntity
  8
0
  6
CONTINUOUS
 62
   100
100
AcDbCircle
 10
95.92849060426227
 20
129.6302366534577
 30
0.0
 40
1.0
100
AcDbArc
 50
90.00000000000006
 51
158.4479111127868
  0
ARC
  5
669
330
1F
100
AcDbEntity
  8
0
  6
CONTINUOUS
 62
   100
100
AcDbCircle
 10
91.37107905822006
 20
129.6302366534577
 30
0.0
 40
1.0
100
AcDbArc
 50
21.55208888721328
 51
90.00000000000003
  0
LINE
  5
66A
330
1F
100
AcDbEntity
  8
0
  6
CONTINUOUS
 62
   100
100
AcDbLine
 10
97.24840662879376
 20
146.6302366534578
 30
0.0
 11
94.99840657580137
 21
129.9975834922922
 31
0.0
  0
LINE
  5
66B
330
1F
100
AcDbEntity
  8
0
  6
CONTINUOUS
 62
   100
100
AcDbLine
 10
92.30116308668119
 20
129.9975834922922
 30
0.0
 11
94.55116308668119
 21
146.6302366534578
 31
0.0
  0
LINE
  5
66C
330
1F
100
AcDbEntity
  8
0
  6
CONTINUOUS
 62
   100
100
AcDbLine
 10
93.62107905822006
 20
146.6302366534578
 30
0.0
 11
91.37107905822006
 21
130.6302366534577
 31
0.0
  0
LINE
  5
66D
330
1F
100
AcDbEntity
  8
0
  6
CONTINUOUS
 62
   100
100
AcDbLine
 10
95.92849060426249
 20
130.6302366534577
 30
0.0
 11
98.17849060426249
 21
146.6302366534578
 31
0.0
  0
CIRCLE
  5
66E
330
1F
100
AcDbEntity
  8
0
  6
CONTINUOUS
 62
   100
100
AcDbCircle
 10
79.14978483124139
 20
162.7302366534578
 30
0.0
 40
0.75
  0
CIRCLE
  5
66F
330
1F
100
AcDbEntity
  8
0
  6
CONTINUOUS
 62
   100
100
AcDbCircle
 10
79.14978483124139
 20
162.7302366534578
 30
0.0
 40
0.5
  0
ARC
  5
670
330
1F
100
AcDbEntity
  8
0
  6
CONTINUOUS
 62
   100
100
AcDbCircle
 10
76.87107905822006
 20
163.6302366534578
 30
0.0
 40
1.0
100
AcDbArc
 50
270.0
 51
338.4479111127867
  0
ARC
  5
671
330
1F
100
AcDbEntity
  8
0
  6
CONTINUOUS
 62
   100
100
AcDbCircle
 10
76.87107905822006
 20
163.6302366534578
 30
0.0
 40
1.700000000000003
100
AcDbArc
 50
270.0
 51
338.4479111127867
  0
ARC
  5
672
330
1F
100
AcDbEntity
  8
0
  6
CONTINUOUS
 62
   100
100
AcDbCircle
 10
81.42849060426249
 20
163.6302366534578
 30
0.0
 40
1.0
100
AcDbArc
 50
201.5520888872133
 51
270.0
  0
ARC
  5
673
330
1F
100
AcDbEntity
  8
0
  6
CONTINUOUS
 62
   100
100
AcDbCircle
 10
84.14978483124116
 20
130.5302366534578
 30
0.0
 40
1.450000000000003
100
AcDbArc
 50
201.5520888872132
 51
338.4479111127868
  0
LINE
  5
674
330
1F
100
AcDbEntity
  8
0
  6
CONTINUOUS
 62
   100
100
AcDbLine
 10
79.89256645842841
 20
162.8340415392447
 30
0.0
 11
82.15707335240484
 21
146.6302366534578
 31
0.0
  0
LINE
  5
675
330
1F
100
AcDbEntity
  8
0
  6
CONTINUOUS
 62
   100
100
AcDbLine
 10
80.64249631007772
 20
146.6302366534578
 30
0.0
 11
78.40700320405415
 21
162.6264317676708
 31
0.0
  0
LINE
  5
676
330
1F
100
AcDbEntity
  8
0
  6
CONTINUOUS
 62
   100
100
AcDbLine
 10
76.87107905822006
 20
161.9302366534578
 30
0.0
 11
79.12107905822006
 21
146.6302366534577
 31
0.0
  0
ARC
  5
677
330
1F
100
AcDbEntity
  8
0
  6
CONTINUOUS
 62
   100
100
AcDbCircle
 10
79.14978483124139
 20
162.7302366534578
 30
0.0
 40
1.450000000000003
100
AcDbArc
 50
21.55208888721319
 51
158.4479111127868
  0
ARC
  5
678
330
1F
100
AcDbEntity
  8
0
  6
CONTINUOUS
 62
   100
100
AcDbCircle
 10
81.42849060426249
 20
163.6302366534578
 30
0.0
 40
1.700000000000003
100
AcDbArc
 50
201.5520888872133
 51
270.0
  0
LINE
  5
679
330
1F
100
AcDbEntity
  8
0
  6
CONTINUOUS
 62
   100
100
AcDbLine
 10
81.42849060426249
 20
162.6302366534578
 30
0.0
 11
86.37107905822006
 21
162.6302366534578
 31
0.0
  0
LINE
  5
67A
330
1F
100
AcDbEntity
  8
0
  6
CONTINUOUS
 62
   100
100
AcDbLine
 10
81.42849060426249
 20
161.9302366534578
 30
0.0
 11
86.37107905822006
 21
161.9302366534578
 31
0.0
  0
LINE
  5
67B
330
1F
100
AcDbEntity
  8
0
  6
CONTINUOUS
 62
   100
100
AcDbLine
 10
83.67849060426249
 20
146.6302366534577
 30
0.0
 11
81.42849060426249
 21
161.9302366534578
 31
0.0
  0
LINE
  5
67C
330
1F
100
AcDbEntity
  8
0
  6
CONTINUOUS
 62
   100
100
AcDbLine
 10
86.42849060426227
 20
130.6302366534577
 30
0.0
 11
91.37107905822006
 21
130.6302366534577
 31
0.0
  0
ARC
  5
67D
330
1F
100
AcDbEntity
  8
0
  6
CONTINUOUS
 62
   100
100
AcDbCircle
 10
86.42849060426227
 20
129.6302366534577
 30
0.0
 40
1.0
100
AcDbArc
 50
90.00000000000006
 51
158.4479111127868
  0
ARC
  5
67E
330
1F
100
AcDbEntity
  8
0
  6
CONTINUOUS
 62
   100
100
AcDbCircle
 10
81.87107905822006
 20
129.6302366534577
 30
0.0
 40
1.0
100
AcDbArc
 50
21.55208888721328
 51
90.00000000000003
  0
LINE
  5
67F
330
1F
100
AcDbEntity
  8
0
  6
CONTINUOUS
 62
   100
100
AcDbLine
 10
87.74840662879376
 20
146.6302366534578
 30
0.0
 11
85.49840657580137
 21
129.9975834922922
 31
0.0
  0
LINE
  5
680
330
1F
100
AcDbEntity
  8
0
  6
CONTINUOUS
 62
   100
100
AcDbLine
 10
82.80116308668119
 20
129.9975834922922
 30
0.0
 11
85.05116308668119
 21
146.6302366534578
 31
0.0
  0
LINE
  5
681
330
1F
100
AcDbEntity
  8
0
  6
CONTINUOUS
 62
   100
100
AcDbLine
 10
84.12107905822006
 20
146.6302366534578
 30
0.0
 11
81.87107905822006
 21
130.6302366534577
 31
0.0
  0
LINE
  5
682
330
1F
100
AcDbEntity
  8
0
  6
CONTINUOUS
 62
   100
100
AcDbLine
 10
86.42849060426249
 20
130.6302366534577
 30
0.0
 11
88.67849060426249
 21
146.6302366534578
 31
0.0
  0
CIRCLE
  5
683
330
1F
100
AcDbEntity
  8
0
  6
CONTINUOUS
 62
   100
100
AcDbCircle
 10
69.64978483124139
 20
162.7302366534578
 30
0.0
 40
0.75
  0
CIRCLE
  5
684
330
1F
100
AcDbEntity
  8
0
  6
CONTINUOUS
 62
   100
100
AcDbCircle
 10
69.64978483124139
 20
162.7302366534578
 30
0.0
 40
0.5
  0
ARC
  5
685
330
1F
100
AcDbEntity
  8
0
  6
CONTINUOUS
 62
   100
100
AcDbCircle
 10
67.37107905822006
 20
163.6302366534578
 30
0.0
 40
1.0
100
AcDbArc
 50
270.0
 51
338.4479111127867
  0
ARC
  5
686
330
1F
100
AcDbEntity
  8
0
  6
CONTINUOUS
 62
   100
100
AcDbCircle
 10
67.37107905822006
 20
163.6302366534578
 30
0.0
 40
1.700000000000003
100
AcDbArc
 50
270.0
 51
338.4479111127867
  0
ARC
  5
687
330
1F
100
AcDbEntity
  8
0
  6
CONTINUOUS
 62
   100
100
AcDbCircle
 10
71.92849060426249
 20
163.6302366534578
 30
0.0
 40
1.0
100
AcDbArc
 50
201.5520888872133
 51
270.0
  0
ARC
  5
688
330
1F
100
AcDbEntity
  8
0
  6
CONTINUOUS
 62
   100
100
AcDbCircle
 10
74.64978483124116
 20
130.5302366534578
 30
0.0
 40
1.450000000000003
100
AcDbArc
 50
201.5520888872132
 51
338.4479111127868
  0
LINE
  5
689
330
1F
100
AcDbEntity
  8
0
  6
CONTINUOUS
 62
   100
100
AcDbLine
 10
70.39256645842841
 20
162.8340415392447
 30
0.0
 11
72.65707335240484
 21
146.6302366534578
 31
0.0
  0
LINE
  5
68A
330
1F
100
AcDbEntity
  8
0
  6
CONTINUOUS
 62
   100
100
AcDbLine
 10
71.14249631007772
 20
146.6302366534578
 30
0.0
 11
68.90700320405415
 21
162.6264317676708
 31
0.0
  0
LINE
  5
68B
330
1F
100
AcDbEntity
  8
0
  6
CONTINUOUS
 62
   100
100
AcDbLine
 10
67.37107905822006
 20
161.9302366534578
 30
0.0
 11
69.62107905822006
 21
146.6302366534577
 31
0.0
  0
ARC
  5
68C
330
1F
100
AcDbEntity
  8
0
  6
CONTINUOUS
 62
   100
100
AcDbCircle
 10
69.64978483124139
 20
162.7302366534578
 30
0.0
 40
1.450000000000003
100
AcDbArc
 50
21.55208888721319
 51
158.4479111127868
  0
ARC
  5
68D
330
1F
100
AcDbEntity
  8
0
  6
CONTINUOUS
 62
   100
100
AcDbCircle
 10
71.92849060426249
 20
163.6302366534578
 30
0.0
 40
1.700000000000003
100
AcDbArc
 50
201.5520888872133
 51
270.0
  0
LINE
  5
68E
330
1F
100
AcDbEntity
  8
0
  6
CONTINUOUS
 62
   100
100
AcDbLine
 10
71.92849060426249
 20
162.6302366534578
 30
0.0
 11
76.87107905822006
 21
162.6302366534578
 31
0.0
  0
LINE
  5
68F
330
1F
100
AcDbEntity
  8
0
  6
CONTINUOUS
 62
   100
100
AcDbLine
 10
71.92849060426249
 20
161.9302366534578
 30
0.0
 11
76.87107905822006
 21
161.9302366534578
 31
0.0
  0
LINE
  5
690
330
1F
100
AcDbEntity
  8
0
  6
CONTINUOUS
 62
   100
100
AcDbLine
 10
74.17849060426249
 20
146.6302366534577
 30
0.0
 11
71.92849060426249
 21
161.9302366534578
 31
0.0
  0
LINE
  5
691
330
1F
100
AcDbEntity
  8
0
  6
CONTINUOUS
 62
   100
100
AcDbLine
 10
76.92849060426227
 20
130.6302366534577
 30
0.0
 11
81.87107905822006
 21
130.6302366534577
 31
0.0
  0
ARC
  5
692
330
1F
100
AcDbEntity
  8
0
  6
CONTINUOUS
 62
   100
100
AcDbCircle
 10
76.92849060426227
 20
129.6302366534577
 30
0.0
 40
1.0
100
AcDbArc
 50
90.00000000000006
 51
158.4479111127868
  0
ARC
  5
693
330
1F
100
AcDbEntity
  8
0
  6
CONTINUOUS
 62
   100
100
AcDbCircle
 10
72.37107905822006
 20
129.6302366534577
 30
0.0
 40
1.0
100
AcDbArc
 50
21.55208888721328
 51
90.00000000000003
  0
LINE
  5
694
330
1F
100
AcDbEntity
  8
0
  6
CONTINUOUS
 62
   100
100
AcDbLine
 10
78.24840662879376
 20
146.6302366534578
 30
0.0
 11
75.99840657580137
 21
129.9975834922922
 31
0.0
  0
LINE
  5
695
330
1F
100
AcDbEntity
  8
0
  6
CONTINUOUS
 62
   100
100
AcDbLine
 10
73.30116308668119
 20
129.9975834922922
 30
0.0
 11
75.55116308668119
 21
146.6302366534578
 31
0.0
  0
LINE
  5
696
330
1F
100
AcDbEntity
  8
0
  6
CONTINUOUS
 62
   100
100
AcDbLine
 10
74.62107905822006
 20
146.6302366534578
 30
0.0
 11
72.37107905822006
 21
130.6302366534577
 31
0.0
  0
LINE
  5
697
330
1F
100
AcDbEntity
  8
0
  6
CONTINUOUS
 62
   100
100
AcDbLine
 10
76.92849060426249
 20
130.6302366534577
 30
0.0
 11
79.17849060426249
 21
146.6302366534578
 31
0.0
  0
CIRCLE
  5
698
330
1F
100
AcDbEntity
  8
0
  6
CONTINUOUS
 62
   100
100
AcDbCircle
 10
60.14978483124139
 20
162.7302366534578
 30
0.0
 40
0.75
  0
CIRCLE
  5
699
330
1F
100
AcDbEntity
  8
0
  6
CONTINUOUS
 62
   100
100
AcDbCircle
 10
60.14978483124139
 20
162.7302366534578
 30
0.0
 40
0.5
  0
ARC
  5
69A
330
1F
100
AcDbEntity
  8
0
  6
CONTINUOUS
 62
   100
100
AcDbCircle
 10
57.87107905822006
 20
163.6302366534578
 30
0.0
 40
1.0
100
AcDbArc
 50
270.0
 51
338.4479111127867
  0
ARC
  5
69B
330
1F
100
AcDbEntity
  8
0
  6
CONTINUOUS
 62
   100
100
AcDbCircle
 10
57.87107905822006
 20
163.6302366534578
 30
0.0
 40
1.700000000000003
100
AcDbArc
 50
270.0
 51
338.4479111127867
  0
ARC
  5
69C
330
1F
100
AcDbEntity
  8
0
  6
CONTINUOUS
 62
   100
100
AcDbCircle
 10
62.42849060426249
 20
163.6302366534578
 30
0.0
 40
1.0
100
AcDbArc
 50
201.5520888872133
 51
270.0
  0
ARC
  5
69D
330
1F
100
AcDbEntity
  8
0
  6
CONTINUOUS
 62
   100
100
AcDbCircle
 10
65.14978483124116
 20
130.5302366534578
 30
0.0
 40
1.450000000000003
100
AcDbArc
 50
201.5520888872132
 51
338.4479111127868
  0
LINE
  5
69E
330
1F
100
AcDbEntity
  8
0
  6
CONTINUOUS
 62
   100
100
AcDbLine
 10
60.89256645842841
 20
162.8340415392447
 30
0.0
 11
63.15707335240484
 21
146.6302366534578
 31
0.0
  0
LINE
  5
69F
330
1F
100
AcDbEntity
  8
0
  6
CONTINUOUS
 62
   100
100
AcDbLine
 10
61.64249631007772
 20
146.6302366534578
 30
0.0
 11
59.40700320405415
 21
162.6264317676708
 31
0.0
  0
LINE
  5
6A0
330
1F
100
AcDbEntity
  8
0
  6
CONTINUOUS
 62
   100
100
AcDbLine
 10
57.87107905822006
 20
161.9302366534578
 30
0.0
 11
60.12107905822006
 21
146.6302366534577
 31
0.0
  0
ARC
  5
6A1
330
1F
100
AcDbEntity
  8
0
  6
CONTINUOUS
 62
   100
100
AcDbCircle
 10
60.14978483124139
 20
162.7302366534578
 30
0.0
 40
1.450000000000003
100
AcDbArc
 50
21.55208888721319
 51
158.4479111127868
  0
ARC
  5
6A2
330
1F
100
AcDbEntity
  8
0
  6
CONTINUOUS
 62
   100
100
AcDbCircle
 10
62.42849060426249
 20
163.6302366534578
 30
0.0
 40
1.700000000000003
100
AcDbArc
 50
201.5520888872133
 51
270.0
  0
LINE
  5
6A3
330
1F
100
AcDbEntity
  8
0
  6
CONTINUOUS
 62
   100
100
AcDbLine
 10
62.42849060426249
 20
162.6302366534578
 30
0.0
 11
67.37107905822006
 21
162.6302366534578
 31
0.0
  0
LINE
  5
6A4
330
1F
100
AcDbEntity
  8
0
  6
CONTINUOUS
 62
   100
100
AcDbLine
 10
62.42849060426249
 20
161.9302366534578
 30
0.0
 11
67.37107905822006
 21
161.9302366534578
 31
0.0
  0
LINE
  5
6A5
330
1F
100
AcDbEntity
  8
0
  6
CONTINUOUS
 62
   100
100
AcDbLine
 10
64.67849060426249
 20
146.6302366534577
 30
0.0
 11
62.42849060426249
 21
161.9302366534578
 31
0.0
  0
LINE
  5
6A6
330
1F
100
AcDbEntity
  8
0
  6
CONTINUOUS
 62
   100
100
AcDbLine
 10
67.42849060426227
 20
130.6302366534577
 30
0.0
 11
72.37107905822006
 21
130.6302366534577
 31
0.0
  0
ARC
  5
6A7
330
1F
100
AcDbEntity
  8
0
  6
CONTINUOUS
 62
   100
100
AcDbCircle
 10
67.42849060426227
 20
129.6302366534577
 30
0.0
 40
1.0
100
AcDbArc
 50
90.00000000000006
 51
158.4479111127868
  0
ARC
  5
6A8
330
1F
100
AcDbEntity
  8
0
  6
CONTINUOUS
 62
   100
100
AcDbCircle
 10
62.87107905822006
 20
129.6302366534577
 30
0.0
 40
1.0
100
AcDbArc
 50
21.55208888721328
 51
90.00000000000003
  0
LINE
  5
6A9
330
1F
100
AcDbEntity
  8
0
  6
CONTINUOUS
 62
   100
100
AcDbLine
 10
68.74840662879376
 20
146.6302366534578
 30
0.0
 11
66.49840657580137
 21
129.9975834922922
 31
0.0
  0
LINE
  5
6AA
330
1F
100
AcDbEntity
  8
0
  6
CONTINUOUS
 62
   100
100
AcDbLine
 10
63.80116308668119
 20
129.9975834922922
 30
0.0
 11
66.05116308668119
 21
146.6302366534578
 31
0.0
  0
LINE
  5
6AB
330
1F
100
AcDbEntity
  8
0
  6
CONTINUOUS
 62
   100
100
AcDbLine
 10
65.12107905822006
 20
146.6302366534578
 30
0.0
 11
62.87107905822006
 21
130.6302366534577
 31
0.0
  0
LINE
  5
6AC
330
1F
100
AcDbEntity
  8
0
  6
CONTINUOUS
 62
   100
100
AcDbLine
 10
67.42849060426249
 20
130.6302366534577
 30
0.0
 11
69.67849060426249
 21
146.6302366534578
 31
0.0
  0
LINE
  5
6AD
330
1F
100
AcDbEntity
  8
0
  6
CONTINUOUS
 62
    51
100
AcDbLine
 10
121.917687842261
 20
120.6302366534577
 30
0.0
 11
130.917687842261
 21
120.6302366534577
 31
0.0
  0
ARC
  5
6AE
330
1F
100
AcDbEntity
  8
0
  6
CONTINUOUS
 62
    51
100
AcDbCircle
 10
121.917687842261
 20
123.6302366534577
 30
0.0
 40
3.0
100
AcDbArc
 50
180.0000025044782
 51
270.0000050089564
  0
ARC
  5
6AF
330
1F
100
AcDbEntity
  8
0
  6
CONTINUOUS
 62
    51
100
AcDbCircle
 10
130.917687842261
 20
117.6302366534577
 30
0.0
 40
3.0
100
AcDbArc
 50
359.9999974955218
 51
450.0
  0
ARC
  5
6B0
330
1F
100
AcDbEntity
  8
0
  6
CONTINUOUS
 62
    51
100
AcDbCircle
 10
136.917687842261
 20
116.6302366534577
 30
0.0
 40
3.0
100
AcDbArc
 50
180.0000025044782
 51
270.0000050089564
  0
LINE
  5
6B1
330
1F
100
AcDbEntity
  8
0
  6
CONTINUOUS
 62
    51
100
AcDbLine
 10
-88.48950388997082
 20
37.13779025933334
 30
0.0
 11
-91.48950579731934
 21
37.13779025933334
 31
0.0
  0
LINE
  5
6B2
330
1F
100
AcDbEntity
  8
0
  6
CONTINUOUS
 62
    51
100
AcDbLine
 10
-91.48950579731934
 20
31.1377907361705
 30
0.0
 11
-91.48950579731934
 21
37.13779025933334
 31
0.0
  0
ARC
  5
6B3
330
1F
100
AcDbEntity
  8
0
  6
CONTINUOUS
 62
    51
100
AcDbCircle
 10
-83.68120434849732
 20
32.87860208413193
 30
0.0
 40
8.0
100
AcDbArc
 50
192.5681909643791
 51
233.0557648061418
  0
LINE
  5
6B4
330
1F
100
AcDbEntity
  8
0
  6
CONTINUOUS
 62
    51
100
AcDbLine
 10
118.917687842261
 20
162.7705387191044
 30
0.0
 11
118.917687842261
 21
169.6302328387605
 31
0.0
  0
LINE
  5
6B5
330
1F
100
AcDbEntity
  8
0
  6
CONTINUOUS
 62
    51
100
AcDbLine
 10
133.917687842261
 20
175.6302328387605
 30
0.0
 11
133.917687842261
 21
176.6302328387605
 31
0.0
  0
LINE
  5
6B6
330
1F
100
AcDbEntity
  8
0
  6
CONTINUOUS
 62
    51
100
AcDbLine
 10
151.9176880806796
 20
162.6302366534578
 30
0.0
 11
151.9176880806796
 21
179.6302347461091
 31
0.0
  0
LINE
  5
6B7
330
1F
100
AcDbEntity
  8
0
  6
CONTINUOUS
 62
    51
100
AcDbLine
 10
121.917687842261
 20
172.6302328387605
 30
0.0
 11
130.917687842261
 21
172.6302328387605
 31
0.0
  0
LINE
  5
6B8
330
1F
100
AcDbEntity
  8
0
  6
CONTINUOUS
 62
    51
100
AcDbLine
 10
120.917687842261
 20
164.6302328387605
 30
0.0
 11
135.917687842261
 21
164.6302328387605
 31
0.0
  0
LINE
  5
6B9
330
1F
100
AcDbEntity
  8
0
  6
CONTINUOUS
 62
    51
100
AcDbLine
 10
136.917687842261
 20
179.6302347461091
 30
0.0
 11
151.9176880806796
 21
179.6302347461091
 31
0.0
  0
LINE
  5
6BA
330
1F
100
AcDbEntity
  8
0
  6
CONTINUOUS
 62
    51
100
AcDbLine
 10
120.917687842261
 20
162.6302366534578
 30
0.0
 11
120.917687842261
 21
164.6302328387605
 31
0.0
  0
LINE
  5
6BB
330
1F
100
AcDbEntity
  8
0
  6
CONTINUOUS
 62
    51
100
AcDbLine
 10
137.917687842261
 20
164.6302328387605
 30
0.0
 11
149.9176880657784
 21
164.6302328387605
 31
0.0
  0
LINE
  5
6BC
330
1F
100
AcDbEntity
  8
0
  6
CONTINUOUS
 62
    51
100
AcDbLine
 10
135.917687842261
 20
164.1615406001114
 30
0.0
 11
135.917687842261
 21
164.6302328387605
 31
0.0
  0
LINE
  5
6BD
330
1F
100
AcDbEntity
  8
0
  6
CONTINUOUS
 62
    51
100
AcDbLine
 10
149.9176880657784
 20
162.6302366534578
 30
0.0
 11
149.9176880657784
 21
164.6302328387605
 31
0.0
  0
LINE
  5
6BE
330
1F
100
AcDbEntity
  8
0
  6
CONTINUOUS
 62
    51
100
AcDbLine
 10
137.917687842261
 20
162.7705387191045
 30
0.0
 11
137.917687842261
 21
164.6302328387605
 31
0.0
  0
LINE
  5
6BF
330
1F
100
AcDbEntity
  8
0
  6
CONTINUOUS
 62
    51
100
AcDbLine
 10
151.9176881932755
 20
164.6302342054176
 30
0.0
 11
151.3462603478539
 21
162.6302366534578
 31
0.0
  0
LINE
  5
6C0
330
1F
100
AcDbEntity
  8
0
  6
CONTINUOUS
 62
    51
100
AcDbLine
 10
150.4891155209722
 20
162.6302366534578
 30
0.0
 11
149.9176873067617
 21
164.630235496179
 31
0.0
  0
LINE
  5
6C1
330
1F
100
AcDbEntity
  8
0
  6
CONTINUOUS
 62
    51
100
AcDbLine
 10
137.9176884358393
 20
164.6302337059906
 30
0.0
 11
137.5154445744099
 21
163.2223801255338
 31
0.0
  0
LINE
  5
6C2
330
1F
100
AcDbEntity
  8
0
  6
CONTINUOUS
 62
    51
100
AcDbLine
 10
136.047293758242
 20
164.1766099040247
 30
0.0
 11
135.9176864030995
 21
164.630235668113
 31
0.0
  0
LINE
  5
6C3
330
1F
100
AcDbEntity
  8
0
  6
CONTINUOUS
 62
    51
100
AcDbLine
 10
120.9176885502599
 20
164.6302351346793
 30
0.0
 11
120.3462604393349
 21
162.6302366534578
 31
0.0
  0
LINE
  5
6C4
330
1F
100
AcDbEntity
  8
0
  6
CONTINUOUS
 62
    51
100
AcDbLine
 10
119.489114620617
 20
162.6302366534578
 30
0.0
 11
118.9176867467653
 21
164.6302343049229
 31
0.0
  0
LINE
  5
6C5
330
1F
100
AcDbEntity
  8
0
  6
CONTINUOUS
 62
    51
100
AcDbLine
 10
149.9176892790325
 20
166.1302352842971
 30
0.0
 11
151.9176882421567
 21
165.1302358027351
 31
0.0
  0
LINE
  5
6C6
330
1F
100
AcDbEntity
  8
0
  6
CONTINUOUS
 62
    51
100
AcDbLine
 10
121.917687842261
 20
171.1302328387605
 30
0.0
 11
125.917687842261
 21
171.1302328387605
 31
0.0
  0
LINE
  5
6C7
330
1F
100
AcDbEntity
  8
0
  6
CONTINUOUS
 62
    51
100
AcDbLine
 10
136.917687842261
 20
166.1302328387605
 30
0.0
 11
136.917687842261
 21
177.1302328387605
 31
0.0
  0
LINE
  5
6C8
330
1F
100
AcDbEntity
  8
0
  6
CONTINUOUS
 62
    51
100
AcDbLine
 10
121.917687842261
 20
166.1302328387605
 30
0.0
 11
121.917687842261
 21
171.1302328387605
 31
0.0
  0
LINE
  5
6C9
330
1F
100
AcDbEntity
  8
0
  6
CONTINUOUS
 62
    51
100
AcDbLine
 10
121.917687842261
 20
166.1302328387605
 30
0.0
 11
149.9176880657784
 21
166.1302328387605
 31
0.0
  0
LINE
  5
6CA
330
1F
100
AcDbEntity
  8
0
  6
CONTINUOUS
 62
    51
100
AcDbLine
 10
136.917687842261
 20
177.1302328387605
 30
0.0
 11
140.917687842261
 21
177.1302328387605
 31
0.0
  0
LINE
  5
6CB
330
1F
100
AcDbEntity
  8
0
  6
CONTINUOUS
 62
    51
100
AcDbLine
 10
130.917687842261
 20
166.1302328387605
 30
0.0
 11
130.917687842261
 21
171.1302328387605
 31
0.0
  0
LINE
  5
6CC
330
1F
100
AcDbEntity
  8
0
  6
CONTINUOUS
 62
    51
100
AcDbLine
 10
127.917687842261
 20
166.1302328387605
 30
0.0
 11
127.917687842261
 21
171.1302328387605
 31
0.0
  0
LINE
  5
6CD
330
1F
100
AcDbEntity
  8
0
  6
CONTINUOUS
 62
    51
100
AcDbLine
 10
125.917687842261
 20
166.1302328387605
 30
0.0
 11
125.917687842261
 21
171.1302328387605
 31
0.0
  0
LINE
  5
6CE
330
1F
100
AcDbEntity
  8
0
  6
CONTINUOUS
 62
    51
100
AcDbLine
 10
132.917687842261
 20
166.1302328387605
 30
0.0
 11
132.917687842261
 21
171.1302328387605
 31
0.0
  0
LINE
  5
6CF
330
1F
100
AcDbEntity
  8
0
  6
CONTINUOUS
 62
    51
100
AcDbLine
 10
140.917687842261
 20
166.1302328387605
 30
0.0
 11
140.917687842261
 21
177.1302328387605
 31
0.0
  0
LINE
  5
6D0
330
1F
100
AcDbEntity
  8
0
  6
CONTINUOUS
 62
    51
100
AcDbLine
 10
142.917687842261
 20
166.1302328387605
 30
0.0
 11
142.917687842261
 21
177.1302328387605
 31
0.0
  0
LINE
  5
6D1
330
1F
100
AcDbEntity
  8
0
  6
CONTINUOUS
 62
    51
100
AcDbLine
 10
145.917687842261
 20
166.1302328387605
 30
0.0
 11
145.917687842261
 21
177.1302328387605
 31
0.0
  0
LINE
  5
6D2
330
1F
100
AcDbEntity
  8
0
  6
CONTINUOUS
 62
    51
100
AcDbLine
 10
147.9176880806796
 20
166.1302328387605
 30
0.0
 11
147.9176880806796
 21
177.1302328387605
 31
0.0
  0
LINE
  5
6D3
330
1F
100
AcDbEntity
  8
0
  6
CONTINUOUS
 62
    51
100
AcDbLine
 10
147.9176880806796
 20
177.1302328387605
 30
0.0
 11
151.9176880806796
 21
177.1302328387605
 31
0.0
  0
LINE
  5
6D4
330
1F
100
AcDbEntity
  8
0
  6
CONTINUOUS
 62
    51
100
AcDbLine
 10
142.917687842261
 20
177.1302328387605
 30
0.0
 11
145.917687842261
 21
177.1302328387605
 31
0.0
  0
LINE
  5
6D5
330
1F
100
AcDbEntity
  8
0
  6
CONTINUOUS
 62
    51
100
AcDbLine
 10
132.917687842261
 20
171.1302328387605
 30
0.0
 11
134.917687842261
 21
171.1302328387605
 31
0.0
  0
LINE
  5
6D6
330
1F
100
AcDbEntity
  8
0
  6
CONTINUOUS
 62
    51
100
AcDbLine
 10
127.917687842261
 20
171.1302328387605
 30
0.0
 11
130.917687842261
 21
171.1302328387605
 31
0.0
  0
LINE
  5
6D7
330
1F
100
AcDbEntity
  8
0
  6
CONTINUOUS
 62
    51
100
AcDbLine
 10
151.9176880806796
 20
146.6302366534577
 30
0.0
 11
151.9176880806796
 21
113.6302366534577
 31
0.0
  0
ARC
  5
6D8
330
1F
100
AcDbEntity
  8
0
  6
CONTINUOUS
 62
    51
100
AcDbCircle
 10
136.917687842261
 20
176.6302328387605
 30
0.0
 40
3.0
100
AcDbArc
 50
90.0
 51
180.0000025044782
  0
ARC
  5
6D9
330
1F
100
AcDbEntity
  8
0
  6
CONTINUOUS
 62
    51
100
AcDbCircle
 10
121.917687842261
 20
169.6302328387605
 30
0.0
 40
3.0
100
AcDbArc
 50
90.0
 51
180.0000025044782
  0
ARC
  5
6DA
330
1F
100
AcDbEntity
  8
0
  6
CONTINUOUS
 62
    51
100
AcDbCircle
 10
130.917687842261
 20
175.6302328387605
 30
0.0
 40
3.0
100
AcDbArc
 50
269.9999949910437
 51
359.9999974955218
  0
ARC
  5
6DB
330
1F
100
AcDbEntity
  8
0
  6
CONTINUOUS
 62
    51
100
AcDbCircle
 10
134.917687842261
 20
173.1302328387605
 30
0.0
 40
2.0
100
AcDbArc
 50
269.9999949910437
 51
359.9999974955218
  0
ARC
  5
6DC
330
1F
100
AcDbEntity
  8
0
  6
CONTINUOUS
 62
    51
100
AcDbCircle
 10
146.9176880806796
 20
177.1302328387605
 30
0.0
 40
1.0
100
AcDbArc
 50
180.0000025044782
 51
270.0000050089564
  0
ARC
  5
6DD
330
1F
100
AcDbEntity
  8
0
  6
CONTINUOUS
 62
    51
100
AcDbCircle
 10
131.917687842261
 20
171.1302328387605
 30
0.0
 40
1.0
100
AcDbArc
 50
180.0000025044782
 51
270.0000050089564
  0
ARC
  5
6DE
330
1F
100
AcDbEntity
  8
0
  6
CONTINUOUS
 62
    51
100
AcDbCircle
 10
126.917687842261
 20
171.1302328387605
 30
0.0
 40
1.0
100
AcDbArc
 50
180.0000025044782
 51
270.0000050089564
  0
ARC
  5
6DF
330
1F
100
AcDbEntity
  8
0
  6
CONTINUOUS
 62
    51
100
AcDbCircle
 10
131.917687842261
 20
171.1302328387605
 30
0.0
 40
1.0
100
AcDbArc
 50
269.9999949910437
 51
359.9999974955218
  0
ARC
  5
6E0
330
1F
100
AcDbEntity
  8
0
  6
CONTINUOUS
 62
    51
100
AcDbCircle
 10
146.9176880806796
 20
177.1302328387605
 30
0.0
 40
1.0
100
AcDbArc
 50
269.9999949910437
 51
359.9999974955218
  0
ARC
  5
6E1
330
1F
100
AcDbEntity
  8
0
  6
CONTINUOUS
 62
    51
100
AcDbCircle
 10
126.917687842261
 20
171.1302328387605
 30
0.0
 40
1.0
100
AcDbArc
 50
269.9999949910437
 51
359.9999974955218
  0
ARC
  5
6E2
330
1F
100
AcDbEntity
  8
0
  6
CONTINUOUS
 62
    51
100
AcDbCircle
 10
141.917687842261
 20
177.1302328387605
 30
0.0
 40
1.0
100
AcDbArc
 50
180.0000025044782
 51
270.0000050089564
  0
ARC
  5
6E3
330
1F
100
AcDbEntity
  8
0
  6
CONTINUOUS
 62
    51
100
AcDbCircle
 10
141.917687842261
 20
177.1302328387605
 30
0.0
 40
1.0
100
AcDbArc
 50
269.9999949910437
 51
359.9999974955218
  0
LINE
  5
6E4
330
1F
100
AcDbEntity
  8
0
  6
CONTINUOUS
 62
    51
100
AcDbLine
 10
118.917687842261
 20
146.6302366534577
 30
0.0
 11
118.917687842261
 21
123.6302366534577
 31
0.0
  0
LINE
  5
6E5
330
1F
100
AcDbEntity
  8
0
  6
CONTINUOUS
 62
    51
100
AcDbLine
 10
133.917687842261
 20
146.6302366534577
 30
0.0
 11
133.917687842261
 21
116.6302366534577
 31
0.0
  0
LINE
  5
6E6
330
1F
100
AcDbEntity
  8
0
  6
CONTINUOUS
 62
    51
100
AcDbLine
 10
136.917687842261
 20
113.6302366534577
 30
0.0
 11
151.9176880806796
 21
113.6302366534577
 31
0.0
  0
LINE
  5
6E7
330
1F
100
AcDbEntity
  8
0
  6
CONTINUOUS
 62
     5
100
AcDbLine
 10
-98.2895026501941
 20
39.70990711113998
 30
0.0
 11
-98.2895026501941
 21
11.83779483697006
 31
0.0
  0
LINE
  5
6E8
330
1F
100
AcDbEntity
  8
0
  6
CONTINUOUS
 62
     5
100
AcDbLine
 10
-30.68950417607312
 20
39.70990711113998
 30
0.0
 11
-30.68950417607312
 21
11.83779483697006
 31
0.0
  0
LINE
  5
6E9
330
1F
100
AcDbEntity
  8
0
  6
CONTINUOUS
 62
     5
100
AcDbLine
 10
-93.08950379460327
 20
37.13779025933334
 30
0.0
 11
-88.48950388997082
 21
37.13779025933334
 31
0.0
  0
LINE
  5
6EA
330
1F
100
AcDbEntity
  8
0
  6
CONTINUOUS
 62
     5
100
AcDbLine
 10
-94.58950379460327
 20
13.33779483697006
 30
0.0
 11
-94.28950388997089
 21
13.33779483697006
 31
0.0
  0
LINE
  5
6EB
330
1F
100
AcDbEntity
  8
0
  6
CONTINUOUS
 62
     5
100
AcDbLine
 10
-94.58950379460327
 20
35.13779025933334
 30
0.0
 11
-94.58950379460327
 21
11.83779483697006
 31
0.0
  0
LINE
  5
6EC
330
1F
100
AcDbEntity
  8
0
  6
CONTINUOUS
 62
     5
100
AcDbLine
 10
-93.08950379460327
 20
37.13779025933334
 30
0.0
 11
-93.08950379460327
 21
15.33779483697006
 31
0.0
  0
LINE
  5
6ED
330
1F
100
AcDbEntity
  8
0
  6
CONTINUOUS
 62
     5
100
AcDbLine
 10
-94.58950379460327
 20
35.13779025933334
 30
0.0
 11
-91.48950579731934
 21
35.13779025933334
 31
0.0
  0
LINE
  5
6EE
330
1F
100
AcDbEntity
  8
0
  6
CONTINUOUS
 62
     5
100
AcDbLine
 10
-93.08950201146115
 20
37.13779215839045
 30
0.0
 11
-94.5895020353031
 21
35.13779217627192
 31
0.0
  0
LINE
  5
6EF
330
1F
100
AcDbEntity
  8
0
  6
CONTINUOUS
 62
     5
100
AcDbLine
 10
-94.58950379460327
 20
15.33779483697006
 30
0.0
 11
-93.08950095381658
 21
15.33779483697006
 31
0.0
  0
LINE
  5
6F0
330
1F
100
AcDbEntity
  8
0
  6
CONTINUOUS
 62
     5
100
AcDbLine
 10
-93.08950188986762
 20
15.33779358890197
 30
0.0
 11
-94.58950191370957
 21
13.33779360678332
 31
0.0
  0
LINE
  5
6F1
330
1F
100
AcDbEntity
  8
0
  6
CONTINUOUS
 62
     5
100
AcDbLine
 10
-49.40840294926647
 20
36.13779025933334
 30
0.0
 11
-49.40840294926647
 21
11.83779483697006
 31
0.0
  0
LINE
  5
6F2
330
1F
100
AcDbEntity
  8
0
  6
CONTINUOUS
 62
     5
100
AcDbLine
 10
-31.77018120854382
 20
36.13779025933334
 30
0.0
 11
-31.77018120854382
 21
11.83779483697006
 31
0.0
  0
LINE
  5
6F3
330
1F
100
AcDbEntity
  8
0
  6
CONTINUOUS
 62
     5
100
AcDbLine
 10
-88.83950379460327
 20
41.13779025933334
 30
0.0
 11
-88.83950379460327
 21
37.13779025933334
 31
0.0
  0
LINE
  5
6F4
330
1F
100
AcDbEntity
  8
0
  6
CONTINUOUS
 62
     5
100
AcDbLine
 10
-64.48950388997082
 20
40.13779025933334
 30
0.0
 11
-61.98950388997082
 21
40.13779025933334
 31
0.0
  0
LINE
  5
6F5
330
1F
100
AcDbEntity
  8
0
  6
CONTINUOUS
 62
     5
100
AcDbLine
 10
-52.01739838688854
 20
36.13779025933334
 30
0.0
 11
-52.01739838688854
 21
11.83779483697006
 31
0.0
  0
LINE
  5
6F6
330
1F
100
AcDbEntity
  8
0
  6
CONTINUOUS
 62
     5
100
AcDbLine
 10
-42.11892846196179
 20
40.13779025933334
 30
0.0
 11
-37.58929207890515
 21
40.13779025933334
 31
0.0
  0
ARC
  5
6F7
330
1F
100
AcDbEntity
  8
0
  6
CONTINUOUS
 62
     5
100
AcDbCircle
 10
-97.2895026501941
 20
39.70990711113998
 30
0.0
 40
1.0
100
AcDbArc
 50
116.7436689881203
 51
179.9999974955219
  0
ARC
  5
6F8
330
1F
100
AcDbEntity
  8
0
  6
CONTINUOUS
 62
     5
100
AcDbCircle
 10
-95.48950341313355
 20
36.13779025933334
 30
0.0
 40
5.0
100
AcDbArc
 50
89.99999499104368
 51
116.7436689881203
  0
ARC
  5
6F9
330
1F
100
AcDbEntity
  8
0
  6
CONTINUOUS
 62
     5
100
AcDbCircle
 10
-62.47024825184826
 20
24.508922156306
 30
0.0
 40
15.63626289367676
100
AcDbArc
 50
48.04855965500948
 51
88.23813039179487
  0
ARC
  5
6FA
330
1F
100
AcDbEntity
  8
0
  6
CONTINUOUS
 62
     5
100
AcDbCircle
 10
-31.68950417607312
 20
39.70990711113998
 30
0.0
 40
1.0
100
AcDbArc
 50
0.0000025044781673
 51
63.25631735150137
  0
ARC
  5
6FB
330
1F
100
AcDbEntity
  8
0
  6
CONTINUOUS
 62
     5
100
AcDbCircle
 10
-33.48950341313366
 20
36.13779025933334
 30
0.0
 40
5.0
100
AcDbArc
 50
63.25631735150138
 51
90.00000500895635
  0
ARC
  5
6FC
330
1F
100
AcDbEntity
  8
0
  6
CONTINUOUS
 62
     5
100
AcDbCircle
 10
-41.85411027043347
 20
31.01314121148178
 30
0.0
 40
9.128493309020996
100
AcDbArc
 50
88.33760890933262
 51
145.8479656453801
  0
ARC
  5
6FD
330
1F
100
AcDbEntity
  8
0
  6
CONTINUOUS
 62
     5
100
AcDbCircle
 10
-38.05340912907604
 20
33.22984653374741
 30
0.0
 40
6.923518180847168
100
AcDbArc
 50
24.835191873859
 51
86.15630239315333
  0
LINE
  5
6FE
330
1F
100
AcDbEntity
  8
0
  6
CONTINUOUS
 62
     5
100
AcDbLine
 10
-98.2895026501941
 20
11.83779483697006
 30
0.0
 11
-94.28950388997089
 21
11.83779483697006
 31
0.0
  0
LINE
  5
6FF
330
1F
100
AcDbEntity
  8
0
  6
CONTINUOUS
 62
     5
100
AcDbLine
 10
-64.48950388997082
 20
11.83779483697006
 30
0.0
 11
-30.68950417607312
 21
11.83779483697006
 31
0.0
  0
LINE
  5
700
330
1F
100
AcDbEntity
  8
0
  6
CONTINUOUS
 62
     5
100
AcDbLine
 10
-95.48950341313355
 20
41.13779025933334
 30
0.0
 11
-88.48950388997082
 21
41.13779025933334
 31
0.0
  0
LINE
  5
701
330
1F
100
AcDbEntity
  8
0
  6
CONTINUOUS
 62
     5
100
AcDbLine
 10
-64.48950388997082
 20
41.13779025933334
 30
0.0
 11
-33.48950341313366
 21
41.13779025933334
 31
0.0
  0
INSERT
  5
702
330
1F
100
AcDbEntity
  8
LAYER0014
  6
CONTINUOUS
100
AcDbBlockReference
  2
DA_IMAGEDIMGROUP_1
 10
0.0
 20
0.0
 30
0.0
  0
INSERT
  5
703
330
1F
100
AcDbEntity
  8
LAYER0014
  6
CONTINUOUS
100
AcDbBlockReference
  2
DA_IMAGEDIMGROUP_2
 10
0.0
 20
0.0
 30
0.0
  0
INSERT
  5
704
330
1F
100
AcDbEntity
  8
LAYER0014
  6
CONTINUOUS
100
AcDbBlockReference
  2
DC_GROUP_20
 10
0.0
 20
0.0
 30
0.0
  0
INSERT
  5
705
330
1F
100
AcDbEntity
  8
LAYER0014
  6
CONTINUOUS
100
AcDbBlockReference
  2
DC_GROUP_21
 10
0.0
 20
0.0
 30
0.0
  0
INSERT
  5
706
330
1F
100
AcDbEntity
  8
LAYER0014
  6
CONTINUOUS
100
AcDbBlockReference
  2
DC_GROUP_22
 10
0.0
 20
0.0
 30
0.0
  0
INSERT
  5
707
330
1F
100
AcDbEntity
  8
LAYER0014
  6
CONTINUOUS
100
AcDbBlockReference
  2
DC_GROUP_23
 10
0.0
 20
0.0
 30
0.0
  0
INSERT
  5
708
330
1F
100
AcDbEntity
  8
LAYER0014
  6
CONTINUOUS
100
AcDbBlockReference
  2
DC_GROUP_24
 10
0.0
 20
0.0
 30
0.0
  0
INSERT
  5
709
330
1F
100
AcDbEntity
  8
LAYER0014
  6
CONTINUOUS
100
AcDbBlockReference
  2
DC_GROUP_25
 10
0.0
 20
0.0
 30
0.0
  0
INSERT
  5
70A
330
1F
100
AcDbEntity
  8
LAYER0014
  6
CONTINUOUS
100
AcDbBlockReference
  2
DC_GROUP_26
 10
0.0
 20
0.0
 30
0.0
  0
INSERT
  5
70B
330
1F
100
AcDbEntity
  8
LAYER0014
  6
CONTINUOUS
100
AcDbBlockReference
  2
DC_GROUP_27
 10
0.0
 20
0.0
 30
0.0
  0
INSERT
  5
70C
330
1F
100
AcDbEntity
  8
LAYER0014
  6
CONTINUOUS
100
AcDbBlockReference
  2
DC_GROUP_28
 10
0.0
 20
0.0
 30
0.0
  0
INSERT
  5
70D
330
1F
100
AcDbEntity
  8
LAYER0014
  6
CONTINUOUS
100
AcDbBlockReference
  2
DC_GROUP_29
 10
0.0
 20
0.0
 30
0.0
  0
INSERT
  5
70E
330
1F
100
AcDbEntity
  8
LAYER0014
  6
CONTINUOUS
100
AcDbBlockReference
  2
DC_GROUP_30
 10
0.0
 20
0.0
 30
0.0
  0
INSERT
  5
70F
330
1F
100
AcDbEntity
  8
LAYER0014
  6
CONTINUOUS
100
AcDbBlockReference
  2
DC_GROUP_31
 10
0.0
 20
0.0
 30
0.0
  0
INSERT
  5
710
330
1F
100
AcDbEntity
  8
LAYER0014
  6
CONTINUOUS
100
AcDbBlockReference
  2
DA_IMAGEDIMGROUP_3
 10
0.0
 20
0.0
 30
0.0
  0
INSERT
  5
711
330
1F
100
AcDbEntity
  8
LAYER0014
  6
CONTINUOUS
100
AcDbBlockReference
  2
DA_IMAGEDIMGROUP_4
 10
0.0
 20
0.0
 30
0.0
  0
INSERT
  5
712
330
1F
100
AcDbEntity
  8
LAYER0014
  6
CONTINUOUS
100
AcDbBlockReference
  2
DC_GROUP_33
 10
0.0
 20
0.0
 30
0.0
  0
INSERT
  5
713
330
1F
100
AcDbEntity
  8
LAYER0014
  6
CONTINUOUS
100
AcDbBlockReference
  2
DA_IMAGEDIMGROUP_5
 10
0.0
 20
0.0
 30
0.0
  0
INSERT
  5
714
330
1F
100
AcDbEntity
  8
LAYER0014
  6
CONTINUOUS
100
AcDbBlockReference
  2
DA_IMAGEDIMGROUP_6
 10
0.0
 20
0.0
 30
0.0
  0
INSERT
  5
715
330
1F
100
AcDbEntity
  8
LAYER0014
  6
CONTINUOUS
100
AcDbBlockReference
  2
DA_IMAGEDIMGROUP_7
 10
0.0
 20
0.0
 30
0.0
  0
LINE
  5
716
330
1F
100
AcDbEntity
  8
0
  6
CENTER
 62
    41
100
AcDbLine
 10
109.7060827702395
 20
146.6302366534577
 30
0.0
 11
158.0558842764252
 21
146.6302366534577
 31
0.0
  0
INSERT
  5
717
330
1F
100
AcDbEntity
  8
LAYER0015
  6
CONTINUOUS
100
AcDbBlockReference
  2
DC_GROUP_34
 10
0.0
 20
0.0
 30
0.0
  0
INSERT
  5
718
330
1F
100
AcDbEntity
  8
LAYER0015
  6
CONTINUOUS
100
AcDbBlockReference
  2
DC_GROUP_35
 10
0.0
 20
0.0
 30
0.0
  0
VIEWPORT
  5
49
330
1B
100
AcDbEntity
 67
     1
  8
0
100
AcDbViewport
 10
0.0
 20
0.0
 30
0.0
 40
1782.0
 41
1260.0
 68
     1
 69
     1
1001
ACAD
1000
MVIEW
1002
{
1070
    16
1010
0.0
1020
0.0
1030
0.0
1010
0.0
1020
0.0
1030
1.0
1040
0.0
1040
1260.0
1040
0.0
1040
0.0
1040
50.0
1040
0.0
1040
0.0
1070
     0
1070
   100
1070
     0
1070
     1
1070
     0
1070
     0
1070
     0
1070
     0
1040
0.0
1040
0.0
1040
0.0
1040
0.5
1040
0.5
1040
0.0
1040
0.0
1070
     0
1002
{
1002
}
1002
}
  0
ENDSEC
  0
SECTION
  2
OBJECTS
  0
DICTIONARY
  5
C
330
0
100
AcDbDictionary
  3
ACAD_GROUP
350
D
  3
ACAD_LAYOUT
350
1A
  3
ACAD_MLINESTYLE
350
17
  3
ACAD_PLOTSETTINGS
350
19
  3
ACDBHEADERROUNDTRIPXREC
350
719
  0
DICTIONARY
  5
D
102
{ACAD_REACTORS
330
C
102
}
330
C
100
AcDbDictionary
  0
DICTIONARY
  5
1A
102
{ACAD_REACTORS
330
C
102
}
330
C
100
AcDbDictionary
  0
DICTIONARY
  5
17
102
{ACAD_REACTORS
330
C
102
}
330
C
100
AcDbDictionary
  3
STANDARD
350
18
  0
DICTIONARY
  5
19
102
{ACAD_REACTORS
330
C
102
}
330
C
100
AcDbDictionary
  0
DICTIONARY
  5
719
102
{ACAD_REACTORS
330
C
102
}
330
C
100
AcDbDictionary
  3
CEPSNTYPE
350
722
  3
DIMSTYLEDATA
350
738
  3
FINGERPRINTGUID
350
723
  3
HYPERLINKBASE
350
71C
  3
INSUNITS
350
721
  3
LAYOUTDICT
350
71E
  3
LWETCUNION
350
720
  3
PLOTSETDICT
350
71F
  3
PSVPSCALE
350
725
  3
PUCSBASE
350
728
  3
PUCSORGBACK
350
72E
  3
PUCSORGBOTTOM
350
72A
  3
PUCSORGFRONT
350
72D
  3
PUCSORGLEFT
350
72B
  3
PUCSORGRIGHT
350
72C
  3
PUCSORGTOP
350
729
  3
PUCSORTHOREF
350
726
  3
PUCSORTHOVIEW
350
727
  3
STYLESHEET
350
71D
  3
TSTACKALIGN
350
71A
  3
TSTACKSIZE
350
71B
  3
UCSBASE
350
731
  3
UCSORGBACK
350
737
  3
UCSORGBOTTOM
350
733
  3
UCSORGFRONT
350
736
  3
UCSORGLEFT
350
734
  3
UCSORGRIGHT
350
735
  3
UCSORGTOP
350
732
  3
UCSORTHOREF
350
72F
  3
UCSORTHOVIEW
350
730
  3
VERSIONGUID
350
724
  0
MLINESTYLE
  5
18
102
{ACAD_REACTORS
330
17
102
}
330
17
100
AcDbMlineStyle
  2
Standard
 70
     0
  3

 62
   256
 51
90.0
 52
90.0
 71
     2
 49
0.5
 62
   256
  6
BYLAYER
 49
-0.5
 62
   256
  6
BYLAYER
  0
XRECORD
  5
722
102
{ACAD_REACTORS
330
719
102
}
330
719
100
AcDbXrecord
 90
        0
  0
XRECORD
  5
738
102
{ACAD_REACTORS
330
719
102
}
330
719
100
AcDbXrecord
1000
DSTYLE
1002
{
1070
   171
 70
     2
1070
   143
 40
25.4
1070
   274
 70
     2
1070
   141
 40
0.09
1070
   271
 70
     4
1070
    43
 40
0.38
1070
    44
 40
0.18
1070
   278
 70
    46
1070
    42
 40
0.0625
1070
   147
 40
0.09
1070
    77
 70
     3
1070
   272
 70
     4
1070
    73
 70
     1
1070
   172
 70
     0
1070
    74
 70
     1
1070
   283
 70
     1
1070
   340
340
11
1070
   140
 40
0.18
1070
   284
 70
     0
1070
    78
 70
     0
1002
}
  0
XRECORD
  5
723
102
{ACAD_REACTORS
330
719
102
}
330
719
100
AcDbXrecord
  1
{6F5D4A08-2551-40EF-8B42-EB9A2F79FFA9}
  0
XRECORD
  5
71C
102
{ACAD_REACTORS
330
719
102
}
330
719
100
AcDbXrecord
  1

  0
XRECORD
  5
721
102
{ACAD_REACTORS
330
719
102
}
330
719
100
AcDbXrecord
 90
        4
  0
XRECORD
  5
71E
102
{ACAD_REACTORS
330
719
102
}
330
719
100
AcDbXrecord
340
1A
  0
XRECORD
  5
720
102
{ACAD_REACTORS
330
719
102
}
330
719
100
AcDbXrecord
 90
    10781
  0
XRECORD
  5
71F
102
{ACAD_REACTORS
330
719
102
}
330
719
100
AcDbXrecord
340
19
  0
XRECORD
  5
725
102
{ACAD_REACTORS
330
719
102
}
330
719
100
AcDbXrecord
 40
0.0
  0
XRECORD
  5
728
102
{ACAD_REACTORS
330
719
102
}
330
719
100
AcDbXrecord
340
0
  0
XRECORD
  5
72E
102
{ACAD_REACTORS
330
719
102
}
330
719
100
AcDbXrecord
 10
0.0
 20
0.0
 30
0.0
  0
XRECORD
  5
72A
102
{ACAD_REACTORS
330
719
102
}
330
719
100
AcDbXrecord
 10
0.0
 20
0.0
 30
0.0
  0
XRECORD
  5
72D
102
{ACAD_REACTORS
330
719
102
}
330
719
100
AcDbXrecord
 10
0.0
 20
0.0
 30
0.0
  0
XRECORD
  5
72B
102
{ACAD_REACTORS
330
719
102
}
330
719
100
AcDbXrecord
 10
0.0
 20
0.0
 30
0.0
  0
XRECORD
  5
72C
102
{ACAD_REACTORS
330
719
102
}
330
719
100
AcDbXrecord
 10
0.0
 20
0.0
 30
0.0
  0
XRECORD
  5
729
102
{ACAD_REACTORS
330
719
102
}
330
719
100
AcDbXrecord
 10
0.0
 20
0.0
 30
0.0
  0
XRECORD
  5
726
102
{ACAD_REACTORS
330
719
102
}
330
719
100
AcDbXrecord
340
0
  0
XRECORD
  5
727
102
{ACAD_REACTORS
330
719
102
}
330
719
100
AcDbXrecord
 70
     0
  0
XRECORD
  5
71D
102
{ACAD_REACTORS
330
719
102
}
330
719
100
AcDbXrecord
  1

  0
XRECORD
  5
71A
102
{ACAD_REACTORS
330
719
102
}
330
719
100
AcDbXrecord
 90
        1
  0
XRECORD
  5
71B
102
{ACAD_REACTORS
330
719
102
}
330
719
100
AcDbXrecord
 90
       70
  0
XRECORD
  5
731
102
{ACAD_REACTORS
330
719
102
}
330
719
100
AcDbXrecord
340
0
  0
XRECORD
  5
737
102
{ACAD_REACTORS
330
719
102
}
330
719
100
AcDbXrecord
 10
0.0
 20
0.0
 30
0.0
  0
XRECORD
  5
733
102
{ACAD_REACTORS
330
719
102
}
330
719
100
AcDbXrecord
 10
0.0
 20
0.0
 30
0.0
  0
XRECORD
  5
736
102
{ACAD_REACTORS
330
719
102
}
330
719
100
AcDbXrecord
 10
0.0
 20
0.0
 30
0.0
  0
XRECORD
  5
734
102
{ACAD_REACTORS
330
719
102
}
330
719
100
AcDbXrecord
 10
0.0
 20
0.0
 30
0.0
  0
XRECORD
  5
735
102
{ACAD_REACTORS
330
719
102
}
330
719
100
AcDbXrecord
 10
0.0
 20
0.0
 30
0.0
  0
XRECORD
  5
732
102
{ACAD_REACTORS
330
719
102
}
330
719
100
AcDbXrecord
 10
0.0
 20
0.0
 30
0.0
  0
XRECORD
  5
72F
102
{ACAD_REACTORS
330
719
102
}
330
719
100
AcDbXrecord
340
0
  0
XRECORD
  5
730
102
{ACAD_REACTORS
330
719
102
}
330
719
100
AcDbXrecord
 70
     0
  0
XRECORD
  5
724
102
{ACAD_REACTORS
330
719
102
}
330
719
100
AcDbXrecord
  1
{FAEB1C32-E019-11D5-929B-00C0DF256EC4}
  0
ENDSEC
  0
EOF
