  0
SECTION
  2
HEADER
  9
$ACADVER
  1
AC1009
  9
$INSBASE
 10
0.0
 20
0.0
 30
0.0
  9
$EXTMIN
 10
-4.7003500000000003
 20
-21.071000000000002
 30
0.0
  9
$EXTMAX
 10
205.30099999999999
 20
275.93099999999998
 30
0.0
  9
$LIMMIN
 10
0.0
 20
0.0
  9
$LIMMAX
 10
12.0
 20
9.0
  9
$ORTHOMODE
 70
     0
  9
$REGENMODE
 70
     1
  9
$FILLMODE
 70
     1
  9
$QTEXTMODE
 70
     0
  9
$MIRRTEXT
 70
     1
  9
$DRAGMODE
 70
     2
  9
$LTSCALE
 40
1.0
  9
$OSMODE
 70
    37
  9
$ATTMODE
 70
     1
  9
$TEXTSIZE
 40
0.0
  9
$TRACEWID
 40
0.05
  9
$TEXTSTYLE
  7
STANDARD
  9
$CLAYER
  8
0
  9
$CELTYPE
  6
CONTINUOUS
  9
$CECOLOR
 62
   256
  9
$DIMSCALE
 40
1.0
  9
$DIMASZ
 40
0.18
  9
$DIMEXO
 40
0.0625
  9
$DIMDLI
 40
0.38
  9
$DIMRND
 40
0.0
  9
$DIMDLE
 40
0.0
  9
$DIMEXE
 40
0.18
  9
$DIMTP
 40
0.0
  9
$DIMTM
 40
0.0
  9
$DIMTXT
 40
0.18
  9
$DIMCEN
 40
0.09
  9
$DIMTSZ
 40
0.0
  9
$DIMTOL
 70
     0
  9
$DIMLIM
 70
     0
  9
$DIMTIH
 70
     1
  9
$DIMTOH
 70
     1
  9
$DIMSE1
 70
     0
  9
$DIMSE2
 70
     0
  9
$DIMTAD
 70
     0
  9
$DIMZIN
 70
     0
  9
$DIMBLK
  1

  9
$DIMASO
 70
     1
  9
$DIMSHO
 70
     1
  9
$DIMPOST
  1

  9
$DIMAPOST
  1

  9
$DIMALT
 70
     0
  9
$DIMALTD
 70
     2
  9
$DIMALTF
 40
25.399999999999999
  9
$DIMLFAC
 40
1.0
  9
$DIMTOFL
 70
     0
  9
$DIMTVP
 40
0.0
  9
$DIMTIX
 70
     0
  9
$DIMSOXD
 70
     0
  9
$DIMSAH
 70
     0
  9
$DIMBLK1
  1

  9
$DIMBLK2
  1

  9
$DIMSTYLE
  2
STANDARD
  9
$DIMCLRD
 70
     0
  9
$DIMCLRE
 70
     0
  9
$DIMCLRT
 70
     0
  9
$DIMTFAC
 40
1.0
  9
$DIMGAP
 40
0.09
  9
$LUNITS
 70
     2
  9
$LUPREC
 70
     4
  9
$SKETCHINC
 40
0.1
  9
$FILLETRAD
 40
0.0
  9
$AUNITS
 70
     0
  9
$AUPREC
 70
     0
  9
$MENU
  1
.
  9
$ELEVATION
 40
0.0
  9
$PELEVATION
 40
0.0
  9
$THICKNESS
 40
0.0
  9
$LIMCHECK
 70
     0
  9
$BLIPMODE
 70
     0
  9
$CHAMFERA
 40
0.0
  9
$CHAMFERB
 40
0.0
  9
$SKPOLY
 70
     0
  9
$TDCREATE
 40
2444972.375
  9
$TDUPDATE
 40
2457479.2466492709
  9
$TDINDWG
 40
0.0000347106
  9
$TDUSRTIMER
 40
0.0000347106
  9
$USRTIMER
 70
     1
  9
$ANGBASE
 50
0.0
  9
$ANGDIR
 70
     0
  9
$PDMODE
 70
     0
  9
$PDSIZE
 40
0.0
  9
$PLINEWID
 40
0.0
  9
$COORDS
 70
     1
  9
$SPLFRAME
 70
     0
  9
$SPLINETYPE
 70
     6
  9
$SPLINESEGS
 70
     8
  9
$ATTDIA
 70
     1
  9
$ATTREQ
 70
     1
  9
$HANDLING
 70
     1
  9
$HANDSEED
  5
1B0
  9
$SURFTAB1
 70
     6
  9
$SURFTAB2
 70
     6
  9
$SURFTYPE
 70
     6
  9
$SURFU
 70
     6
  9
$SURFV
 70
     6
  9
$UCSNAME
  2

  9
$UCSORG
 10
0.0
 20
0.0
 30
0.0
  9
$UCSXDIR
 10
1.0
 20
0.0
 30
0.0
  9
$UCSYDIR
 10
0.0
 20
1.0
 30
0.0
  9
$PUCSNAME
  2

  9
$PUCSORG
 10
0.0
 20
0.0
 30
0.0
  9
$PUCSXDIR
 10
1.0
 20
0.0
 30
0.0
  9
$PUCSYDIR
 10
0.0
 20
1.0
 30
0.0
  9
$USERI1
 70
     0
  9
$USERI2
 70
     0
  9
$USERI3
 70
     0
  9
$USERI4
 70
     0
  9
$USERI5
 70
     0
  9
$USERR1
 40
0.0
  9
$USERR2
 40
0.0
  9
$USERR3
 40
0.0
  9
$USERR4
 40
0.0
  9
$USERR5
 40
0.0
  9
$WORLDVIEW
 70
     1
  9
$SHADEDGE
 70
     3
  9
$SHADEDIF
 70
    70
  9
$TILEMODE
 70
     1
  9
$MAXACTVP
 70
    48
  9
$PLIMCHECK
 70
     0
  9
$PEXTMIN
 10
1.0000000000000000E+020
 20
1.0000000000000000E+020
 30
1.0000000000000000E+020
  9
$PEXTMAX
 10
-1.0000000000000000E+020
 20
-1.0000000000000000E+020
 30
-1.0000000000000000E+020
  9
$PLIMMIN
 10
0.0
 20
0.0
  9
$PLIMMAX
 10
12.0
 20
9.0
  9
$UNITMODE
 70
     0
  9
$VISRETAIN
 70
     1
  9
$PLINEGEN
 70
     0
  9
$PSLTSCALE
 70
     1
  0
ENDSEC
  0
SECTION
  2
TABLES
  0
TABLE
  2
VPORT
 70
     1
  0
VPORT
  2
*ACTIVE
 70
     0
 10
0.0
 20
0.0
 11
1.0
 21
1.0
 12
156.2906095558443
 22
127.42999999999989
 13
0.0
 23
0.0
 14
1.0
 24
1.0
 15
0.0
 25
0.0
 16
0.0
 26
0.0
 36
1.0
 17
0.0
 27
0.0
 37
0.0
 40
282.8995428298735
 41
2.0381526104417671
 42
50.0
 43
0.0
 44
0.0
 50
0.0
 51
0.0
 71
     0
 72
   100
 73
     1
 74
     1
 75
     0
 76
     0
 77
     0
 78
     0
  0
ENDTAB
  0
TABLE
  2
LTYPE
 70
     3
  0
LTYPE
  2
CONTINUOUS
 70
     0
  3
Solid line
 72
    65
 73
     0
 40
0.0
  0
LTYPE
  2
AIGENLINE001
 70
     0
  3
generate AI->DXF Converter
 72
    65
 73
     4
 40
5.8561449999999988
 49
3.5278
 49
-0.776115
 49
0.776115
 49
-0.776115
  0
LTYPE
  2
AIGENLINE002
 70
     0
  3
generate AI->DXF Converter
 72
    65
 73
     2
 40
1.5522299999999991
 49
0.776115
 49
-0.776115
  0
ENDTAB
  0
TABLE
  2
LAYER
 70
     2
  0
LAYER
  2
0
 70
     0
 62
     7
  6
CONTINUOUS
  0
LAYER
  2
_________2
 70
     0
 62
     7
  6
CONTINUOUS
  0
ENDTAB
  0
TABLE
  2
STYLE
 70
     1
  0
STYLE
  2
STANDARD
 70
     0
 40
0.0
 41
0.0
 50
0.0
 71
     0
 42
0.0
  3
TXT
  4
EXTFONT.SHX
  0
ENDTAB
  0
TABLE
  2
VIEW
 70
     0
  0
ENDTAB
  0
TABLE
  2
UCS
 70
     0
  0
ENDTAB
  0
TABLE
  2
APPID
 70
     3
  0
APPID
  2
ACAD
 70
     0
  0
APPID
  2
ACAD_NAV_VCDISPLAY
 70
     0
  0
APPID
  2
ACAD_MLEADERVER
 70
     0
  0
ENDTAB
  0
TABLE
  2
DIMSTYLE
 70
     1
  0
DIMSTYLE
  2
STANDARD
 70
     0
  3

  4

  5

  6

  7

 40
1.0
 41
0.18
 42
0.0625
 43
0.38
 44
0.18
 45
0.0
 46
0.0
 47
0.0
 48
0.0
140
0.18
141
0.09
142
0.0
143
25.399999999999999
144
1.0
145
0.0
146
1.0
147
0.09
 71
     0
 72
     0
 73
     1
 74
     1
 75
     0
 76
     0
 77
     0
 78
     0
170
     0
171
     2
172
     0
173
     0
174
     0
175
     0
176
     0
177
     0
178
     0
  0
ENDTAB
  0
ENDSEC
  0
SECTION
  2
BLOCKS
  0
BLOCK
  8
0
  2
$MODEL_SPACE
 70
     0
 10
0.0
 20
0.0
 30
0.0
  3
$MODEL_SPACE
  1

  0
ENDBLK
  5
1A
  8
0
  0
BLOCK
 67
     1
  8
0
  2
$PAPER_SPACE
 70
     0
 10
0.0
 20
0.0
 30
0.0
  3
$PAPER_SPACE
  1

  0
ENDBLK
  5
17
 67
     1
  8
0
  0
ENDSEC
  0
SECTION
  2
ENTITIES
  0
TEXT
  5
23
  8
0
 62
     7
 10
147.59078199999999
 20
126.428
 30
0.0
 40
3.0923400000000001
  1
（樹脂プラグ付）
 41
0.5
 72
     2
 11
161.09399999999999
 21
126.428
 31
0.0
  0
TEXT
  5
24
  8
0
 62
     7
 10
132.95370600000001
 20
131.39099999999999
 30
0.0
 40
3.0923400000000001
  1
%%c3.5\U+00D745 SUS十字穴付木ネジ
 41
0.5
 72
     2
 11
161.09399999999999
 21
131.39099999999999
 31
0.0
  0
TEXT
  5
25
  8
0
 62
     7
 10
155.584
 20
101.91052500000001
 30
0.0
 40
3.0923400000000001
  1
26
 50
90.0
 41
0.5
 72
     1
 11
155.584
 21
103.199
 31
0.0
  0
TEXT
  5
26
  8
0
 62
     7
 10
163.0
 20
101.13844
 30
0.0
 40
3.0923400000000001
  1
%%c45
 50
90.0
 41
0.5
 72
     1
 11
163.0
 21
103.2
 31
0.0
  0
TEXT
  5
27
  8
0
 62
     7
 10
111.84757500000001
 20
154.25
 30
0.0
 40
3.0923400000000001
  1
%%c20
 41
0.5
 72
     2
 11
115.71299999999999
 21
154.25
 31
0.0
  0
TEXT
  5
28
  8
0
 62
     7
 10
112.8493725
 20
82.885000000000005
 30
0.0
 40
3.0923400000000001
  1
60
 41
0.5
 72
     1
 11
114.009
 21
82.885000000000005
 31
0.0
  0
ARC
  5
29
  8
0
 62
     7
 10
104.225218
 20
203.998572
 30
0.0
 40
5.000157999999999
 50
269.999033
 51
359.99900300000002
  0
ARC
  5
2A
  8
0
 62
     7
 10
104.225132
 20
203.99848399999999
 30
0.0
 40
5.00007
 50
179.99996999999999
 51
270.00002000000001
  0
ARC
  5
2B
  8
0
 62
     7
 10
104.225133
 20
203.99848399999999
 30
0.0
 40
5.0000720000000003
 50
90.0
 51
179.99996999999999
  0
ARC
  5
2C
  8
0
 62
     7
 10
104.225218
 20
203.99839800000001
 30
0.0
 40
5.000157999999999
 50
0.000997
 51
90.000967000000017
  0
LINE
  5
2D
  8
0
 62
     7
 10
161.09399999999999
 20
130.691
 30
0.0
 11
127.633
 21
130.691
 31
0.0
  0
LINE
  5
2E
  8
0
 62
     7
 10
129.286
 20
202.251
 30
0.0
 11
130.23699999999999
 21
205.482
 31
0.0
  0
LINE
  5
2F
  8
0
 62
     7
 10
130.547
 20
202.251
 30
0.0
 11
131.499
 21
205.482
 31
0.0
  0
LINE
  5
30
  8
0
 62
     7
 10
131.809
 20
202.251
 30
0.0
 11
132.75999999999999
 21
205.482
 31
0.0
  0
LINE
  5
31
  8
0
 62
     7
 10
133.06999999999999
 20
202.251
 30
0.0
 11
134.02199999999999
 21
205.482
 31
0.0
  0
LINE
  5
32
  8
0
 62
     7
 10
134.33199999999999
 20
202.251
 30
0.0
 11
135.28399999999999
 21
205.482
 31
0.0
  0
LINE
  5
33
  8
0
 62
     7
 10
135.59399999999999
 20
202.251
 30
0.0
 11
136.54499999999999
 21
205.482
 31
0.0
  0
LINE
  5
34
  8
0
 62
     7
 10
136.85499999999999
 20
202.251
 30
0.0
 11
137.80699999999999
 21
205.482
 31
0.0
  0
LINE
  5
35
  8
0
 62
     7
 10
138.11699999999999
 20
202.251
 30
0.0
 11
139.06800000000001
 21
205.482
 31
0.0
  0
LINE
  5
36
  8
0
 62
     7
 10
139.37799999999999
 20
202.251
 30
0.0
 11
140.33000000000001
 21
205.482
 31
0.0
  0
LINE
  5
37
  8
0
 62
     7
 10
140.63999999999999
 20
202.251
 30
0.0
 11
141.59200000000001
 21
205.482
 31
0.0
  0
LINE
  5
38
  8
0
 62
     7
 10
141.90199999999999
 20
202.251
 30
0.0
 11
142.85300000000001
 21
205.482
 31
0.0
  0
LINE
  5
39
  8
0
 62
     7
 10
143.16300000000001
 20
202.251
 30
0.0
 11
144.11500000000001
 21
205.482
 31
0.0
  0
LINE
  5
3A
  8
0
 62
     7
 10
144.42500000000001
 20
202.251
 30
0.0
 11
145.376
 21
205.482
 31
0.0
  0
LINE
  5
3B
  8
0
 62
     7
 10
145.31800000000001
 20
204.874
 30
0.0
 11
146.72499999999999
 21
203.99799999999999
 31
0.0
  0
LINE
  5
3C
  8
0
 62
     7
 10
146.72499999999999
 20
203.99799999999999
 30
0.0
 11
145.31800000000001
 21
203.12299999999999
 31
0.0
  0
LINE
  5
3D
  8
0
 62
     7
 10
129.22499999999999
 20
203.12299999999999
 30
0.0
 11
145.31800000000001
 21
203.12299999999999
 31
0.0
  0
LINE
  5
3E
  8
0
 62
     7
 10
129.22499999999999
 20
204.874
 30
0.0
 11
145.31800000000001
 21
204.874
 31
0.0
  0
LINE
  5
3F
  8
0
  6
AIGENLINE001
 62
     7
 10
95.645600000000002
 20
203.99799999999999
 30
0.0
 11
148.37799999999999
 21
203.99799999999999
 31
0.0
  0
LINE
  5
40
  8
0
 62
     7
 10
119.22499999999999
 20
200.49799999999999
 30
0.0
 11
114.22499999999999
 21
200.49799999999999
 31
0.0
  0
LINE
  5
41
  8
0
 62
     7
 10
119.22499999999999
 20
207.499
 30
0.0
 11
114.22499999999999
 21
207.499
 31
0.0
  0
LINE
  5
42
  8
0
 62
     7
 10
114.22499999999999
 20
208.999
 30
0.0
 11
104.22499999999999
 21
208.999
 31
0.0
  0
LINE
  5
43
  8
0
 62
     7
 10
114.22499999999999
 20
208.999
 30
0.0
 11
114.22499999999999
 21
198.99799999999999
 31
0.0
  0
LINE
  5
44
  8
0
 62
     7
 10
124.22499999999999
 20
198.99799999999999
 30
0.0
 11
119.22499999999999
 21
198.99799999999999
 31
0.0
  0
LINE
  5
45
  8
0
 62
     7
 10
124.22499999999999
 20
208.999
 30
0.0
 11
119.22499999999999
 21
208.999
 31
0.0
  0
LINE
  5
46
  8
0
 62
     7
 10
119.22499999999999
 20
208.999
 30
0.0
 11
119.22499999999999
 21
198.99799999999999
 31
0.0
  0
LINE
  5
47
  8
0
  6
AIGENLINE001
 62
     7
 10
104.22499999999999
 20
212.47200000000001
 30
0.0
 11
104.22499999999999
 21
195.72800000000001
 31
0.0
  0
LINE
  5
48
  8
0
 62
     7
 10
124.22499999999999
 20
215.249
 30
0.0
 11
124.22499999999999
 21
192.749
 31
0.0
  0
LINE
  5
49
  8
0
 62
     7
 10
129.22499999999999
 20
215.249
 30
0.0
 11
124.22499999999999
 21
215.249
 31
0.0
  0
LINE
  5
4A
  8
0
 62
     7
 10
129.22499999999999
 20
192.749
 30
0.0
 11
124.22499999999999
 21
192.749
 31
0.0
  0
LINE
  5
4B
  8
0
 62
     7
 10
129.22499999999999
 20
215.249
 30
0.0
 11
129.22499999999999
 21
192.749
 31
0.0
  0
LINE
  5
4C
  8
0
 62
     7
 10
104.22499999999999
 20
198.99799999999999
 30
0.0
 11
114.22499999999999
 21
198.99799999999999
 31
0.0
  0
LINE
  5
4D
  8
0
 62
     7
 10
131.626
 20
113.17
 30
0.0
 11
132.75999999999999
 21
111.18300000000001
 31
0.0
  0
LINE
  5
4E
  8
0
 62
     7
 10
132.75999999999999
 20
111.18300000000001
 30
0.0
 11
132.773
 21
113.471
 31
0.0
  0
LINE
  5
4F
  8
0
 62
     7
 10
132.773
 20
113.471
 30
0.0
 11
131.626
 21
113.17
 31
0.0
  0
LINE
  5
50
  8
0
 62
     7
 10
132.75299999999999
 20
111.18000000000001
 30
0.0
 11
127.633
 21
130.691
 31
0.0
  0
LINE
  5
51
  8
0
 62
     7
 10
129.286
 20
94.951899999999995
 30
0.0
 11
130.23699999999999
 21
98.182100000000005
 31
0.0
  0
LINE
  5
52
  8
0
 62
     7
 10
130.547
 20
94.951899999999995
 30
0.0
 11
131.499
 21
98.182100000000005
 31
0.0
  0
LINE
  5
53
  8
0
 62
     7
 10
131.809
 20
94.951899999999995
 30
0.0
 11
132.75999999999999
 21
98.182100000000005
 31
0.0
  0
LINE
  5
54
  8
0
 62
     7
 10
133.06999999999999
 20
94.951899999999995
 30
0.0
 11
134.02199999999999
 21
98.182100000000005
 31
0.0
  0
LINE
  5
55
  8
0
 62
     7
 10
134.33199999999999
 20
94.951899999999995
 30
0.0
 11
135.28399999999999
 21
98.182100000000005
 31
0.0
  0
LINE
  5
56
  8
0
 62
     7
 10
135.59399999999999
 20
94.951899999999995
 30
0.0
 11
136.54499999999999
 21
98.182100000000005
 31
0.0
  0
LINE
  5
57
  8
0
 62
     7
 10
136.85499999999999
 20
94.951899999999995
 30
0.0
 11
137.80699999999999
 21
98.182100000000005
 31
0.0
  0
LINE
  5
58
  8
0
 62
     7
 10
138.11699999999999
 20
94.951899999999995
 30
0.0
 11
139.06800000000001
 21
98.182100000000005
 31
0.0
  0
LINE
  5
59
  8
0
 62
     7
 10
139.37799999999999
 20
94.951899999999995
 30
0.0
 11
140.33000000000001
 21
98.182100000000005
 31
0.0
  0
LINE
  5
5A
  8
0
 62
     7
 10
140.63999999999999
 20
94.951899999999995
 30
0.0
 11
141.59200000000001
 21
98.182100000000005
 31
0.0
  0
LINE
  5
5B
  8
0
 62
     7
 10
141.90199999999999
 20
94.951899999999995
 30
0.0
 11
142.85300000000001
 21
98.182100000000005
 31
0.0
  0
LINE
  5
5C
  8
0
 62
     7
 10
143.16300000000001
 20
94.951899999999995
 30
0.0
 11
144.11500000000001
 21
98.182100000000005
 31
0.0
  0
LINE
  5
5D
  8
0
 62
     7
 10
144.42500000000001
 20
94.951899999999995
 30
0.0
 11
145.376
 21
98.182100000000005
 31
0.0
  0
LINE
  5
5E
  8
0
 62
     7
 10
129.286
 20
107.952
 30
0.0
 11
130.23699999999999
 21
111.18300000000001
 31
0.0
  0
LINE
  5
5F
  8
0
 62
     7
 10
130.547
 20
107.952
 30
0.0
 11
131.499
 21
111.18300000000001
 31
0.0
  0
LINE
  5
60
  8
0
 62
     7
 10
131.809
 20
107.952
 30
0.0
 11
132.75999999999999
 21
111.18300000000001
 31
0.0
  0
LINE
  5
61
  8
0
 62
     7
 10
133.06999999999999
 20
107.952
 30
0.0
 11
134.02199999999999
 21
111.18300000000001
 31
0.0
  0
LINE
  5
62
  8
0
 62
     7
 10
134.33199999999999
 20
107.952
 30
0.0
 11
135.28399999999999
 21
111.18300000000001
 31
0.0
  0
LINE
  5
63
  8
0
 62
     7
 10
135.59399999999999
 20
107.952
 30
0.0
 11
136.54499999999999
 21
111.18300000000001
 31
0.0
  0
LINE
  5
64
  8
0
 62
     7
 10
136.85499999999999
 20
107.952
 30
0.0
 11
137.80699999999999
 21
111.18300000000001
 31
0.0
  0
LINE
  5
65
  8
0
 62
     7
 10
138.11699999999999
 20
107.952
 30
0.0
 11
139.06800000000001
 21
111.18300000000001
 31
0.0
  0
LINE
  5
66
  8
0
 62
     7
 10
139.37799999999999
 20
107.952
 30
0.0
 11
140.33000000000001
 21
111.18300000000001
 31
0.0
  0
LINE
  5
67
  8
0
 62
     7
 10
140.63999999999999
 20
107.952
 30
0.0
 11
141.59200000000001
 21
111.18300000000001
 31
0.0
  0
LINE
  5
68
  8
0
 62
     7
 10
141.90199999999999
 20
107.952
 30
0.0
 11
142.85300000000001
 21
111.18300000000001
 31
0.0
  0
LINE
  5
69
  8
0
 62
     7
 10
143.16300000000001
 20
107.952
 30
0.0
 11
144.11500000000001
 21
111.18300000000001
 31
0.0
  0
LINE
  5
6A
  8
0
 62
     7
 10
144.42500000000001
 20
107.952
 30
0.0
 11
145.376
 21
111.18300000000001
 31
0.0
  0
LINE
  5
6B
  8
0
 62
     7
 10
101.43600000000001
 20
81.599999999999994
 30
0.0
 11
99.225099999999998
 21
82.192199999999985
 31
0.0
  0
LINE
  5
6C
  8
0
 62
     7
 10
99.225099999999998
 20
82.192199999999985
 30
0.0
 11
101.43600000000001
 21
82.784400000000005
 31
0.0
  0
LINE
  5
6D
  8
0
 62
     7
 10
101.43600000000001
 20
82.784400000000005
 30
0.0
 11
101.43600000000001
 21
81.599999999999994
 31
0.0
  0
LINE
  5
6E
  8
0
 62
     7
 10
127.015
 20
82.769999999999996
 30
0.0
 11
129.22499999999999
 21
82.177800000000005
 31
0.0
  0
LINE
  5
6F
  8
0
 62
     7
 10
129.22499999999999
 20
82.177800000000005
 30
0.0
 11
127.015
 21
81.585499999999996
 31
0.0
  0
LINE
  5
70
  8
0
 62
     7
 10
127.015
 20
81.585499999999996
 30
0.0
 11
127.015
 21
82.769999999999996
 31
0.0
  0
LINE
  5
71
  8
0
 62
     7
 10
99.225099999999998
 20
82.185000000000002
 30
0.0
 11
129.22499999999999
 21
82.185000000000002
 31
0.0
  0
LINE
  5
72
  8
0
 62
     7
 10
99.225099999999998
 20
81.260999999999996
 30
0.0
 11
99.225099999999998
 21
96.939400000000006
 31
0.0
  0
LINE
  5
73
  8
0
 62
     7
 10
129.22499999999999
 20
81.2376
 30
0.0
 11
129.22499999999999
 21
90.689299999999989
 31
0.0
  0
LINE
  5
74
  8
0
 62
     7
 10
164.708
 20
91.9495
 30
0.0
 11
130.149
 21
91.9495
 31
0.0
  0
LINE
  5
75
  8
0
 62
     7
 10
164.708
 20
114.45
 30
0.0
 11
130.149
 21
114.45
 31
0.0
  0
LINE
  5
76
  8
0
 62
     7
 10
163.11500000000001
 20
112.239
 30
0.0
 11
163.70699999999999
 21
114.45
 31
0.0
  0
LINE
  5
77
  8
0
 62
     7
 10
163.70699999999999
 20
114.45
 30
0.0
 11
164.30000000000001
 21
112.239
 31
0.0
  0
LINE
  5
78
  8
0
 62
     7
 10
164.30000000000001
 20
112.239
 30
0.0
 11
163.11500000000001
 21
112.239
 31
0.0
  0
LINE
  5
79
  8
0
 62
     7
 10
164.285
 20
94.160200000000003
 30
0.0
 11
163.6929999999999
 21
91.9495
 31
0.0
  0
LINE
  5
7A
  8
0
 62
     7
 10
163.6929999999999
 20
91.9495
 30
0.0
 11
163.09999999999999
 21
94.160200000000003
 31
0.0
  0
LINE
  5
7B
  8
0
 62
     7
 10
163.09999999999999
 20
94.160200000000003
 30
0.0
 11
164.285
 21
94.160200000000003
 31
0.0
  0
LINE
  5
7C
  8
0
 62
     7
 10
163.69999999999999
 20
114.45
 30
0.0
 11
163.69999999999999
 21
91.9495
 31
0.0
  0
LINE
  5
7D
  8
0
 62
     7
 10
156.869
 20
98.909700000000015
 30
0.0
 11
156.27699999999999
 21
96.698899999999995
 31
0.0
  0
LINE
  5
7E
  8
0
 62
     7
 10
156.27699999999999
 20
96.698899999999995
 30
0.0
 11
155.684
 21
98.909700000000015
 31
0.0
  0
LINE
  5
7F
  8
0
 62
     7
 10
155.684
 20
98.909700000000015
 30
0.0
 11
156.869
 21
98.909700000000015
 31
0.0
  0
LINE
  5
80
  8
0
 62
     7
 10
155.69900000000001
 20
107.489
 30
0.0
 11
156.291
 21
109.699
 31
0.0
  0
LINE
  5
81
  8
0
 62
     7
 10
156.291
 20
109.699
 30
0.0
 11
156.88300000000001
 21
107.489
 31
0.0
  0
LINE
  5
82
  8
0
 62
     7
 10
156.88300000000001
 20
107.489
 30
0.0
 11
155.69900000000001
 21
107.489
 31
0.0
  0
LINE
  5
83
  8
0
 62
     7
 10
156.28399999999999
 20
96.698899999999995
 30
0.0
 11
156.28399999999999
 21
109.699
 31
0.0
  0
LINE
  5
84
  8
0
 62
     7
 10
156.745
 20
96.698899999999995
 30
0.0
 11
148.988
 21
96.698899999999995
 31
0.0
  0
LINE
  5
85
  8
0
 62
     7
 10
145.31800000000001
 20
97.573999999999998
 30
0.0
 11
146.72499999999999
 21
96.698899999999995
 31
0.0
  0
LINE
  5
86
  8
0
 62
     7
 10
146.72499999999999
 20
96.698899999999995
 30
0.0
 11
145.31800000000001
 21
95.823899999999995
 31
0.0
  0
LINE
  5
87
  8
0
 62
     7
 10
129.22499999999999
 20
95.823899999999995
 30
0.0
 11
145.31800000000001
 21
95.823899999999995
 31
0.0
  0
LINE
  5
88
  8
0
 62
     7
 10
129.22499999999999
 20
97.573999999999998
 30
0.0
 11
145.31800000000001
 21
97.573999999999998
 31
0.0
  0
LINE
  5
89
  8
0
  6
AIGENLINE001
 62
     7
 10
127.011
 20
96.698899999999995
 30
0.0
 11
148.37799999999999
 21
96.698899999999995
 31
0.0
  0
LINE
  5
8A
  8
0
 62
     7
 10
156.745
 20
109.699
 30
0.0
 11
148.988
 21
109.699
 31
0.0
  0
LINE
  5
8B
  8
0
 62
     7
 10
145.31800000000001
 20
110.574
 30
0.0
 11
146.72499999999999
 21
109.699
 31
0.0
  0
LINE
  5
8C
  8
0
 62
     7
 10
146.72499999999999
 20
109.699
 30
0.0
 11
145.31800000000001
 21
108.824
 31
0.0
  0
LINE
  5
8D
  8
0
 62
     7
 10
129.22499999999999
 20
108.824
 30
0.0
 11
145.31800000000001
 21
108.824
 31
0.0
  0
LINE
  5
8E
  8
0
 62
     7
 10
129.22499999999999
 20
110.574
 30
0.0
 11
145.31800000000001
 21
110.574
 31
0.0
  0
LINE
  5
8F
  8
0
  6
AIGENLINE001
 62
     7
 10
127.011
 20
109.699
 30
0.0
 11
148.37799999999999
 21
109.699
 31
0.0
  0
LINE
  5
90
  8
0
 62
     7
 10
101.43600000000001
 20
152.965
 30
0.0
 11
99.225099999999998
 21
153.55699999999999
 31
0.0
  0
LINE
  5
91
  8
0
 62
     7
 10
99.225099999999998
 20
153.55699999999999
 30
0.0
 11
101.43600000000001
 21
154.149
 31
0.0
  0
LINE
  5
92
  8
0
 62
     7
 10
101.43600000000001
 20
154.149
 30
0.0
 11
101.43600000000001
 21
152.965
 31
0.0
  0
LINE
  5
93
  8
0
 62
     7
 10
107.014
 20
154.13499999999999
 30
0.0
 11
109.22499999999999
 21
153.54300000000001
 31
0.0
  0
LINE
  5
94
  8
0
 62
     7
 10
109.22499999999999
 20
153.54300000000001
 30
0.0
 11
107.014
 21
152.94999999999999
 31
0.0
  0
LINE
  5
95
  8
0
 62
     7
 10
107.014
 20
152.94999999999999
 30
0.0
 11
107.014
 21
154.13499999999999
 31
0.0
  0
LINE
  5
96
  8
0
 62
     7
 10
99.225099999999998
 20
153.55000000000001
 30
0.0
 11
115.71299999999999
 21
153.55000000000001
 31
0.0
  0
LINE
  5
97
  8
0
 62
     7
 10
99.225099999999998
 20
98.198899999999995
 30
0.0
 11
109.22499999999999
 21
108.199
 31
0.0
  0
LINE
  5
98
  8
0
  6
AIGENLINE001
 62
     7
 10
104.224
 20
103.199
 30
0.0
 11
133.02199999999999
 21
103.199
 31
0.0
  0
LINE
  5
99
  8
0
 62
     7
 10
119.22499999999999
 20
99.698899999999995
 30
0.0
 11
114.22499999999999
 21
99.698899999999995
 31
0.0
  0
LINE
  5
9A
  8
0
 62
     7
 10
119.22499999999999
 20
106.699
 30
0.0
 11
114.22499999999999
 21
106.699
 31
0.0
  0
LINE
  5
9B
  8
0
 62
     7
 10
114.22499999999999
 20
108.199
 30
0.0
 11
109.22499999999999
 21
108.199
 31
0.0
  0
LINE
  5
9C
  8
0
 62
     7
 10
114.22499999999999
 20
108.199
 30
0.0
 11
114.22499999999999
 21
98.198899999999995
 31
0.0
  0
LINE
  5
9D
  8
0
 62
     7
 10
124.22499999999999
 20
98.198899999999995
 30
0.0
 11
119.22499999999999
 21
98.198899999999995
 31
0.0
  0
LINE
  5
9E
  8
0
 62
     7
 10
124.22499999999999
 20
108.199
 30
0.0
 11
119.22499999999999
 21
108.199
 31
0.0
  0
LINE
  5
9F
  8
0
 62
     7
 10
119.22499999999999
 20
108.199
 30
0.0
 11
119.22499999999999
 21
98.198899999999995
 31
0.0
  0
LINE
  5
A0
  8
0
 62
     7
 10
124.22499999999999
 20
114.45
 30
0.0
 11
124.22499999999999
 21
91.9495
 31
0.0
  0
LINE
  5
A1
  8
0
 62
     7
 10
129.22499999999999
 20
114.45
 30
0.0
 11
124.22499999999999
 21
114.45
 31
0.0
  0
LINE
  5
A2
  8
0
 62
     7
 10
129.22499999999999
 20
91.9495
 30
0.0
 11
124.22499999999999
 21
91.9495
 31
0.0
  0
LINE
  5
A3
  8
0
 62
     7
 10
129.22499999999999
 20
114.45
 30
0.0
 11
129.22499999999999
 21
91.9495
 31
0.0
  0
LINE
  5
A4
  8
0
 62
     7
 10
99.225099999999998
 20
98.198899999999995
 30
0.0
 11
114.22499999999999
 21
98.198899999999995
 31
0.0
  0
LINE
  5
A5
  8
0
  6
AIGENLINE001
 62
     7
 10
104.22499999999999
 20
175.83699999999999
 30
0.0
 11
104.22499999999999
 21
103.199
 31
0.0
  0
LINE
  5
A6
  8
0
 62
     7
 10
99.225099999999998
 20
111.45
 30
0.0
 11
109.22499999999999
 21
111.45
 31
0.0
  0
LINE
  5
A7
  8
0
 62
     7
 10
99.225099999999998
 20
110.699
 30
0.0
 11
109.22499999999999
 21
110.699
 31
0.0
  0
LINE
  5
A8
  8
0
 62
     7
 10
99.225099999999998
 20
169.69999999999999
 30
0.0
 11
109.22499999999999
 21
169.69999999999999
 31
0.0
  0
LINE
  5
A9
  8
0
 62
     7
 10
109.22499999999999
 20
171.69999999999999
 30
0.0
 11
109.22499999999999
 21
108.199
 31
0.0
  0
LINE
  5
AA
  8
0
 62
     7
 10
99.225099999999998
 20
171.69999999999999
 30
0.0
 11
99.225099999999998
 21
98.198899999999995
 31
0.0
  0
LINE
  5
AB
  8
0
 62
     7
 10
99.225099999999998
 20
171.69999999999999
 30
0.0
 11
109.22499999999999
 21
171.69999999999999
 31
0.0
  0
LINE
  5
AC
  8
0
  6
AIGENLINE001
 62
     7
 10
55.484999999999999
 20
96.698899999999995
 30
0.0
 11
49.867699999999992
 21
96.698899999999995
 31
0.0
  0
ARC
  5
AD
  8
0
  6
AIGENLINE002
 62
     7
 10
52.643099999999997
 20
96.641381999999993
 30
0.0
 40
1.5586139999999991
 50
2.115971
 51
87.884018999999995
  0
ARC
  5
AE
  8
0
  6
AIGENLINE002
 62
     7
 10
52.757812999999999
 20
96.641763999999995
 30
0.0
 40
1.5582180000000001
 50
92.10243100000001
 51
177.89753899999999
  0
ARC
  5
AF
  8
0
  6
AIGENLINE002
 62
     7
 10
52.758215
 20
96.75649700000001
 30
0.0
 40
1.5586349999999991
 50
182.11668599999999
 51
267.88334300000002
  0
ARC
  5
B0
  8
0
  6
AIGENLINE002
 62
     7
 10
52.643481999999992
 20
96.756095000000002
 30
0.0
 40
1.558219
 50
272.1024680000001
 51
357.89754199999999
  0
LINE
  5
B1
  8
0
  6
AIGENLINE001
 62
     7
 10
55.484999999999999
 20
109.699
 30
0.0
 11
49.867699999999992
 21
109.699
 31
0.0
  0
ARC
  5
B2
  8
0
  6
AIGENLINE002
 62
     7
 10
52.643079999999998
 20
109.641856
 30
0.0
 40
1.5586349999999991
 50
2.1166839999999998
 51
87.883306000000005
  0
ARC
  5
B3
  8
0
  6
AIGENLINE002
 62
     7
 10
52.757812999999999
 20
109.642259
 30
0.0
 40
1.5582180000000001
 50
92.10243100000001
 51
177.89753899999999
  0
ARC
  5
B4
  8
0
  6
AIGENLINE002
 62
     7
 10
52.758194999999994
 20
109.75697099999999
 30
0.0
 40
1.5586139999999991
 50
182.115973
 51
267.88405599999999
  0
ARC
  5
B5
  8
0
  6
AIGENLINE002
 62
     7
 10
52.643481999999992
 20
109.75659
 30
0.0
 40
1.558219
 50
272.1024680000001
 51
357.89754199999999
  0
LINE
  5
B6
  8
0
  6
AIGENLINE001
 62
     7
 10
68.002799999999993
 20
103.199
 30
0.0
 11
37.592100000000002
 21
103.199
 31
0.0
  0
LINE
  5
B7
  8
0
  6
AIGENLINE001
 62
     7
 10
52.700600000000001
 20
175.83699999999999
 30
0.0
 11
52.700600000000001
 21
87.896699999999996
 31
0.0
  0
LINE
  5
B8
  8
0
 62
     7
 10
57.70089999999999
 20
111.45
 30
0.0
 11
47.700699999999991
 21
111.45
 31
0.0
  0
LINE
  5
B9
  8
0
 62
     7
 10
57.70089999999999
 20
110.699
 30
0.0
 11
47.700400000000002
 21
110.699
 31
0.0
  0
LINE
  5
BA
  8
0
 62
     7
 10
57.700499999999998
 20
169.69999999999999
 30
0.0
 11
47.700699999999991
 21
169.69999999999999
 31
0.0
  0
LINE
  5
BB
  8
0
 62
     7
 10
47.700699999999991
 20
171.69999999999999
 30
0.0
 11
47.700699999999991
 21
103.199
 31
0.0
  0
LINE
  5
BC
  8
0
 62
     7
 10
57.700499999999998
 20
171.69999999999999
 30
0.0
 11
57.700499999999998
 21
103.199
 31
0.0
  0
LINE
  5
BD
  8
0
 62
     7
 10
57.700499999999998
 20
171.69999999999999
 30
0.0
 11
47.700699999999991
 21
171.69999999999999
 31
0.0
  0
ARC
  5
BE
  8
0
 62
     7
 10
52.700819000000003
 20
103.199004
 30
0.0
 40
5.00007
 50
179.997996
 51
269.99804599999999
  0
ARC
  5
BF
  8
0
 62
     7
 10
52.700474999999997
 20
103.199005
 30
0.0
 40
5.0000720000000003
 50
270.00199400000002
 51
0.001964
  0
ARC
  5
C0
  8
0
 62
     7
 10
52.700817000000001
 20
103.199005
 30
0.0
 40
11.250342
 50
116.391228
 51
206.391278
  0
ARC
  5
C1
  8
0
 62
     7
 10
52.700665000000001
 20
103.199567
 30
0.0
 40
11.250456
 50
206.39418699999999
 51
296.38989900000001
  0
ARC
  5
C2
  8
0
 62
     7
 10
52.447277999999997
 20
103.356206
 30
0.0
 40
11.504472
 50
297.17362000000003
 51
359.21792299999998
  0
ARC
  5
C3
  8
0
 62
     7
 10
52.448363999999998
 20
103.042821
 30
0.0
 40
11.503377
 50
0.7787980000000001
 51
62.829658999999999
  0
LINE
  5
C4
  8
_________2
 62
     7
 10
205.30099999999999
 20
127.411
 30
0.0
 11
183.55099999999999
 21
127.411
 31
0.0
  0
LINE
  5
C5
  8
_________2
 62
     7
 10
100.3
 20
-4.0907299999999998
 30
0.0
 11
100.3
 21
-21.071000000000002
 31
0.0
  0
LINE
  5
C6
  8
_________2
 62
     7
 10
100.3
 20
275.93099999999998
 30
0.0
 11
100.3
 21
258.911
 31
0.0
  0
LINE
  5
C7
  8
_________2
 62
     7
 10
17.049700000000001
 20
127.411
 30
0.0
 11
-4.7003500000000003
 21
127.411
 31
0.0
  0
LINE
  5
C8
  8
_________2
 62
     7
 10
76.741399999999999
 20
29.805099999999999
 30
0.0
 11
74.554900000000004
 21
29.805099999999999
 31
0.0
  0
LINE
  5
C9
  8
_________2
 62
     7
 10
77.233999999999995
 20
29.805099999999999
 30
0.0
 11
76.981800000000007
 21
29.805099999999999
 31
0.0
  0
LINE
  5
CA
  8
_________2
 62
     7
 10
77.726500000000001
 20
29.805099999999999
 30
0.0
 11
80.651600000000002
 21
29.805099999999999
 31
0.0
  0
LINE
  5
CB
  8
_________2
 62
     7
 10
77.233999999999995
 20
29.805099999999999
 30
0.0
 11
77.485900000000001
 21
29.805099999999999
 31
0.0
  0
LINE
  5
CC
  8
_________2
 62
     7
 10
70.837500000000006
 20
29.805099999999999
 30
0.0
 11
68.650700000000001
 21
29.805099999999999
 31
0.0
  0
LINE
  5
CD
  8
_________2
 62
     7
 10
71.329899999999995
 20
29.805099999999999
 30
0.0
 11
71.0779
 21
29.805099999999999
 31
0.0
  0
LINE
  5
CE
  8
_________2
 62
     7
 10
71.329899999999995
 20
30.2974
 30
0.0
 11
71.329899999999995
 21
32.484400000000001
 31
0.0
  0
LINE
  5
CF
  8
_________2
 62
     7
 10
71.329899999999995
 20
29.805099999999999
 30
0.0
 11
71.329899999999995
 21
30.057300000000001
 31
0.0
  0
LINE
  5
D0
  8
_________2
 62
     7
 10
71.822599999999994
 20
29.805099999999999
 30
0.0
 11
74.009200000000007
 21
29.805099999999999
 31
0.0
  0
LINE
  5
D1
  8
_________2
 62
     7
 10
71.329899999999995
 20
29.805099999999999
 30
0.0
 11
71.582099999999997
 21
29.805099999999999
 31
0.0
  0
LINE
  5
D2
  8
_________2
 62
     7
 10
71.329899999999995
 20
29.312799999999999
 30
0.0
 11
71.329899999999995
 21
27.125800000000002
 31
0.0
  0
LINE
  5
D3
  8
_________2
 62
     7
 10
71.329899999999995
 20
29.805099999999999
 30
0.0
 11
71.329899999999995
 21
29.5532
 31
0.0
  0
LINE
  5
D4
  8
_________2
 62
     7
 10
75.040999999999997
 20
28.5855
 30
0.0
 11
80.218699999999984
 21
27.720400000000001
 31
0.0
  0
LINE
  5
D5
  8
_________2
 62
     7
 10
75.040999999999997
 20
31.024699999999999
 30
0.0
 11
80.218699999999984
 21
31.889700000000001
 31
0.0
  0
LINE
  5
D6
  8
_________2
 62
     7
 10
80.218699999999984
 20
27.720400000000001
 30
0.0
 11
80.218699999999984
 21
31.889700000000001
 31
0.0
  0
LINE
  5
D7
  8
_________2
 62
     7
 10
75.040999999999997
 20
28.5855
 30
0.0
 11
75.040999999999997
 21
31.024699999999999
 31
0.0
  0
ARC
  5
D8
  8
_________2
 62
     7
 10
71.330033
 20
29.805001000000001
 30
0.0
 40
1.219657999999999
 50
0.004056
 51
90.004025999999996
  0
ARC
  5
D9
  8
_________2
 62
     7
 10
71.329860999999994
 20
29.805001000000001
 30
0.0
 40
1.219657999999999
 50
89.995953999999998
 51
179.995924
  0
ARC
  5
DA
  8
_________2
 62
     7
 10
71.329860999999994
 20
29.805173
 30
0.0
 40
1.2196569999999991
 50
180.00405599999999
 51
270.00406600000002
  0
ARC
  5
DB
  8
_________2
 62
     7
 10
71.330033
 20
29.805174000000001
 30
0.0
 40
1.219657999999999
 50
269.9959740000001
 51
359.99594400000001
  0
ARC
  5
DC
  8
_________2
 62
     7
 10
71.329947000000004
 20
29.805087
 30
0.0
 40
2.0846409999999991
 50
0.00001
 51
89.999980000000008
  0
ARC
  5
DD
  8
_________2
 62
     7
 10
71.329860999999994
 20
29.805001000000001
 30
0.0
 40
2.0847269999999991
 50
89.997632999999993
 51
179.997603
  0
ARC
  5
DE
  8
_________2
 62
     7
 10
71.409793999999991
 20
29.885114000000002
 30
0.0
 40
2.1661389999999989
 50
182.11724599999999
 51
267.887518
  0
ARC
  5
DF
  8
_________2
 62
     7
 10
71.249943000000002
 20
29.885092
 30
0.0
 40
2.1661229999999989
 50
272.11667999999997
 51
357.88333
  0
TEXT
  5
E0
  8
_________2
 62
     7
 10
104.605
 20
1.6794899999999999
 30
0.0
 40
3.0923400000000001
  1
図番
 41
0.5
  0
LINE
  5
E1
  8
_________2
 62
     7
 10
103.55
 20
5.9087199999999989
 30
0.0
 11
183.55099999999999
 21
5.9087199999999989
 31
0.0
  0
TEXT
  5
E2
  8
_________2
 62
     7
 10
104.605
 20
11.679600000000001
 30
0.0
 40
3.0923400000000001
  1
品番
 41
0.5
  0
TEXT
  5
E3
  8
_________2
 62
     7
 10
104.605
 20
31.818100000000001
 30
0.0
 40
3.0923400000000001
  1
名称
 41
0.5
  0
TEXT
  5
E4
  8
_________2
 62
     7
 10
91.845658333333333
 20
26.821999999999999
 30
0.0
 40
3.6545800000000002
  1
mm
 41
0.5
 72
     1
 11
93.368399999999994
 21
26.821999999999999
 31
0.0
  0
TEXT
  5
E5
  8
_________2
 62
     7
 10
85.643399999999986
 20
31.818100000000001
 30
0.0
 40
3.0923400000000001
  1
単位
 41
0.5
  0
TEXT
  5
E6
  8
_________2
 62
     7
 10
85.643399999999986
 20
19.411200000000001
 30
0.0
 40
3.0923400000000001
  1
尺度
 41
0.5
  0
TEXT
  5
E7
  8
_________2
 62
     7
 10
90.549158666666656
 20
13.2182
 30
0.0
 40
3.6545800000000002
  1
1 ： 2
 41
0.5
 72
     1
 11
93.960099999999997
 21
13.2182
 31
0.0
  0
TEXT
  5
E8
  8
_________2
 62
     7
 10
136.33455000000001
 20
9.1078600000000005
 30
0.0
 40
3.9357000000000002
  1
ECS0806R
 41
0.5
 72
     1
 11
143.55000000000001
 21
9.1078600000000005
 31
0.0
  0
TEXT
  5
E9
  8
_________2
 62
     7
 10
136.33455000000001
 20
-0.892285
 30
0.0
 40
3.9357000000000002
  1
ECS0806R
 41
0.5
 72
     1
 11
143.55000000000001
 21
-0.892285
 31
0.0
  0
TEXT
  5
EA
  8
_________2
 62
     7
 10
109.179
 20
24.226099999999999
 30
0.0
 40
3.9357000000000002
  1
エポーザ スペアペーパーホルダー
 41
0.5
  0
TEXT
  5
EB
  8
_________2
 62
     7
 10
39.425500333333332
 20
13.603
 30
0.0
 40
3.6545800000000002
  1
早川
 41
0.5
 72
     1
 11
41.31369999999999
 21
13.603
 31
0.0
  0
TEXT
  5
EC
  8
_________2
 62
     7
 10
20.790390666666671
 20
13.603
 30
0.0
 40
3.6545800000000002
  1
石原
 41
0.5
 72
     1
 11
22.7395
 21
13.603
 31
0.0
  0
TEXT
  5
ED
  8
_________2
 62
     7
 10
67.785799999999995
 20
13.2182
 30
0.0
 40
3.6545800000000002
  1
16.01.16
 41
0.5
  0
TEXT
  5
EE
  8
_________2
 62
     7
 10
66.593299999999999
 20
19.411200000000001
 30
0.0
 40
3.0923400000000001
  1
日付
 41
0.5
  0
TEXT
  5
EF
  8
_________2
 62
     7
 10
29.639500000000002
 20
19.411200000000001
 30
0.0
 40
3.0923400000000001
  1
検図
 41
0.5
  0
TEXT
  5
F0
  8
_________2
 62
     7
 10
18.021599999999999
 20
5.2117699999999987
 30
0.0
 40
3.0923400000000001
  1
備考
 41
0.5
  0
TEXT
  5
F1
  8
_________2
 62
     7
 10
18.021599999999999
 20
19.411200000000001
 30
0.0
 40
3.0923400000000001
  1
製図
 41
0.5
  0
TEXT
  5
F2
  8
_________2
 62
     7
 10
23.788865333333341
 20
27.936800000000002
 30
0.0
 40
4.4979399999999989
  1
セラトレーディング株式会社
 41
0.5
 72
     1
 11
41.180900000000001
 21
27.936800000000002
 31
0.0
  0
LINE
  5
F3
  8
_________2
 62
     7
 10
183.55099999999999
 20
-4.0910799999999998
 30
0.0
 11
17.049700000000001
 21
-4.0910799999999998
 31
0.0
  0
LINE
  5
F4
  8
_________2
 62
     7
 10
17.049700000000001
 20
-4.0910799999999998
 30
0.0
 11
17.049700000000001
 21
258.911
 31
0.0
  0
LINE
  5
F5
  8
_________2
 62
     7
 10
17.049700000000001
 20
258.911
 30
0.0
 11
183.55099999999999
 21
258.911
 31
0.0
  0
LINE
  5
F6
  8
_________2
 62
     7
 10
183.55099999999999
 20
258.911
 30
0.0
 11
183.55099999999999
 21
-4.0910799999999998
 31
0.0
  0
LINE
  5
F7
  8
_________2
 62
     7
 10
65.549899999999994
 20
9.4092999999999982
 30
0.0
 11
65.549899999999994
 21
35.909100000000002
 31
0.0
  0
LINE
  5
F8
  8
_________2
 62
     7
 10
84.550099999999986
 20
9.4092999999999982
 30
0.0
 11
84.550099999999986
 21
35.909100000000002
 31
0.0
  0
LINE
  5
F9
  8
_________2
 62
     7
 10
103.55
 20
-4.0910799999999998
 30
0.0
 11
103.55
 21
35.909100000000002
 31
0.0
  0
LINE
  5
FA
  8
_________2
 62
     7
 10
28.549900000000001
 20
9.4092999999999982
 30
0.0
 11
28.549900000000001
 21
23.409199999999998
 31
0.0
  0
LINE
  5
FB
  8
_________2
 62
     7
 10
17.049700000000001
 20
9.4092999999999982
 30
0.0
 11
103.55
 21
9.4092999999999982
 31
0.0
  0
LINE
  5
FC
  8
_________2
 62
     7
 10
17.049700000000001
 20
23.409199999999998
 30
0.0
 11
103.55
 21
23.409199999999998
 31
0.0
  0
LINE
  5
FD
  8
_________2
 62
     7
 10
103.55
 20
15.908899999999999
 30
0.0
 11
183.55099999999999
 21
15.908899999999999
 31
0.0
  0
LINE
  5
FE
  8
_________2
 62
     7
 10
17.049700000000001
 20
35.909100000000002
 30
0.0
 11
183.55099999999999
 21
35.909100000000002
 31
0.0
  0
ENDSEC
  0
EOF
