  0
SECTION
  2
HEADER
  9
$ACADVER
  1
AC1009
  9
$INSBASE
 10
0.0
 20
0.0
 30
0.0
  9
$EXTMIN
 10
-4.7003500000000003
 20
-21.071000000000002
 30
0.0
  9
$EXTMAX
 10
205.30099999999999
 20
275.93099999999998
 30
0.0
  9
$LIMMIN
 10
0.0
 20
0.0
  9
$LIMMAX
 10
12.0
 20
9.0
  9
$ORTHOMODE
 70
     0
  9
$REGENMODE
 70
     1
  9
$FILLMODE
 70
     1
  9
$QTEXTMODE
 70
     0
  9
$MIRRTEXT
 70
     1
  9
$DRAGMODE
 70
     2
  9
$LTSCALE
 40
1.0
  9
$OSMODE
 70
    37
  9
$ATTMODE
 70
     1
  9
$TEXTSIZE
 40
0.0
  9
$TRACEWID
 40
0.05
  9
$TEXTSTYLE
  7
STANDARD
  9
$CLAYER
  8
0
  9
$CELTYPE
  6
CONTINUOUS
  9
$CECOLOR
 62
   256
  9
$DIMSCALE
 40
1.0
  9
$DIMASZ
 40
0.18
  9
$DIMEXO
 40
0.0625
  9
$DIMDLI
 40
0.38
  9
$DIMRND
 40
0.0
  9
$DIMDLE
 40
0.0
  9
$DIMEXE
 40
0.18
  9
$DIMTP
 40
0.0
  9
$DIMTM
 40
0.0
  9
$DIMTXT
 40
0.18
  9
$DIMCEN
 40
0.09
  9
$DIMTSZ
 40
0.0
  9
$DIMTOL
 70
     0
  9
$DIMLIM
 70
     0
  9
$DIMTIH
 70
     1
  9
$DIMTOH
 70
     1
  9
$DIMSE1
 70
     0
  9
$DIMSE2
 70
     0
  9
$DIMTAD
 70
     0
  9
$DIMZIN
 70
     0
  9
$DIMBLK
  1

  9
$DIMASO
 70
     1
  9
$DIMSHO
 70
     1
  9
$DIMPOST
  1

  9
$DIMAPOST
  1

  9
$DIMALT
 70
     0
  9
$DIMALTD
 70
     2
  9
$DIMALTF
 40
25.399999999999999
  9
$DIMLFAC
 40
1.0
  9
$DIMTOFL
 70
     0
  9
$DIMTVP
 40
0.0
  9
$DIMTIX
 70
     0
  9
$DIMSOXD
 70
     0
  9
$DIMSAH
 70
     0
  9
$DIMBLK1
  1

  9
$DIMBLK2
  1

  9
$DIMSTYLE
  2
STANDARD
  9
$DIMCLRD
 70
     0
  9
$DIMCLRE
 70
     0
  9
$DIMCLRT
 70
     0
  9
$DIMTFAC
 40
1.0
  9
$DIMGAP
 40
0.09
  9
$LUNITS
 70
     2
  9
$LUPREC
 70
     4
  9
$SKETCHINC
 40
0.1
  9
$FILLETRAD
 40
0.0
  9
$AUNITS
 70
     0
  9
$AUPREC
 70
     0
  9
$MENU
  1
.
  9
$ELEVATION
 40
0.0
  9
$PELEVATION
 40
0.0
  9
$THICKNESS
 40
0.0
  9
$LIMCHECK
 70
     0
  9
$BLIPMODE
 70
     0
  9
$CHAMFERA
 40
0.0
  9
$CHAMFERB
 40
0.0
  9
$SKPOLY
 70
     0
  9
$TDCREATE
 40
2444972.375
  9
$TDUPDATE
 40
2459262.2100166199
  9
$TDINDWG
 40
0.0000375579
  9
$TDUSRTIMER
 40
0.0000375579
  9
$USRTIMER
 70
     1
  9
$ANGBASE
 50
0.0
  9
$ANGDIR
 70
     0
  9
$PDMODE
 70
     0
  9
$PDSIZE
 40
0.0
  9
$PLINEWID
 40
0.0
  9
$COORDS
 70
     1
  9
$SPLFRAME
 70
     0
  9
$SPLINETYPE
 70
     6
  9
$SPLINESEGS
 70
     8
  9
$ATTDIA
 70
     1
  9
$ATTREQ
 70
     1
  9
$HANDLING
 70
     1
  9
$HANDSEED
  5
222
  9
$SURFTAB1
 70
     6
  9
$SURFTAB2
 70
     6
  9
$SURFTYPE
 70
     6
  9
$SURFU
 70
     6
  9
$SURFV
 70
     6
  9
$UCSNAME
  2

  9
$UCSORG
 10
0.0
 20
0.0
 30
0.0
  9
$UCSXDIR
 10
1.0
 20
0.0
 30
0.0
  9
$UCSYDIR
 10
0.0
 20
1.0
 30
0.0
  9
$PUCSNAME
  2

  9
$PUCSORG
 10
0.0
 20
0.0
 30
0.0
  9
$PUCSXDIR
 10
1.0
 20
0.0
 30
0.0
  9
$PUCSYDIR
 10
0.0
 20
1.0
 30
0.0
  9
$USERI1
 70
     0
  9
$USERI2
 70
     0
  9
$USERI3
 70
     0
  9
$USERI4
 70
     0
  9
$USERI5
 70
     0
  9
$USERR1
 40
0.0
  9
$USERR2
 40
0.0
  9
$USERR3
 40
0.0
  9
$USERR4
 40
0.0
  9
$USERR5
 40
0.0
  9
$WORLDVIEW
 70
     1
  9
$SHADEDGE
 70
     3
  9
$SHADEDIF
 70
    70
  9
$TILEMODE
 70
     1
  9
$MAXACTVP
 70
    48
  9
$PLIMCHECK
 70
     0
  9
$PEXTMIN
 10
1.0000000000000000E+020
 20
1.0000000000000000E+020
 30
1.0000000000000000E+020
  9
$PEXTMAX
 10
-1.0000000000000000E+020
 20
-1.0000000000000000E+020
 30
-1.0000000000000000E+020
  9
$PLIMMIN
 10
0.0
 20
0.0
  9
$PLIMMAX
 10
12.0
 20
9.0
  9
$UNITMODE
 70
     0
  9
$VISRETAIN
 70
     1
  9
$PLINEGEN
 70
     0
  9
$PSLTSCALE
 70
     1
  0
ENDSEC
  0
SECTION
  2
TABLES
  0
TABLE
  2
VPORT
 70
     1
  0
VPORT
  2
*ACTIVE
 70
     0
 10
0.0
 20
0.0
 11
1.0
 21
1.0
 12
154.64615753090959
 22
127.42999999999989
 13
0.0
 23
0.0
 14
1.0
 24
1.0
 15
0.0
 25
0.0
 16
0.0
 26
0.0
 36
1.0
 17
0.0
 27
0.0
 37
0.0
 40
257.19517121009682
 41
2.2294736842105261
 42
50.0
 43
0.0
 44
0.0
 50
0.0
 51
0.0
 71
     0
 72
   100
 73
     1
 74
     1
 75
     0
 76
     0
 77
     0
 78
     0
  0
ENDTAB
  0
TABLE
  2
LTYPE
 70
     3
  0
LTYPE
  2
CONTINUOUS
 70
     0
  3
Solid line
 72
    65
 73
     0
 40
0.0
  0
LTYPE
  2
AIGENLINE001
 70
     0
  3
generate AI->DXF Converter
 72
    65
 73
     4
 40
5.8561449999999988
 49
3.5278
 49
-0.776115
 49
0.776115
 49
-0.776115
  0
LTYPE
  2
AIGENLINE002
 70
     0
  3
generate AI->DXF Converter
 72
    65
 73
     2
 40
1.5522299999999991
 49
0.776115
 49
-0.776115
  0
ENDTAB
  0
TABLE
  2
LAYER
 70
     4
  0
LAYER
  2
0
 70
     0
 62
     7
  6
CONTINUOUS
  0
LAYER
  2
____
 70
     0
 62
     7
  6
CONTINUOUS
  0
LAYER
  2
_________1
 70
     0
 62
     7
  6
CONTINUOUS
  0
LAYER
  2
_________2
 70
     0
 62
     7
  6
CONTINUOUS
  0
ENDTAB
  0
TABLE
  2
STYLE
 70
     1
  0
STYLE
  2
STANDARD
 70
     0
 40
0.0
 41
0.0
 50
0.0
 71
     0
 42
0.0
  3
TXT
  4
EXTFONT.SHX
  0
ENDTAB
  0
TABLE
  2
VIEW
 70
     0
  0
ENDTAB
  0
TABLE
  2
UCS
 70
     0
  0
ENDTAB
  0
TABLE
  2
APPID
 70
     3
  0
APPID
  2
ACAD
 70
     0
  0
APPID
  2
ACAD_NAV_VCDISPLAY
 70
     0
  0
APPID
  2
ACAD_MLEADERVER
 70
     0
  0
ENDTAB
  0
TABLE
  2
DIMSTYLE
 70
     1
  0
DIMSTYLE
  2
STANDARD
 70
     0
  3

  4

  5

  6

  7

 40
1.0
 41
0.18
 42
0.0625
 43
0.38
 44
0.18
 45
0.0
 46
0.0
 47
0.0
 48
0.0
140
0.18
141
0.09
142
0.0
143
25.399999999999999
144
1.0
145
0.0
146
1.0
147
0.09
 71
     0
 72
     0
 73
     1
 74
     1
 75
     0
 76
     0
 77
     0
 78
     0
170
     0
171
     2
172
     0
173
     0
174
     0
175
     0
176
     0
177
     0
178
     0
  0
ENDTAB
  0
ENDSEC
  0
SECTION
  2
BLOCKS
  0
BLOCK
  8
0
  2
$MODEL_SPACE
 70
     0
 10
0.0
 20
0.0
 30
0.0
  3
$MODEL_SPACE
  1

  0
ENDBLK
  5
1A
  8
0
  0
BLOCK
 67
     1
  8
0
  2
$PAPER_SPACE
 70
     0
 10
0.0
 20
0.0
 30
0.0
  3
$PAPER_SPACE
  1

  0
ENDBLK
  5
17
 67
     1
  8
0
  0
BLOCK
  8
_________1
  2
AIGNBL02010002
 70
     0
 10
0.0
 20
0.0
 30
0.0
  3
AIGNBL02010002
  1

  0
LINE
  5
27
  8
_________1
 62
     7
 10
68.586600000000004
 20
144.678
 30
0.0
 11
70.797200000000004
 21
145.27099999999999
 31
0.0
  0
LINE
  5
28
  8
_________1
 62
     7
 10
70.797200000000004
 20
145.27099999999999
 30
0.0
 11
68.586600000000004
 21
145.863
 31
0.0
  0
LINE
  5
29
  8
_________1
 62
     7
 10
68.586600000000004
 20
145.863
 30
0.0
 11
68.586600000000004
 21
144.678
 31
0.0
  0
LINE
  5
2A
  8
_________1
 62
     7
 10
38.673999999999999
 20
145.8479999999999
 30
0.0
 11
36.4636
 21
145.256
 31
0.0
  0
LINE
  5
2B
  8
_________1
 62
     7
 10
36.4636
 20
145.256
 30
0.0
 11
38.673999999999999
 21
144.66399999999999
 31
0.0
  0
LINE
  5
2C
  8
_________1
 62
     7
 10
38.673999999999999
 20
144.66399999999999
 30
0.0
 11
38.673999999999999
 21
145.8479999999999
 31
0.0
  0
LINE
  5
2D
  8
_________1
 62
     7
 10
70.797300000000007
 20
145.26300000000001
 30
0.0
 11
36.4636
 21
145.26300000000001
 31
0.0
  0
ENDBLK
  5
2E
  8
_________1
  0
BLOCK
  8
_________1
  2
AIGNBL02010003
 70
     0
 10
0.0
 20
0.0
 30
0.0
  3
AIGNBL02010003
  1

  0
LINE
  5
31
  8
_________1
 62
     7
 10
38.674199999999999
 20
86.433200000000014
 30
0.0
 11
36.463799999999999
 21
85.841000000000008
 31
0.0
  0
LINE
  5
32
  8
_________1
 62
     7
 10
36.463799999999999
 20
85.841000000000008
 30
0.0
 11
38.674199999999999
 21
85.248699999999985
 31
0.0
  0
LINE
  5
33
  8
_________1
 62
     7
 10
38.674199999999999
 20
85.248699999999985
 30
0.0
 11
38.674199999999999
 21
86.433200000000014
 31
0.0
  0
LINE
  5
34
  8
_________1
 62
     7
 10
102.587
 20
85.263199999999998
 30
0.0
 11
104.797
 21
85.855399999999989
 31
0.0
  0
LINE
  5
35
  8
_________1
 62
     7
 10
104.797
 20
85.855399999999989
 30
0.0
 11
102.587
 21
86.447599999999994
 31
0.0
  0
LINE
  5
36
  8
_________1
 62
     7
 10
102.587
 20
86.447599999999994
 30
0.0
 11
102.587
 21
85.263199999999998
 31
0.0
  0
LINE
  5
37
  8
_________1
 62
     7
 10
36.463799999999999
 20
85.848200000000006
 30
0.0
 11
104.797
 21
85.848200000000006
 31
0.0
  0
ENDBLK
  5
38
  8
_________1
  0
BLOCK
  8
_________1
  2
AIGNBL02010004
 70
     0
 10
0.0
 20
0.0
 30
0.0
  3
AIGNBL02010004
  1

  0
LINE
  5
3B
  8
_________1
 62
     7
 10
72.919700000000006
 20
133.833
 30
0.0
 11
75.130300000000005
 21
134.42500000000001
 31
0.0
  0
LINE
  5
3C
  8
_________1
 62
     7
 10
75.130300000000005
 20
134.42500000000001
 30
0.0
 11
72.919700000000006
 21
135.017
 31
0.0
  0
LINE
  5
3D
  8
_________1
 62
     7
 10
72.919700000000006
 20
135.017
 30
0.0
 11
72.919700000000006
 21
133.833
 31
0.0
  0
LINE
  5
3E
  8
_________1
 62
     7
 10
68.674300000000002
 20
135.00299999999999
 30
0.0
 11
66.463899999999995
 21
134.411
 31
0.0
  0
LINE
  5
3F
  8
_________1
 62
     7
 10
66.463899999999995
 20
134.411
 30
0.0
 11
68.674300000000002
 21
133.81800000000001
 31
0.0
  0
LINE
  5
40
  8
_________1
 62
     7
 10
68.674300000000002
 20
133.81800000000001
 30
0.0
 11
68.674300000000002
 21
135.00299999999999
 31
0.0
  0
LINE
  5
41
  8
_________1
 62
     7
 10
75.130399999999995
 20
134.41800000000001
 30
0.0
 11
66.463899999999995
 21
134.41800000000001
 31
0.0
  0
ENDBLK
  5
42
  8
_________1
  0
BLOCK
  8
_________1
  2
AIGNBL02010005
 70
     0
 10
0.0
 20
0.0
 30
0.0
  3
AIGNBL02010005
  1

  0
LINE
  5
45
  8
_________1
 62
     7
 10
117.381
 20
112.646
 30
0.0
 11
119.669
 21
112.604
 31
0.0
  0
LINE
  5
46
  8
_________1
 62
     7
 10
119.669
 20
112.604
 30
0.0
 11
117.709
 21
113.785
 31
0.0
  0
LINE
  5
47
  8
_________1
 62
     7
 10
117.709
 20
113.785
 30
0.0
 11
117.381
 21
112.646
 31
0.0
  0
LINE
  5
48
  8
_________1
 62
     7
 10
124.52
 20
111.824
 30
0.0
 11
122.232
 21
111.867
 31
0.0
  0
LINE
  5
49
  8
_________1
 62
     7
 10
122.232
 20
111.867
 30
0.0
 11
124.193
 21
110.68600000000001
 31
0.0
  0
LINE
  5
4A
  8
_________1
 62
     7
 10
124.193
 20
110.68600000000001
 30
0.0
 11
124.52
 21
111.824
 31
0.0
  0
LINE
  5
4B
  8
_________1
 62
     7
 10
128.63200000000001
 20
110.036
 30
0.0
 11
116.744
 21
113.446
 31
0.0
  0
ENDBLK
  5
4C
  8
_________1
  0
BLOCK
  8
_________1
  2
AIGNBL02010006
 70
     0
 10
0.0
 20
0.0
 30
0.0
  3
AIGNBL02010006
  1

  0
LINE
  5
4F
  8
_________1
 62
     7
 10
173.30500000000001
 20
99.471599999999995
 30
0.0
 11
173.89699999999999
 21
97.260800000000003
 31
0.0
  0
LINE
  5
50
  8
_________1
 62
     7
 10
173.89699999999999
 20
97.260800000000003
 30
0.0
 11
174.489
 21
99.471599999999995
 31
0.0
  0
LINE
  5
51
  8
_________1
 62
     7
 10
174.489
 20
99.471599999999995
 30
0.0
 11
173.30500000000001
 21
99.471599999999995
 31
0.0
  0
LINE
  5
52
  8
_________1
 62
     7
 10
174.47499999999999
 20
127.05
 30
0.0
 11
173.88200000000001
 21
129.261
 31
0.0
  0
LINE
  5
53
  8
_________1
 62
     7
 10
173.88200000000001
 20
129.261
 30
0.0
 11
173.28999999999999
 21
127.05
 31
0.0
  0
LINE
  5
54
  8
_________1
 62
     7
 10
173.28999999999999
 20
127.05
 30
0.0
 11
174.47499999999999
 21
127.05
 31
0.0
  0
LINE
  5
55
  8
_________1
 62
     7
 10
173.88999999999999
 20
97.260800000000003
 30
0.0
 11
173.88999999999999
 21
129.261
 31
0.0
  0
ENDBLK
  5
56
  8
_________1
  0
BLOCK
  8
_________1
  2
AIGNBL02010007
 70
     0
 10
0.0
 20
0.0
 30
0.0
  3
AIGNBL02010007
  1

  0
LINE
  5
59
  8
_________1
 62
     7
 10
163.721
 20
116.47199999999999
 30
0.0
 11
164.31299999999999
 21
114.261
 31
0.0
  0
LINE
  5
5A
  8
_________1
 62
     7
 10
164.31299999999999
 20
114.261
 30
0.0
 11
164.905
 21
116.47199999999999
 31
0.0
  0
LINE
  5
5B
  8
_________1
 62
     7
 10
164.905
 20
116.47199999999999
 30
0.0
 11
163.721
 21
116.47199999999999
 31
0.0
  0
LINE
  5
5C
  8
_________1
 62
     7
 10
164.89099999999999
 20
127.05
 30
0.0
 11
164.29900000000001
 21
129.261
 31
0.0
  0
LINE
  5
5D
  8
_________1
 62
     7
 10
164.29900000000001
 20
129.261
 30
0.0
 11
163.70599999999999
 21
127.05
 31
0.0
  0
LINE
  5
5E
  8
_________1
 62
     7
 10
163.70599999999999
 20
127.05
 30
0.0
 11
164.89099999999999
 21
127.05
 31
0.0
  0
LINE
  5
5F
  8
_________1
 62
     7
 10
164.30600000000001
 20
114.261
 30
0.0
 11
164.30600000000001
 21
129.261
 31
0.0
  0
ENDBLK
  5
60
  8
_________1
  0
BLOCK
  8
_________1
  2
AIGNBL02010008
 70
     0
 10
0.0
 20
0.0
 30
0.0
  3
AIGNBL02010008
  1

  0
LINE
  5
63
  8
_________1
 62
     7
 10
138.148
 20
135.26599999999999
 30
0.0
 11
140.35900000000001
 21
135.858
 31
0.0
  0
LINE
  5
64
  8
_________1
 62
     7
 10
140.35900000000001
 20
135.858
 30
0.0
 11
138.148
 21
136.44999999999999
 31
0.0
  0
LINE
  5
65
  8
_________1
 62
     7
 10
138.148
 20
136.44999999999999
 30
0.0
 11
138.148
 21
135.26599999999999
 31
0.0
  0
LINE
  5
66
  8
_________1
 62
     7
 10
122.569
 20
136.43600000000001
 30
0.0
 11
120.358
 21
135.84299999999999
 31
0.0
  0
LINE
  5
67
  8
_________1
 62
     7
 10
120.358
 20
135.84299999999999
 30
0.0
 11
122.569
 21
135.251
 31
0.0
  0
LINE
  5
68
  8
_________1
 62
     7
 10
122.569
 20
135.251
 30
0.0
 11
122.569
 21
136.43600000000001
 31
0.0
  0
LINE
  5
69
  8
_________1
 62
     7
 10
140.35900000000001
 20
135.851
 30
0.0
 11
120.358
 21
135.851
 31
0.0
  0
ENDBLK
  5
6A
  8
_________1
  0
BLOCK
  8
_________2
  2
AIGNBL03010002
 70
     0
 10
0.0
 20
0.0
 30
0.0
  3
AIGNBL03010002
  1

  0
LINE
  5
6D
  8
_________2
 62
     7
 10
76.741399999999999
 20
29.805099999999999
 30
0.0
 11
74.554900000000004
 21
29.805099999999999
 31
0.0
  0
LINE
  5
6E
  8
_________2
 62
     7
 10
77.233999999999995
 20
29.805099999999999
 30
0.0
 11
76.981800000000007
 21
29.805099999999999
 31
0.0
  0
LINE
  5
6F
  8
_________2
 62
     7
 10
77.726500000000001
 20
29.805099999999999
 30
0.0
 11
80.651600000000002
 21
29.805099999999999
 31
0.0
  0
LINE
  5
70
  8
_________2
 62
     7
 10
77.233999999999995
 20
29.805099999999999
 30
0.0
 11
77.485900000000001
 21
29.805099999999999
 31
0.0
  0
LINE
  5
71
  8
_________2
 62
     7
 10
70.837500000000006
 20
29.805099999999999
 30
0.0
 11
68.650700000000001
 21
29.805099999999999
 31
0.0
  0
LINE
  5
72
  8
_________2
 62
     7
 10
71.329899999999995
 20
29.805099999999999
 30
0.0
 11
71.0779
 21
29.805099999999999
 31
0.0
  0
LINE
  5
73
  8
_________2
 62
     7
 10
71.329899999999995
 20
30.2974
 30
0.0
 11
71.329899999999995
 21
32.484400000000001
 31
0.0
  0
LINE
  5
74
  8
_________2
 62
     7
 10
71.329899999999995
 20
29.805099999999999
 30
0.0
 11
71.329899999999995
 21
30.057300000000001
 31
0.0
  0
LINE
  5
75
  8
_________2
 62
     7
 10
71.822599999999994
 20
29.805099999999999
 30
0.0
 11
74.009200000000007
 21
29.805099999999999
 31
0.0
  0
LINE
  5
76
  8
_________2
 62
     7
 10
71.329899999999995
 20
29.805099999999999
 30
0.0
 11
71.582099999999997
 21
29.805099999999999
 31
0.0
  0
LINE
  5
77
  8
_________2
 62
     7
 10
71.329899999999995
 20
29.312799999999999
 30
0.0
 11
71.329899999999995
 21
27.125800000000002
 31
0.0
  0
LINE
  5
78
  8
_________2
 62
     7
 10
71.329899999999995
 20
29.805099999999999
 30
0.0
 11
71.329899999999995
 21
29.5532
 31
0.0
  0
LINE
  5
79
  8
_________2
 62
     7
 10
75.040999999999997
 20
28.5855
 30
0.0
 11
80.218699999999984
 21
27.720400000000001
 31
0.0
  0
LINE
  5
7A
  8
_________2
 62
     7
 10
75.040999999999997
 20
31.024699999999999
 30
0.0
 11
80.218699999999984
 21
31.889700000000001
 31
0.0
  0
LINE
  5
7B
  8
_________2
 62
     7
 10
80.218699999999984
 20
27.720400000000001
 30
0.0
 11
80.218699999999984
 21
31.889700000000001
 31
0.0
  0
LINE
  5
7C
  8
_________2
 62
     7
 10
75.040999999999997
 20
28.5855
 30
0.0
 11
75.040999999999997
 21
31.024699999999999
 31
0.0
  0
ARC
  5
7D
  8
_________2
 62
     7
 10
71.330033
 20
29.805001000000001
 30
0.0
 40
1.219657999999999
 50
0.004056
 51
90.004025999999996
  0
ARC
  5
7E
  8
_________2
 62
     7
 10
71.329860999999994
 20
29.805001000000001
 30
0.0
 40
1.219657999999999
 50
89.995953999999998
 51
179.995924
  0
ARC
  5
7F
  8
_________2
 62
     7
 10
71.329860999999994
 20
29.805173
 30
0.0
 40
1.2196569999999991
 50
180.00405599999999
 51
270.00406600000002
  0
ARC
  5
80
  8
_________2
 62
     7
 10
71.330033
 20
29.805174000000001
 30
0.0
 40
1.219657999999999
 50
269.9959740000001
 51
359.99594400000001
  0
ARC
  5
81
  8
_________2
 62
     7
 10
71.329947000000004
 20
29.805087
 30
0.0
 40
2.0846409999999991
 50
0.00001
 51
89.999980000000008
  0
ARC
  5
82
  8
_________2
 62
     7
 10
71.329860999999994
 20
29.805001000000001
 30
0.0
 40
2.0847269999999991
 50
89.997632999999993
 51
179.997603
  0
ARC
  5
83
  8
_________2
 62
     7
 10
71.409793999999991
 20
29.885114000000002
 30
0.0
 40
2.1661389999999989
 50
182.11724599999999
 51
267.887518
  0
ARC
  5
84
  8
_________2
 62
     7
 10
71.249943000000002
 20
29.885092
 30
0.0
 40
2.1661229999999989
 50
272.11667999999997
 51
357.88333
  0
ENDBLK
  5
85
  8
_________2
  0
ENDSEC
  0
SECTION
  2
ENTITIES
  0
TEXT
  5
86
  8
____
 62
     7
 10
22.280100000000001
 20
39.5396
 30
0.0
 40
3.6545800000000002
  1
※壁取付部には厚さ30mm以上の補強木をいれてください。
 41
0.5
  0
TEXT
  5
87
  8
____
 62
     7
 10
123.41
 20
148.90100000000001
 30
0.0
 40
3.0923400000000001
  1
（樹脂プラグ付）
 41
0.5
  0
TEXT
  5
88
  8
____
 62
     7
 10
123.41
 20
153.773
 30
0.0
 40
3.0923400000000001
  1
%%c3.5\U+00D750 SUS十字穴付木ネジ
 41
0.5
  0
TEXT
  5
89
  8
____
 62
     7
 10
173.18899999999999
 20
111.677525
 30
0.0
 40
3.0923400000000001
  1
96
 50
90.0
 41
0.5
 72
     1
 11
173.18899999999999
 21
112.96599999999999
 31
0.0
  0
TEXT
  5
8A
  8
____
 62
     7
 10
163.60599999999999
 20
119.49044000000001
 30
0.0
 40
3.0923400000000001
  1
%%c45
 50
90.0
 41
0.5
 72
     1
 11
163.60599999999999
 21
121.55200000000001
 31
0.0
  0
TEXT
  5
8B
  8
____
 62
     7
 10
68.237387500000011
 20
86.797999999999973
 30
0.0
 40
3.0923400000000001
  1
205
 41
0.5
 72
     1
 11
70.170100000000005
 21
86.797999999999973
 31
0.0
  0
TEXT
  5
8C
  8
____
 62
     7
 10
126.3707463208025
 20
111.3443295302739
 30
0.0
 40
3.0923400000000001
  1
%%c8
 50
343.93000000000001
 41
0.5
 72
     2
 11
128.84700000000001
 21
110.631
 31
0.0
  0
TEXT
  5
8D
  8
____
 62
     7
 10
129.1013725
 20
136.55099999999999
 30
0.0
 40
3.0923400000000001
  1
60
 41
0.5
 72
     1
 11
130.261
 21
136.55099999999999
 31
0.0
  0
TEXT
  5
8E
  8
____
 62
     7
 10
51.263682499999987
 20
146.21600000000001
 30
0.0
 40
3.0923400000000001
  1
103
 41
0.5
 72
     1
 11
52.938699999999997
 21
146.21600000000001
 31
0.0
  0
TEXT
  5
8F
  8
____
 62
     7
 10
69.426124999999999
 20
135.43700000000001
 30
0.0
 40
3.0923400000000001
  1
26
 41
0.5
 72
     1
 11
70.714600000000004
 21
135.43700000000001
 31
0.0
  0
ARC
  5
90
  8
_________1
 62
     7
 10
123.69211199999999
 20
121.76112500000001
 30
0.0
 40
3.3334959999999989
 50
270.00002000000001
 51
359.99999000000003
  0
ARC
  5
91
  8
_________1
 62
     7
 10
123.692284
 20
121.76095100000001
 30
0.0
 40
3.333323
 50
179.99700899999999
 51
269.99705899999998
  0
ARC
  5
92
  8
_________1
 62
     7
 10
123.69211300000001
 20
121.761123
 30
0.0
 40
3.3331519999999988
 50
90.0
 51
179.99996999999999
  0
ARC
  5
93
  8
_________1
 62
     7
 10
123.692284
 20
121.76095100000001
 30
0.0
 40
3.3333239999999988
 50
0.002971
 51
90.002941000000007
  0
LINE
  5
94
  8
_________1
  6
AIGENLINE001
 62
     7
 10
70.797200000000004
 20
181.85400000000001
 30
0.0
 11
70.797200000000004
 21
205.01300000000001
 31
0.0
  0
LINE
  5
95
  8
_________1
  6
AIGENLINE001
 62
     7
 10
66.497100000000003
 20
201.833
 30
0.0
 11
66.497100000000003
 21
220.04499999999999
 31
0.0
  0
LINE
  5
96
  8
_________1
 62
     7
 10
67.415599999999984
 20
210.55600000000001
 30
0.0
 11
65.588700000000003
 21
209.417
 31
0.0
  0
LINE
  5
97
  8
_________1
 62
     7
 10
67.415599999999984
 20
211.66499999999999
 30
0.0
 11
65.588700000000003
 21
210.52699999999999
 31
0.0
  0
LINE
  5
98
  8
_________1
 62
     7
 10
67.415599999999984
 20
212.77500000000001
 30
0.0
 11
65.588700000000003
 21
211.636
 31
0.0
  0
LINE
  5
99
  8
_________1
 62
     7
 10
67.415599999999984
 20
213.88399999999999
 30
0.0
 11
65.588700000000003
 21
212.74600000000001
 31
0.0
  0
LINE
  5
9A
  8
_________1
 62
     7
 10
67.415599999999984
 20
214.994
 30
0.0
 11
65.588700000000003
 21
213.85499999999999
 31
0.0
  0
LINE
  5
9B
  8
_________1
 62
     7
 10
67.415599999999984
 20
216.10300000000001
 30
0.0
 11
65.588700000000003
 21
214.965
 31
0.0
  0
LINE
  5
9C
  8
_________1
 62
     7
 10
67.415599999999984
 20
217.21299999999999
 30
0.0
 11
65.588700000000003
 21
216.07400000000001
 31
0.0
  0
LINE
  5
9D
  8
_________1
 62
     7
 10
67.415599999999984
 20
218.322
 30
0.0
 11
65.588700000000003
 21
217.184
 31
0.0
  0
LINE
  5
9E
  8
_________1
 62
     7
 10
67.080399999999997
 20
218.154
 30
0.0
 11
66.497100000000003
 21
219.26400000000001
 31
0.0
  0
LINE
  5
9F
  8
_________1
 62
     7
 10
66.497100000000003
 20
219.26400000000001
 30
0.0
 11
65.913899999999998
 21
218.154
 31
0.0
  0
LINE
  5
A0
  8
_________1
 62
     7
 10
67.080399999999997
 20
203.26400000000001
 30
0.0
 11
67.080399999999997
 21
218.154
 31
0.0
  0
LINE
  5
A1
  8
_________1
 62
     7
 10
65.913899999999998
 20
203.26400000000001
 30
0.0
 11
65.913899999999998
 21
218.154
 31
0.0
  0
LINE
  5
A2
  8
_________1
  6
AIGENLINE001
 62
     7
 10
75.097200000000001
 20
201.833
 30
0.0
 11
75.097200000000001
 21
220.04499999999999
 31
0.0
  0
LINE
  5
A3
  8
_________1
 62
     7
 10
68.263999999999996
 20
193.26300000000001
 30
0.0
 11
68.263999999999996
 21
196.59700000000001
 31
0.0
  0
LINE
  5
A4
  8
_________1
 62
     7
 10
73.330699999999993
 20
193.26300000000001
 30
0.0
 11
73.330699999999993
 21
196.59700000000001
 31
0.0
  0
LINE
  5
A5
  8
_________1
 62
     7
 10
74.130700000000004
 20
196.59700000000001
 30
0.0
 11
74.130700000000004
 21
199.93000000000001
 31
0.0
  0
LINE
  5
A6
  8
_________1
 62
     7
 10
74.130700000000004
 20
189.93000000000001
 30
0.0
 11
74.130700000000004
 21
193.26400000000001
 31
0.0
  0
LINE
  5
A7
  8
_________1
 62
     7
 10
67.463999999999999
 20
193.26400000000001
 30
0.0
 11
67.463999999999999
 21
189.93000000000001
 31
0.0
  0
LINE
  5
A8
  8
_________1
 62
     7
 10
67.463999999999999
 20
199.93000000000001
 30
0.0
 11
67.463999999999999
 21
196.59700000000001
 31
0.0
  0
LINE
  5
A9
  8
_________1
 62
     7
 10
78.297200000000004
 20
203.26400000000001
 30
0.0
 11
78.297200000000004
 21
199.93000000000001
 31
0.0
  0
LINE
  5
AA
  8
_________1
 62
     7
 10
63.2971
 20
203.26400000000001
 30
0.0
 11
63.2971
 21
199.93000000000001
 31
0.0
  0
LINE
  5
AB
  8
_________1
 62
     7
 10
74.130700000000004
 20
189.93000000000001
 30
0.0
 11
78.297200000000004
 21
189.93000000000001
 31
0.0
  0
LINE
  5
AC
  8
_________1
 62
     7
 10
74.130700000000004
 20
193.26400000000001
 30
0.0
 11
67.463999999999999
 21
193.26400000000001
 31
0.0
  0
LINE
  5
AD
  8
_________1
 62
     7
 10
74.130700000000004
 20
196.59700000000001
 30
0.0
 11
67.463999999999999
 21
196.59700000000001
 31
0.0
  0
LINE
  5
AE
  8
_________1
 62
     7
 10
78.297200000000004
 20
199.93000000000001
 30
0.0
 11
63.2971
 21
199.93000000000001
 31
0.0
  0
LINE
  5
AF
  8
_________1
 62
     7
 10
75.680400000000006
 20
209.26400000000001
 30
0.0
 11
74.513900000000007
 21
209.26400000000001
 31
0.0
  0
LINE
  5
B0
  8
_________1
 62
     7
 10
67.080399999999997
 20
209.26400000000001
 30
0.0
 11
65.913899999999998
 21
209.26400000000001
 31
0.0
  0
LINE
  5
B1
  8
_________1
 62
     7
 10
78.297200000000004
 20
203.26400000000001
 30
0.0
 11
63.2971
 21
203.26400000000001
 31
0.0
  0
LINE
  5
B2
  8
_________1
 62
     7
 10
156.87100000000001
 20
153.07300000000001
 30
0.0
 11
123.41
 21
153.07300000000001
 31
0.0
  0
LINE
  5
B3
  8
_________1
 62
     7
 10
149.762
 20
124.95699999999999
 30
0.0
 11
149.84100000000001
 21
122.67
 31
0.0
  0
LINE
  5
B4
  8
_________1
 62
     7
 10
149.84100000000001
 20
122.67
 30
0.0
 11
150.916
 21
124.68899999999999
 31
0.0
  0
LINE
  5
B5
  8
_________1
 62
     7
 10
150.916
 20
124.68899999999999
 30
0.0
 11
149.762
 21
124.95699999999999
 31
0.0
  0
LINE
  5
B6
  8
_________1
 62
     7
 10
149.834
 20
122.67100000000001
 30
0.0
 11
156.87100000000001
 21
153.07300000000001
 31
0.0
  0
INSERT
  5
B7
  8
_________1
 62
     7
  2
AIGNBL02010002
 10
0.0
 20
0.0
 30
0.0
  0
LINE
  5
B8
  8
_________1
 62
     7
 10
36.4636
 20
120.754
 30
0.0
 11
36.4636
 21
146.00299999999999
 31
0.0
  0
LINE
  5
B9
  8
_________1
 62
     7
 10
70.797200000000004
 20
132.93000000000001
 30
0.0
 11
70.797200000000004
 21
130.55500000000001
 31
0.0
  0
LINE
  5
BA
  8
_________1
 62
     7
 10
70.797200000000004
 20
145.846
 30
0.0
 11
70.797200000000004
 21
138.94300000000001
 31
0.0
  0
INSERT
  5
BB
  8
_________1
 62
     7
  2
AIGNBL02010003
 10
0.0
 20
0.0
 30
0.0
  0
LINE
  5
BC
  8
_________1
 62
     7
 10
36.4636
 20
84.993799999999993
 30
0.0
 11
36.4636
 21
99.687200000000004
 31
0.0
  0
LINE
  5
BD
  8
_________1
 62
     7
 10
104.797
 20
97.098200000000006
 30
0.0
 11
104.797
 21
84.993799999999993
 31
0.0
  0
INSERT
  5
BE
  8
_________1
 62
     7
  2
AIGNBL02010004
 10
0.0
 20
0.0
 30
0.0
  0
LINE
  5
BF
  8
_________1
 62
     7
 10
75.130399999999995
 20
124.02800000000001
 30
0.0
 11
75.130399999999995
 21
135.114
 31
0.0
  0
LINE
  5
C0
  8
_________1
 62
     7
 10
66.463899999999995
 20
124.02800000000001
 30
0.0
 11
66.463899999999995
 21
135.059
 31
0.0
  0
LINE
  5
C1
  8
_________1
  6
AIGENLINE001
 62
     7
 10
75.130399999999995
 20
120.126
 30
0.0
 11
75.130399999999995
 21
123.619
 31
0.0
  0
ARC
  5
C2
  8
_________1
  6
AIGENLINE002
 62
     7
 10
75.092523999999997
 20
121.72286200000001
 30
0.0
 40
1.0387269999999991
 50
2.110990999999999
 51
87.908738999999997
  0
ARC
  5
C3
  8
_________1
  6
AIGENLINE002
 62
     7
 10
75.169048000000004
 20
121.722325
 30
0.0
 40
1.03929
 50
92.12960099999998
 51
177.86049800000001
  0
ARC
  5
C4
  8
_________1
  6
AIGENLINE002
 62
     7
 10
75.130514000000005
 20
121.7610379999999
 30
0.0
 40
1.000030999999999
 50
179.995036
 51
269.99508500000002
  0
ARC
  5
C5
  8
_________1
  6
AIGENLINE002
 62
     7
 10
75.130427999999995
 20
121.761124
 30
0.0
 40
1.0001180000000001
 50
270.00002000000001
 51
359.99999000000003
  0
LINE
  5
C6
  8
_________1
  6
AIGENLINE001
 62
     7
 10
66.463899999999995
 20
120.126
 30
0.0
 11
66.463899999999995
 21
123.619
 31
0.0
  0
ARC
  5
C7
  8
_________1
  6
AIGENLINE002
 62
     7
 10
66.425820000000002
 20
121.722874
 30
0.0
 40
1.038721
 50
2.1103309999999991
 51
87.899529999999999
  0
ARC
  5
C8
  8
_________1
  6
AIGENLINE002
 62
     7
 10
66.502506999999994
 20
121.72215
 30
0.0
 40
1.0394639999999991
 50
92.128997999999996
 51
177.85123200000001
  0
ARC
  5
C9
  8
_________1
  6
AIGENLINE002
 62
     7
 10
66.463891000000004
 20
121.761124
 30
0.0
 40
1.000116999999999
 50
179.99996999999999
 51
270.00002000000001
  0
ARC
  5
CA
  8
_________1
  6
AIGENLINE002
 62
     7
 10
66.463805000000008
 20
121.7610379999999
 30
0.0
 40
1.000032
 50
270.004954
 51
0.004925
  0
ARC
  5
CB
  8
_________1
 62
     7
 10
103.41214100000001
 20
179.98188099999999
 30
0.0
 40
1.3862149999999991
 50
272.10563500000001
 51
357.83516900000012
  0
ARC
  5
CD
  8
_________1
 62
     7
 10
103.41318
 20
179.879402
 30
0.0
 40
1.3851189999999991
 50
2.1020150000000002
 51
87.764573999999996
  0
ARC
  5
CE
  8
_________1
 62
     7
 10
85.757799999999989
 20
186.648358
 30
0.0
 40
1.386045999999999
 50
272.10628600000001
 51
357.84191600000003
  0
LINE
  5
CF
  8
_________1
 62
     7
 10
87.142899999999997
 20
186.596
 30
0.0
 11
87.142899999999997
 21
186.59700000000001
 31
0.0
  0
ARC
  5
D0
  8
_________1
 62
     7
 10
85.758685999999983
 20
186.54605799999999
 30
0.0
 40
1.385108999999999
 50
2.1016180000000002
 51
87.764971000000003
  0
LINE
  5
D1
  8
_________1
 62
     7
 10
78.297200000000004
 20
187.93000000000001
 30
0.0
 11
85.812700000000007
 21
187.93000000000001
 31
0.0
  0
LINE
  5
D2
  8
_________1
 62
     7
 10
78.297200000000004
 20
185.26300000000001
 30
0.0
 11
85.808899999999994
 21
185.26300000000001
 31
0.0
  0
ARC
  5
D3
  8
_________1
 62
     7
 10
85.757799999999989
 20
121.812629
 30
0.0
 40
1.386045999999999
 50
272.10628600000001
 51
357.84191600000003
  0
LINE
  5
D4
  8
_________1
 62
     7
 10
87.142899999999997
 20
121.76000000000001
 30
0.0
 11
87.142899999999997
 21
121.761
 31
0.0
  0
ARC
  5
D5
  8
_________1
 62
     7
 10
85.758675999999994
 20
121.710319
 30
0.0
 40
1.3851189999999991
 50
2.1020150000000002
 51
87.764573999999996
  0
LINE
  5
D6
  8
_________1
 62
     7
 10
78.297200000000004
 20
123.09399999999999
 30
0.0
 11
85.812700000000007
 21
123.09399999999999
 31
0.0
  0
LINE
  5
D7
  8
_________1
 62
     7
 10
78.297200000000004
 20
120.428
 30
0.0
 11
85.808899999999994
 21
120.428
 31
0.0
  0
ARC
  5
D8
  8
_________1
 62
     7
 10
103.413275
 20
98.644972999999993
 30
0.0
 40
1.3850530000000001
 50
272.07472300000001
 51
357.86606599999999
  0
LINE
  5
D9
  8
_________1
 62
     7
 10
104.797
 20
98.593400000000017
 30
0.0
 11
104.797
 21
98.594099999999997
 31
0.0
  0
ARC
  5
DA
  8
_________1
 62
     7
 10
103.4132
 20
98.543317999999999
 30
0.0
 40
1.385097
 50
2.1006290000000001
 51
87.751118999999974
  0
LINE
  5
DB
  8
_________1
 62
     7
 10
41.796899999999987
 20
181.26300000000001
 30
0.0
 11
103.467
 21
181.26300000000001
 31
0.0
  0
LINE
  5
DC
  8
_________1
 62
     7
 10
39.130299999999998
 20
182.821
 30
0.0
 11
39.130299999999998
 21
184.18899999999999
 31
0.0
  0
ARC
  5
DD
  8
_________1
 62
     7
 10
41.373336000000002
 20
182.818175
 30
0.0
 40
2.2430059999999998
 50
179.93650600000001
 51
191.83938499999999
  0
ARC
  5
DE
  8
_________1
 62
     7
 10
40.438704999999992
 20
182.641324
 30
0.0
 40
1.292108
 50
192.66719599999999
 51
220.22630599999999
  0
ARC
  5
DF
  8
_________1
 62
     7
 10
40.318067999999997
 20
182.58699300000001
 30
0.0
 40
1.1654850000000001
 50
222.01734400000001
 51
241.37876
  0
ARC
  5
E0
  8
_________1
 62
     7
 10
40.592387000000002
 20
183.061734
 30
0.0
 40
1.71367
 50
240.93110300000001
 51
255.93456499999999
  0
ARC
  5
E1
  8
_________1
 62
     7
 10
40.966647999999999
 20
184.36468500000001
 30
0.0
 40
3.0688650000000002
 50
255.06853000000001
 51
262.81742500000001
  0
ARC
  5
E2
  8
_________1
 62
     7
 10
41.324086000000001
 20
186.9486
 30
0.0
 40
5.6772819999999991
 50
262.49890399999998
 51
268.04562900000002
  0
ARC
  5
E3
  8
_________1
 62
     7
 10
41.706493999999999
 20
195.77743599999999
 30
0.0
 40
14.514251
 50
267.72552200000013
 51
270.35670199999998
  0
LINE
  5
E4
  8
_________1
 62
     7
 10
41.463700000000003
 20
178.59700000000001
 30
0.0
 11
103.46299999999999
 21
178.59700000000001
 31
0.0
  0
LINE
  5
E5
  8
_________1
 62
     7
 10
36.4636
 20
182.488
 30
0.0
 11
36.4636
 21
184.18899999999999
 31
0.0
  0
ARC
  5
E6
  8
_________1
 62
     7
 10
40.944114999999996
 20
182.48447300000001
 30
0.0
 40
4.4804779999999989
 50
179.96105800000001
 51
194.48192399999999
  0
ARC
  5
E7
  8
_________1
 62
     7
 10
39.827515000000012
 20
182.25649999999999
 30
0.0
 40
3.3428580000000001
 50
195.48471000000001
 51
238.03021100000001
  0
ARC
  5
E8
  8
_________1
 62
     7
 10
40.429034000000001
 20
183.165232
 30
0.0
 40
4.4323430000000004
 50
237.65356499999999
 51
252.2845779999999
  0
ARC
  5
E9
  8
_________1
 62
     7
 10
41.040759000000001
 20
184.853825
 30
0.0
 40
6.2273839999999989
 50
251.65068600000001
 51
262.37142799999998
  0
ARC
  5
EA
  8
_________1
 62
     7
 10
41.413190999999991
 20
187.12137999999999
 30
0.0
 40
8.5245839999999991
 50
261.91359599999998
 51
270.33955300000002
  0
LINE
  5
EB
  8
_________1
 62
     7
 10
41.463700000000003
 20
185.26300000000001
 30
0.0
 11
63.2971
 21
185.26300000000001
 31
0.0
  0
ARC
  5
EC
  8
_________1
 62
     7
 10
41.462946000000002
 20
178.634018
 30
0.0
 40
6.6292299999999997
 50
89.993397000000002
 51
96.944990000000018
  0
ARC
  5
ED
  8
_________1
 62
     7
 10
41.167574999999999
 20
181.25398899999999
 30
0.0
 40
3.9928370000000002
 50
97.283555000000007
 51
106.98580800000001
  0
ARC
  5
EE
  8
_________1
 62
     7
 10
40.691220999999999
 20
182.912555
 30
0.0
 40
2.2676470000000002
 50
107.71733
 51
116.452575
  0
ARC
  5
EF
  8
_________1
 62
     7
 10
40.292881000000001
 20
183.72491400000001
 30
0.0
 40
1.362906999999999
 50
116.672691
 51
133.17125799999999
  0
ARC
  5
F0
  8
_________1
 62
     7
 10
39.902062999999998
 20
184.16883200000001
 30
0.0
 40
0.771988
 50
134.558674
 51
178.52403699999999
  0
LINE
  5
F1
  8
_________1
 62
     7
 10
63.2971
 20
187.93000000000001
 30
0.0
 11
41.463700000000003
 21
187.93000000000001
 31
0.0
  0
ARC
  5
F2
  8
_________1
 62
     7
 10
41.465201999999998
 20
181.10806099999999
 30
0.0
 40
6.8220529999999986
 50
90.012529999999998
 51
107.569008
  0
ARC
  5
F3
  8
_________1
 62
     7
 10
41.095795999999993
 20
182.44477800000001
 30
0.0
 40
5.4364229999999996
 50
108.109888
 51
126.18826300000001
  0
ARC
  5
F4
  8
_________1
 62
     7
 10
40.299337999999999
 20
183.63297700000001
 30
0.0
 40
4.0076199999999993
 50
127.028288
 51
147.19998100000001
  0
ARC
  5
F5
  8
_________1
 62
     7
 10
39.581665999999998
 20
184.16229200000001
 30
0.0
 40
3.1181399999999999
 50
148.23190299999999
 51
179.51443800000001
  0
LINE
  5
F6
  8
_________1
 62
     7
 10
41.796899999999987
 20
99.927300000000017
 30
0.0
 11
103.467
 21
99.927300000000017
 31
0.0
  0
LINE
  5
F7
  8
_________1
 62
     7
 10
39.130299999999998
 20
102.59399999999999
 30
0.0
 11
39.130299999999998
 21
118.09399999999999
 31
0.0
  0
ARC
  5
F8
  8
_________1
 62
     7
 10
41.797022999999989
 20
102.594041
 30
0.0
 40
2.6666929999999991
 50
179.99626900000001
 51
269.99631900000003
  0
LINE
  5
F9
  8
_________1
 62
     7
 10
41.463700000000003
 20
97.260800000000003
 30
0.0
 11
103.46299999999999
 21
97.260800000000003
 31
0.0
  0
LINE
  5
FA
  8
_________1
 62
     7
 10
36.4636
 20
102.261
 30
0.0
 11
36.4636
 21
118.09399999999999
 31
0.0
  0
ARC
  5
FB
  8
_________1
 62
     7
 10
41.463793999999993
 20
102.26098399999999
 30
0.0
 40
5.0001559999999987
 50
179.99898300000001
 51
269.999033
  0
LINE
  5
FC
  8
_________1
 62
     7
 10
41.463700000000003
 20
120.428
 30
0.0
 11
63.2971
 21
120.428
 31
0.0
  0
ARC
  5
FD
  8
_________1
 62
     7
 10
41.463537000000002
 20
118.094313
 30
0.0
 40
2.3332060000000001
 50
89.995769999999993
 51
179.99574000000001
  0
LINE
  5
FE
  8
_________1
 62
     7
 10
63.2971
 20
123.09399999999999
 30
0.0
 11
41.463700000000003
 21
123.09399999999999
 31
0.0
  0
ARC
  5
FF
  8
_________1
 62
     7
 10
41.463624000000003
 20
118.094399
 30
0.0
 40
4.9999859999999989
 50
89.999013000000005
 51
179.99898300000001
  0
LINE
  5
100
  8
_________1
  6
AIGENLINE001
 62
     7
 10
70.797200000000004
 20
113.10299999999999
 30
0.0
 11
70.797200000000004
 21
130.22900000000001
 31
0.0
  0
ARC
  5
101
  8
_________1
 62
     7
 10
70.797033999999996
 20
121.760751
 30
0.0
 40
7.499746
 50
206.38992300000001
 51
296.39416199999999
  0
ARC
  5
102
  8
_________1
 62
     7
 10
70.750737999999998
 20
121.807546
 30
0.0
 40
7.562271
 50
296.55075399999998
 51
333.44925599999999
  0
ARC
  5
103
  8
_________1
 62
     7
 10
70.797158999999994
 20
121.761122
 30
0.0
 40
7.5000249999999991
 50
26.392037999999999
 51
116.392008
  0
ARC
  5
104
  8
_________1
 62
     7
 10
70.843581
 20
121.714702
 30
0.0
 40
7.562271
 50
116.55073400000001
 51
153.44923600000001
  0
LINE
  5
105
  8
_________1
 62
     7
 10
63.2971
 20
189.93000000000001
 30
0.0
 11
63.2971
 21
183.26300000000001
 31
0.0
  0
LINE
  5
106
  8
_________1
 62
     7
 10
78.297200000000004
 20
189.93000000000001
 30
0.0
 11
78.297200000000004
 21
183.26300000000001
 31
0.0
  0
LINE
  5
107
  8
_________1
 62
     7
 10
78.297200000000004
 20
183.26300000000001
 30
0.0
 11
63.2971
 21
183.26300000000001
 31
0.0
  0
LINE
  5
108
  8
_________1
 62
     7
 10
63.2971
 20
189.93000000000001
 30
0.0
 11
67.463999999999999
 21
189.93000000000001
 31
0.0
  0
LINE
  5
109
  8
_________1
  6
AIGENLINE001
 62
     7
 10
88.806700000000006
 20
186.59700000000001
 30
0.0
 11
60.769100000000002
 21
186.59700000000001
 31
0.0
  0
LINE
  5
10A
  8
_________1
 62
     7
 10
63.2971
 20
125.09399999999999
 30
0.0
 11
63.2971
 21
118.428
 31
0.0
  0
LINE
  5
10B
  8
_________1
 62
     7
 10
78.297200000000004
 20
125.09399999999999
 30
0.0
 11
78.297200000000004
 21
118.428
 31
0.0
  0
LINE
  5
10C
  8
_________1
 62
     7
 10
78.297200000000004
 20
118.428
 30
0.0
 11
63.2971
 21
118.428
 31
0.0
  0
LINE
  5
10D
  8
_________1
 62
     7
 10
63.2971
 20
125.09399999999999
 30
0.0
 11
78.297399999999996
 21
125.09399999999999
 31
0.0
  0
LINE
  5
10E
  8
_________1
  6
AIGENLINE001
 62
     7
 10
88.806700000000006
 20
121.761
 30
0.0
 11
60.769100000000002
 21
121.761
 31
0.0
  0
LINE
  5
10F
  8
_________1
  6
AIGENLINE001
 62
     7
 10
118.949
 20
121.761
 30
0.0
 11
157.76599999999999
 21
121.761
 31
0.0
  0
LINE
  5
110
  8
_________1
 62
     7
 10
76.015699999999995
 20
210.55600000000001
 30
0.0
 11
74.188699999999997
 21
209.417
 31
0.0
  0
LINE
  5
111
  8
_________1
 62
     7
 10
76.015699999999995
 20
211.66499999999999
 30
0.0
 11
74.188699999999997
 21
210.52699999999999
 31
0.0
  0
LINE
  5
112
  8
_________1
 62
     7
 10
76.015699999999995
 20
212.77500000000001
 30
0.0
 11
74.188699999999997
 21
211.636
 31
0.0
  0
LINE
  5
113
  8
_________1
 62
     7
 10
76.015699999999995
 20
213.88399999999999
 30
0.0
 11
74.188699999999997
 21
212.74600000000001
 31
0.0
  0
LINE
  5
114
  8
_________1
 62
     7
 10
76.015699999999995
 20
214.994
 30
0.0
 11
74.188699999999997
 21
213.85499999999999
 31
0.0
  0
LINE
  5
115
  8
_________1
 62
     7
 10
76.015699999999995
 20
216.10300000000001
 30
0.0
 11
74.188699999999997
 21
214.965
 31
0.0
  0
LINE
  5
116
  8
_________1
 62
     7
 10
76.015699999999995
 20
217.21299999999999
 30
0.0
 11
74.188699999999997
 21
216.07400000000001
 31
0.0
  0
LINE
  5
117
  8
_________1
 62
     7
 10
76.015699999999995
 20
218.322
 30
0.0
 11
74.188699999999997
 21
217.184
 31
0.0
  0
LINE
  5
118
  8
_________1
 62
     7
 10
75.680400000000006
 20
218.154
 30
0.0
 11
75.097200000000001
 21
219.26400000000001
 31
0.0
  0
LINE
  5
119
  8
_________1
 62
     7
 10
75.097200000000001
 20
219.26400000000001
 30
0.0
 11
74.513900000000007
 21
218.154
 31
0.0
  0
LINE
  5
11A
  8
_________1
 62
     7
 10
75.680400000000006
 20
203.26400000000001
 30
0.0
 11
75.680400000000006
 21
218.154
 31
0.0
  0
LINE
  5
11B
  8
_________1
 62
     7
 10
74.513900000000007
 20
203.26400000000001
 30
0.0
 11
74.513900000000007
 21
218.154
 31
0.0
  0
LINE
  5
11C
  8
_________1
 62
     7
 10
147.65100000000001
 20
120.843
 30
0.0
 11
146.512
 21
122.67
 31
0.0
  0
LINE
  5
11D
  8
_________1
 62
     7
 10
148.75999999999999
 20
120.843
 30
0.0
 11
147.62200000000001
 21
122.67
 31
0.0
  0
LINE
  5
11E
  8
_________1
 62
     7
 10
149.869
 20
120.843
 30
0.0
 11
148.73099999999999
 21
122.67
 31
0.0
  0
LINE
  5
11F
  8
_________1
 62
     7
 10
150.97900000000001
 20
120.843
 30
0.0
 11
149.84100000000001
 21
122.67
 31
0.0
  0
LINE
  5
120
  8
_________1
 62
     7
 10
152.08799999999999
 20
120.843
 30
0.0
 11
150.94999999999999
 21
122.67
 31
0.0
  0
LINE
  5
121
  8
_________1
 62
     7
 10
153.19800000000001
 20
120.843
 30
0.0
 11
152.06
 21
122.67
 31
0.0
  0
LINE
  5
122
  8
_________1
 62
     7
 10
154.30699999999999
 20
120.843
 30
0.0
 11
153.16900000000001
 21
122.67
 31
0.0
  0
LINE
  5
123
  8
_________1
 62
     7
 10
155.417
 20
120.843
 30
0.0
 11
154.279
 21
122.67
 31
0.0
  0
LINE
  5
124
  8
_________1
 62
     7
 10
155.249
 20
121.178
 30
0.0
 11
156.35900000000001
 21
121.761
 31
0.0
  0
LINE
  5
125
  8
_________1
 62
     7
 10
156.35900000000001
 20
121.761
 30
0.0
 11
155.249
 21
122.34399999999999
 31
0.0
  0
LINE
  5
126
  8
_________1
 62
     7
 10
140.35900000000001
 20
121.178
 30
0.0
 11
155.249
 21
121.178
 31
0.0
  0
LINE
  5
127
  8
_________1
 62
     7
 10
140.35900000000001
 20
122.34399999999999
 30
0.0
 11
155.249
 21
122.34399999999999
 31
0.0
  0
INSERT
  5
128
  8
_________1
 62
     7
  2
AIGNBL02010005
 10
0.0
 20
0.0
 30
0.0
  0
LINE
  5
129
  8
_________1
 62
     7
 10
174.72099999999989
 20
97.260800000000003
 30
0.0
 11
118.399
 21
97.260800000000003
 31
0.0
  0
INSERT
  5
12A
  8
_________1
 62
     7
  2
AIGNBL02010006
 10
0.0
 20
0.0
 30
0.0
  0
LINE
  5
12B
  8
_________1
 62
     7
 10
174.80500000000001
 20
129.261
 30
0.0
 11
141.154
 21
129.261
 31
0.0
  0
LINE
  5
12C
  8
_________1
 62
     7
 10
165.09899999999999
 20
114.261
 30
0.0
 11
141.154
 21
114.261
 31
0.0
  0
INSERT
  5
12D
  8
_________1
 62
     7
  2
AIGNBL02010007
 10
0.0
 20
0.0
 30
0.0
  0
INSERT
  5
12E
  8
_________1
 62
     7
  2
AIGNBL02010008
 10
0.0
 20
0.0
 30
0.0
  0
LINE
  5
12F
  8
_________1
 62
     7
 10
140.35900000000001
 20
129.98599999999999
 30
0.0
 11
140.35900000000001
 21
136.53899999999999
 31
0.0
  0
LINE
  5
130
  8
_________1
 62
     7
 10
120.358
 20
123.461
 30
0.0
 11
120.358
 21
136.43899999999999
 31
0.0
  0
LINE
  5
131
  8
_________1
  6
AIGENLINE001
 62
     7
 10
116.36799999999999
 20
96.31140000000002
 30
0.0
 11
124.946
 21
126.119
 31
0.0
  0
LINE
  5
132
  8
_________1
 62
     7
 10
121.566
 20
119.194
 30
0.0
 11
115.744
 21
98.962700000000012
 31
0.0
  0
LINE
  5
133
  8
_________1
 62
     7
 10
124.12
 20
118.428
 30
0.0
 11
118.306
 21
98.225499999999997
 31
0.0
  0
ARC
  5
134
  8
_________1
 62
     7
 10
116.974138
 20
98.543105000000025
 30
0.0
 40
1.3851830000000001
 50
2.109329999999999
 51
87.890659999999997
  0
ARC
  5
135
  8
_________1
 62
     7
 10
117.076114
 20
98.543094999999994
 30
0.0
 40
1.3851919999999991
 50
92.109700000000004
 51
177.89027100000001
  0
ARC
  5
136
  8
_________1
 62
     7
 10
117.025121
 20
98.594087999999999
 30
0.0
 40
1.3332599999999999
 50
179.99996999999999
 51
270.00002000000001
  0
ARC
  5
137
  8
_________1
 62
     7
 10
117.025121
 20
98.594088999999997
 30
0.0
 40
1.333261
 50
270.00002000000001
 51
359.99999000000003
  0
ARC
  5
138
  8
_________1
 62
     7
 10
123.64077399999999
 20
121.71013000000001
 30
0.0
 40
1.3851929999999999
 50
2.109726999999999
 51
87.890263000000004
  0
ARC
  5
139
  8
_________1
 62
     7
 10
123.691768
 20
121.761124
 30
0.0
 40
1.333261
 50
90.0
 51
179.99996999999999
  0
ARC
  5
13A
  8
_________1
 62
     7
 10
123.69194
 20
121.760952
 30
0.0
 40
1.3334319999999991
 50
179.992569
 51
269.99261799999999
  0
ARC
  5
13B
  8
_________1
 62
     7
 10
123.64076
 20
121.811774
 30
0.0
 40
1.385195
 50
272.11032899999998
 51
357.90448400000002
  0
LINE
  5
13C
  8
_________1
 62
     7
 10
130.358
 20
124.294
 30
0.0
 11
133.69200000000001
 21
124.294
 31
0.0
  0
LINE
  5
13D
  8
_________1
 62
     7
 10
130.358
 20
119.22799999999999
 30
0.0
 11
133.69200000000001
 21
119.22799999999999
 31
0.0
  0
LINE
  5
13E
  8
_________1
 62
     7
 10
133.69200000000001
 20
118.428
 30
0.0
 11
137.02500000000001
 21
118.428
 31
0.0
  0
LINE
  5
13F
  8
_________1
 62
     7
 10
123.69199999999999
 20
118.428
 30
0.0
 11
130.35900000000001
 21
118.428
 31
0.0
  0
LINE
  5
140
  8
_________1
 62
     7
 10
130.35900000000001
 20
125.09399999999999
 30
0.0
 11
123.69199999999999
 21
125.09399999999999
 31
0.0
  0
LINE
  5
141
  8
_________1
 62
     7
 10
137.02500000000001
 20
125.09399999999999
 30
0.0
 11
133.69200000000001
 21
125.09399999999999
 31
0.0
  0
LINE
  5
142
  8
_________1
 62
     7
 10
140.35900000000001
 20
114.261
 30
0.0
 11
137.02500000000001
 21
114.261
 31
0.0
  0
LINE
  5
143
  8
_________1
 62
     7
 10
140.35900000000001
 20
129.261
 30
0.0
 11
137.02500000000001
 21
129.261
 31
0.0
  0
LINE
  5
144
  8
_________1
 62
     7
 10
130.35900000000001
 20
118.428
 30
0.0
 11
130.35900000000001
 21
125.09399999999999
 31
0.0
  0
LINE
  5
145
  8
_________1
 62
     7
 10
133.69200000000001
 20
118.428
 30
0.0
 11
133.69200000000001
 21
125.09399999999999
 31
0.0
  0
LINE
  5
146
  8
_________1
 62
     7
 10
137.02500000000001
 20
114.261
 30
0.0
 11
137.02500000000001
 21
129.261
 31
0.0
  0
LINE
  5
147
  8
_________1
 62
     7
 10
146.35900000000001
 20
121.178
 30
0.0
 11
146.35900000000001
 21
122.34399999999999
 31
0.0
  0
LINE
  5
148
  8
_________1
 62
     7
 10
140.35900000000001
 20
114.261
 30
0.0
 11
140.35900000000001
 21
129.261
 31
0.0
  0
LINE
  5
149
  8
_________2
 62
     7
 10
205.30099999999999
 20
127.411
 30
0.0
 11
183.55099999999999
 21
127.411
 31
0.0
  0
LINE
  5
14A
  8
_________2
 62
     7
 10
100.3
 20
-4.0907299999999998
 30
0.0
 11
100.3
 21
-21.071000000000002
 31
0.0
  0
LINE
  5
14B
  8
_________2
 62
     7
 10
100.3
 20
275.93099999999998
 30
0.0
 11
100.3
 21
258.911
 31
0.0
  0
LINE
  5
14C
  8
_________2
 62
     7
 10
17.049700000000001
 20
127.411
 30
0.0
 11
-4.7003500000000003
 21
127.411
 31
0.0
  0
INSERT
  5
14D
  8
_________2
 62
     7
  2
AIGNBL03010002
 10
0.0
 20
0.0
 30
0.0
  0
TEXT
  5
14E
  8
_________2
 62
     7
 10
104.605
 20
1.6794899999999999
 30
0.0
 40
3.0923400000000001
  1
図番
 41
0.5
  0
LINE
  5
14F
  8
_________2
 62
     7
 10
103.55
 20
5.9087199999999989
 30
0.0
 11
183.55099999999999
 21
5.9087199999999989
 31
0.0
  0
TEXT
  5
150
  8
_________2
 62
     7
 10
104.605
 20
11.679600000000001
 30
0.0
 40
3.0923400000000001
  1
品番
 41
0.5
  0
TEXT
  5
151
  8
_________2
 62
     7
 10
104.605
 20
31.818100000000001
 30
0.0
 40
3.0923400000000001
  1
名称
 41
0.5
  0
TEXT
  5
152
  8
_________2
 62
     7
 10
91.845658333333333
 20
26.821999999999999
 30
0.0
 40
3.6545800000000002
  1
mm
 41
0.5
 72
     1
 11
93.368399999999994
 21
26.821999999999999
 31
0.0
  0
TEXT
  5
153
  8
_________2
 62
     7
 10
85.643399999999986
 20
31.818100000000001
 30
0.0
 40
3.0923400000000001
  1
単位
 41
0.5
  0
TEXT
  5
154
  8
_________2
 62
     7
 10
85.643399999999986
 20
19.411200000000001
 30
0.0
 40
3.0923400000000001
  1
尺度
 41
0.5
  0
TEXT
  5
155
  8
_________2
 62
     7
 10
90.549158666666656
 20
13.2182
 30
0.0
 40
3.6545800000000002
  1
1 ： 3
 41
0.5
 72
     1
 11
93.960099999999997
 21
13.2182
 31
0.0
  0
TEXT
  5
156
  8
_________2
 62
     7
 10
136.17056249999999
 20
9.1078600000000005
 30
0.0
 40
3.9357000000000002
  1
ECS0855T
 41
0.5
 72
     1
 11
143.55000000000001
 21
9.1078600000000005
 31
0.0
  0
TEXT
  5
157
  8
_________2
 62
     7
 10
136.17056249999999
 20
-0.892285
 30
0.0
 40
3.9357000000000002
  1
ECS0855T
 41
0.5
 72
     1
 11
143.55000000000001
 21
-0.892285
 31
0.0
  0
TEXT
  5
158
  8
_________2
 62
     7
 10
109.179
 20
24.226099999999999
 30
0.0
 40
3.9357000000000002
  1
エポーサ　タオルリング
 41
0.5
  0
TEXT
  5
159
  8
_________2
 62
     7
 10
39.364590666666672
 20
13.603
 30
0.0
 40
3.6545800000000002
  1
井伊
 41
0.5
 72
     1
 11
41.31369999999999
 21
13.603
 31
0.0
  0
TEXT
  5
15A
  8
_________2
 62
     7
 10
20.790390666666671
 20
13.603
 30
0.0
 40
3.6545800000000002
  1
木場
 41
0.5
 72
     1
 11
22.7395
 21
13.603
 31
0.0
  0
TEXT
  5
15B
  8
_________2
 62
     7
 10
67.785799999999995
 20
13.2182
 30
0.0
 40
3.6545800000000002
  1
21.02.12
 41
0.5
  0
TEXT
  5
15C
  8
_________2
 62
     7
 10
66.593299999999999
 20
19.411200000000001
 30
0.0
 40
3.0923400000000001
  1
日付
 41
0.5
  0
TEXT
  5
15D
  8
_________2
 62
     7
 10
29.639500000000002
 20
19.411200000000001
 30
0.0
 40
3.0923400000000001
  1
検図
 41
0.5
  0
TEXT
  5
15E
  8
_________2
 62
     7
 10
18.021599999999999
 20
5.2117699999999987
 30
0.0
 40
3.0923400000000001
  1
備考
 41
0.5
  0
TEXT
  5
15F
  8
_________2
 62
     7
 10
18.021599999999999
 20
19.411200000000001
 30
0.0
 40
3.0923400000000001
  1
製図
 41
0.5
  0
TEXT
  5
160
  8
_________2
 62
     7
 10
23.788865333333341
 20
27.936800000000002
 30
0.0
 40
4.4979399999999989
  1
セラトレーディング株式会社
 41
0.5
 72
     1
 11
41.180900000000001
 21
27.936800000000002
 31
0.0
  0
LINE
  5
161
  8
_________2
 62
     7
 10
183.55099999999999
 20
-4.0910799999999998
 30
0.0
 11
17.049700000000001
 21
-4.0910799999999998
 31
0.0
  0
LINE
  5
162
  8
_________2
 62
     7
 10
17.049700000000001
 20
-4.0910799999999998
 30
0.0
 11
17.049700000000001
 21
258.911
 31
0.0
  0
LINE
  5
163
  8
_________2
 62
     7
 10
17.049700000000001
 20
258.911
 30
0.0
 11
183.55099999999999
 21
258.911
 31
0.0
  0
LINE
  5
164
  8
_________2
 62
     7
 10
183.55099999999999
 20
258.911
 30
0.0
 11
183.55099999999999
 21
-4.0910799999999998
 31
0.0
  0
LINE
  5
165
  8
_________2
 62
     7
 10
65.549899999999994
 20
9.4092999999999982
 30
0.0
 11
65.549899999999994
 21
35.909100000000002
 31
0.0
  0
LINE
  5
166
  8
_________2
 62
     7
 10
84.550099999999986
 20
9.4092999999999982
 30
0.0
 11
84.550099999999986
 21
35.909100000000002
 31
0.0
  0
LINE
  5
167
  8
_________2
 62
     7
 10
103.55
 20
-4.0910799999999998
 30
0.0
 11
103.55
 21
35.909100000000002
 31
0.0
  0
LINE
  5
168
  8
_________2
 62
     7
 10
28.549900000000001
 20
9.4092999999999982
 30
0.0
 11
28.549900000000001
 21
23.409199999999998
 31
0.0
  0
LINE
  5
169
  8
_________2
 62
     7
 10
17.049700000000001
 20
9.4092999999999982
 30
0.0
 11
103.55
 21
9.4092999999999982
 31
0.0
  0
LINE
  5
16A
  8
_________2
 62
     7
 10
17.049700000000001
 20
23.409199999999998
 30
0.0
 11
103.55
 21
23.409199999999998
 31
0.0
  0
LINE
  5
16B
  8
_________2
 62
     7
 10
103.55
 20
15.908899999999999
 30
0.0
 11
183.55099999999999
 21
15.908899999999999
 31
0.0
  0
LINE
  5
16C
  8
_________2
 62
     7
 10
17.049700000000001
 20
35.909100000000002
 30
0.0
 11
183.55099999999999
 21
35.909100000000002
 31
0.0
  0
ENDSEC
  0
EOF
