  0
SECTION
  2
HEADER
  9
$ACADVER
  1
AC1009
  9
$INSBASE
 10
0.0
 20
0.0
 30
0.0
  9
$EXTMIN
 10
-4.70052
 20
-21.071400000000001
 30
0.0
  9
$EXTMAX
 10
205.30099999999999
 20
275.93099999999998
 30
0.0
  9
$LIMMIN
 10
0.0
 20
0.0
  9
$LIMMAX
 10
12.0
 20
9.0
  9
$ORTHOMODE
 70
     0
  9
$REGENMODE
 70
     1
  9
$FILLMODE
 70
     1
  9
$QTEXTMODE
 70
     0
  9
$MIRRTEXT
 70
     1
  9
$DRAGMODE
 70
     2
  9
$LTSCALE
 40
1.0
  9
$OSMODE
 70
    37
  9
$ATTMODE
 70
     1
  9
$TEXTSIZE
 40
0.0
  9
$TRACEWID
 40
0.05
  9
$TEXTSTYLE
  7
STANDARD
  9
$CLAYER
  8
0
  9
$CELTYPE
  6
CONTINUOUS
  9
$CECOLOR
 62
   256
  9
$DIMSCALE
 40
1.0
  9
$DIMASZ
 40
0.18
  9
$DIMEXO
 40
0.0625
  9
$DIMDLI
 40
0.38
  9
$DIMRND
 40
0.0
  9
$DIMDLE
 40
0.0
  9
$DIMEXE
 40
0.18
  9
$DIMTP
 40
0.0
  9
$DIMTM
 40
0.0
  9
$DIMTXT
 40
0.18
  9
$DIMCEN
 40
0.09
  9
$DIMTSZ
 40
0.0
  9
$DIMTOL
 70
     0
  9
$DIMLIM
 70
     0
  9
$DIMTIH
 70
     1
  9
$DIMTOH
 70
     1
  9
$DIMSE1
 70
     0
  9
$DIMSE2
 70
     0
  9
$DIMTAD
 70
     0
  9
$DIMZIN
 70
     0
  9
$DIMBLK
  1

  9
$DIMASO
 70
     1
  9
$DIMSHO
 70
     1
  9
$DIMPOST
  1

  9
$DIMAPOST
  1

  9
$DIMALT
 70
     0
  9
$DIMALTD
 70
     2
  9
$DIMALTF
 40
25.399999999999999
  9
$DIMLFAC
 40
1.0
  9
$DIMTOFL
 70
     0
  9
$DIMTVP
 40
0.0
  9
$DIMTIX
 70
     0
  9
$DIMSOXD
 70
     0
  9
$DIMSAH
 70
     0
  9
$DIMBLK1
  1

  9
$DIMBLK2
  1

  9
$DIMSTYLE
  2
STANDARD
  9
$DIMCLRD
 70
     0
  9
$DIMCLRE
 70
     0
  9
$DIMCLRT
 70
     0
  9
$DIMTFAC
 40
1.0
  9
$DIMGAP
 40
0.09
  9
$LUNITS
 70
     2
  9
$LUPREC
 70
     4
  9
$SKETCHINC
 40
0.1
  9
$FILLETRAD
 40
0.0
  9
$AUNITS
 70
     0
  9
$AUPREC
 70
     0
  9
$MENU
  1
.
  9
$ELEVATION
 40
0.0
  9
$PELEVATION
 40
0.0
  9
$THICKNESS
 40
0.0
  9
$LIMCHECK
 70
     0
  9
$BLIPMODE
 70
     0
  9
$CHAMFERA
 40
0.0
  9
$CHAMFERB
 40
0.0
  9
$SKPOLY
 70
     0
  9
$TDCREATE
 40
2444972.375
  9
$TDUPDATE
 40
2457479.248667778
  9
$TDINDWG
 40
0.0000348843
  9
$TDUSRTIMER
 40
0.0000348843
  9
$USRTIMER
 70
     1
  9
$ANGBASE
 50
0.0
  9
$ANGDIR
 70
     0
  9
$PDMODE
 70
     0
  9
$PDSIZE
 40
0.0
  9
$PLINEWID
 40
0.0
  9
$COORDS
 70
     1
  9
$SPLFRAME
 70
     0
  9
$SPLINETYPE
 70
     6
  9
$SPLINESEGS
 70
     8
  9
$ATTDIA
 70
     1
  9
$ATTREQ
 70
     1
  9
$HANDLING
 70
     1
  9
$HANDSEED
  5
1E4
  9
$SURFTAB1
 70
     6
  9
$SURFTAB2
 70
     6
  9
$SURFTYPE
 70
     6
  9
$SURFU
 70
     6
  9
$SURFV
 70
     6
  9
$UCSNAME
  2

  9
$UCSORG
 10
0.0
 20
0.0
 30
0.0
  9
$UCSXDIR
 10
1.0
 20
0.0
 30
0.0
  9
$UCSYDIR
 10
0.0
 20
1.0
 30
0.0
  9
$PUCSNAME
  2

  9
$PUCSORG
 10
0.0
 20
0.0
 30
0.0
  9
$PUCSXDIR
 10
1.0
 20
0.0
 30
0.0
  9
$PUCSYDIR
 10
0.0
 20
1.0
 30
0.0
  9
$USERI1
 70
     0
  9
$USERI2
 70
     0
  9
$USERI3
 70
     0
  9
$USERI4
 70
     0
  9
$USERI5
 70
     0
  9
$USERR1
 40
0.0
  9
$USERR2
 40
0.0
  9
$USERR3
 40
0.0
  9
$USERR4
 40
0.0
  9
$USERR5
 40
0.0
  9
$WORLDVIEW
 70
     1
  9
$SHADEDGE
 70
     3
  9
$SHADEDIF
 70
    70
  9
$TILEMODE
 70
     1
  9
$MAXACTVP
 70
    48
  9
$PLIMCHECK
 70
     0
  9
$PEXTMIN
 10
1.0000000000000000E+020
 20
1.0000000000000000E+020
 30
1.0000000000000000E+020
  9
$PEXTMAX
 10
-1.0000000000000000E+020
 20
-1.0000000000000000E+020
 30
-1.0000000000000000E+020
  9
$PLIMMIN
 10
0.0
 20
0.0
  9
$PLIMMAX
 10
12.0
 20
9.0
  9
$UNITMODE
 70
     0
  9
$VISRETAIN
 70
     1
  9
$PLINEGEN
 70
     0
  9
$PSLTSCALE
 70
     1
  0
ENDSEC
  0
SECTION
  2
TABLES
  0
TABLE
  2
VPORT
 70
     1
  0
VPORT
  2
*ACTIVE
 70
     0
 10
0.0
 20
0.0
 11
1.0
 21
1.0
 12
156.29059996312719
 22
127.4298
 13
0.0
 23
0.0
 14
1.0
 24
1.0
 15
0.0
 25
0.0
 16
0.0
 26
0.0
 36
1.0
 17
0.0
 27
0.0
 37
0.0
 40
282.89992383679322
 41
2.0381526104417671
 42
50.0
 43
0.0
 44
0.0
 50
0.0
 51
0.0
 71
     0
 72
   100
 73
     1
 74
     1
 75
     0
 76
     0
 77
     0
 78
     0
  0
ENDTAB
  0
TABLE
  2
LTYPE
 70
     2
  0
LTYPE
  2
CONTINUOUS
 70
     0
  3
Solid line
 72
    65
 73
     0
 40
0.0
  0
LTYPE
  2
AIGENLINE001
 70
     0
  3
generate AI->DXF Converter
 72
    65
 73
     4
 40
5.8561449999999988
 49
3.5278
 49
-0.776115
 49
0.776115
 49
-0.776115
  0
ENDTAB
  0
TABLE
  2
LAYER
 70
     2
  0
LAYER
  2
0
 70
     0
 62
     7
  6
CONTINUOUS
  0
LAYER
  2
_________2
 70
     0
 62
     7
  6
CONTINUOUS
  0
ENDTAB
  0
TABLE
  2
STYLE
 70
     1
  0
STYLE
  2
STANDARD
 70
     0
 40
0.0
 41
0.0
 50
0.0
 71
     0
 42
0.0
  3
TXT
  4
EXTFONT.SHX
  0
ENDTAB
  0
TABLE
  2
VIEW
 70
     0
  0
ENDTAB
  0
TABLE
  2
UCS
 70
     0
  0
ENDTAB
  0
TABLE
  2
APPID
 70
     3
  0
APPID
  2
ACAD
 70
     0
  0
APPID
  2
ACAD_NAV_VCDISPLAY
 70
     0
  0
APPID
  2
ACAD_MLEADERVER
 70
     0
  0
ENDTAB
  0
TABLE
  2
DIMSTYLE
 70
     1
  0
DIMSTYLE
  2
STANDARD
 70
     0
  3

  4

  5

  6

  7

 40
1.0
 41
0.18
 42
0.0625
 43
0.38
 44
0.18
 45
0.0
 46
0.0
 47
0.0
 48
0.0
140
0.18
141
0.09
142
0.0
143
25.399999999999999
144
1.0
145
0.0
146
1.0
147
0.09
 71
     0
 72
     0
 73
     1
 74
     1
 75
     0
 76
     0
 77
     0
 78
     0
170
     0
171
     2
172
     0
173
     0
174
     0
175
     0
176
     0
177
     0
178
     0
  0
ENDTAB
  0
ENDSEC
  0
SECTION
  2
BLOCKS
  0
BLOCK
  8
0
  2
$MODEL_SPACE
 70
     0
 10
0.0
 20
0.0
 30
0.0
  3
$MODEL_SPACE
  1

  0
ENDBLK
  5
1A
  8
0
  0
BLOCK
 67
     1
  8
0
  2
$PAPER_SPACE
 70
     0
 10
0.0
 20
0.0
 30
0.0
  3
$PAPER_SPACE
  1

  0
ENDBLK
  5
17
 67
     1
  8
0
  0
ENDSEC
  0
SECTION
  2
ENTITIES
  0
TEXT
  5
22
  8
0
 62
     7
 10
105.05500000000001
 20
107.756135
 30
0.0
 40
3.0923400000000001
  1
152
 50
90.0
 41
0.5
 72
     1
 11
105.05500000000001
 21
109.56
 31
0.0
  0
TEXT
  5
23
  8
0
 62
     7
 10
35.4861
 20
93.615845000000007
 30
0.0
 40
3.0923400000000001
  1
97.5
 50
90.0
 41
0.5
 72
     1
 11
35.4861
 21
95.935100000000006
 31
0.0
  0
TEXT
  5
24
  8
0
 62
     7
 10
105.05500000000001
 20
201.48274499999999
 30
0.0
 40
3.0923400000000001
  1
97.5
 50
90.0
 41
0.5
 72
     1
 11
105.05500000000001
 21
203.80199999999999
 31
0.0
  0
TEXT
  5
25
  8
0
 62
     7
 10
66.070245
 20
61.057099999999998
 30
0.0
 40
3.0923400000000001
  1
85.5
 41
0.5
 72
     1
 11
68.389499999999998
 21
61.057099999999998
 31
0.0
  0
TEXT
  5
26
  8
0
 62
     7
 10
66.070245
 20
167.94300000000001
 30
0.0
 40
3.0923400000000001
  1
97.5
 41
0.5
 72
     1
 11
68.389499999999998
 21
167.94300000000001
 31
0.0
  0
ARC
  5
27
  8
0
 62
     7
 10
67.699011999999996
 20
178.12994
 30
0.0
 40
0.434653
 50
180.26980800000001
 51
227.74040600000001
  0
ARC
  5
28
  8
0
 62
     7
 10
67.851517000000001
 20
178.29405199999999
 30
0.0
 40
0.6586750000000001
 50
227.522436
 51
244.28861800000001
  0
ARC
  5
29
  8
0
 62
     7
 10
68.067312000000001
 20
178.71055100000001
 30
0.0
 40
1.127640999999999
 50
243.59068500000001
 51
256.60152699999998
  0
ARC
  5
2A
  8
0
 62
     7
 10
68.283108999999996
 20
179.51523
 30
0.0
 40
1.9605639999999991
 50
255.91584800000001
 51
265.67632900000001
  0
ARC
  5
2B
  8
0
 62
     7
 10
68.383263999999997
 20
180.49711500000001
 30
0.0
 40
2.9473180000000001
 50
265.17390599999999
 51
270.11865799999998
  0
LINE
  5
2C
  8
0
 62
     7
 10
67.264399999999995
 20
196.63900000000001
 30
0.0
 11
67.264399999999995
 21
178.12799999999999
 31
0.0
  0
ARC
  5
2D
  8
0
 62
     7
 10
69.079722000000004
 20
178.12994
 30
0.0
 40
0.434653
 50
312.25963300000001
 51
359.73019299999999
  0
ARC
  5
2E
  8
0
 62
     7
 10
68.927218000000011
 20
178.29405199999999
 30
0.0
 40
0.6586750000000001
 50
295.71140200000002
 51
312.47758399999998
  0
ARC
  5
2F
  8
0
 62
     7
 10
68.711422999999996
 20
178.71055100000001
 30
0.0
 40
1.127640999999999
 50
283.39849299999997
 51
296.409335
  0
ARC
  5
30
  8
0
 62
     7
 10
68.495625000000004
 20
179.51523
 30
0.0
 40
1.9605639999999991
 50
274.323691
 51
284.08417200000002
  0
ARC
  5
31
  8
0
 62
     7
 10
68.395471000000001
 20
180.49711500000001
 30
0.0
 40
2.9473180000000001
 50
269.88136200000002
 51
274.82611400000002
  0
LINE
  5
32
  8
0
 62
     7
 10
69.514399999999995
 20
196.63900000000001
 30
0.0
 11
69.514399999999995
 21
178.12799999999999
 31
0.0
  0
ARC
  5
33
  8
0
 62
     7
 10
69.079722000000004
 20
139.823894
 30
0.0
 40
0.434653
 50
0.269807
 51
47.740366999999992
  0
ARC
  5
34
  8
0
 62
     7
 10
68.927218000000011
 20
139.659783
 30
0.0
 40
0.6586750000000001
 50
47.522416
 51
64.288597999999993
  0
ARC
  5
35
  8
0
 62
     7
 10
68.711422999999996
 20
139.24328299999999
 30
0.0
 40
1.127640999999999
 50
63.590664999999987
 51
76.601506999999984
  0
ARC
  5
36
  8
0
 62
     7
 10
68.495625000000004
 20
138.438604
 30
0.0
 40
1.9605639999999991
 50
75.915828000000005
 51
85.676309000000003
  0
ARC
  5
37
  8
0
 62
     7
 10
68.395471000000001
 20
137.45671999999999
 30
0.0
 40
2.9473180000000001
 50
85.173885999999996
 51
90.118638000000004
  0
ARC
  5
38
  8
0
 62
     7
 10
67.699011999999996
 20
139.823894
 30
0.0
 40
0.434653
 50
132.25959399999999
 51
179.73019199999999
  0
ARC
  5
39
  8
0
 62
     7
 10
67.851517000000001
 20
139.659783
 30
0.0
 40
0.6586750000000001
 50
115.711382
 51
132.477564
  0
ARC
  5
3A
  8
0
 62
     7
 10
68.067312000000001
 20
139.24328299999999
 30
0.0
 40
1.127640999999999
 50
103.398473
 51
116.40931500000001
  0
ARC
  5
3B
  8
0
 62
     7
 10
68.283108999999996
 20
138.438604
 30
0.0
 40
1.9605639999999991
 50
94.323671000000004
 51
104.084152
  0
ARC
  5
3C
  8
0
 62
     7
 10
68.383263999999997
 20
137.45671999999999
 30
0.0
 40
2.9473180000000001
 50
89.881342000000004
 51
94.826094000000012
  0
ARC
  5
3D
  8
0
 62
     7
 10
67.699011999999996
 20
139.827988
 30
0.0
 40
0.434653
 50
180.26980800000001
 51
227.74040600000001
  0
ARC
  5
3E
  8
0
 62
     7
 10
67.851517000000001
 20
139.992099
 30
0.0
 40
0.6586750000000001
 50
227.522436
 51
244.28861800000001
  0
ARC
  5
3F
  8
0
 62
     7
 10
68.067312000000001
 20
140.40859800000001
 30
0.0
 40
1.127640999999999
 50
243.59068500000001
 51
256.60152699999998
  0
ARC
  5
40
  8
0
 62
     7
 10
68.283108999999996
 20
141.213278
 30
0.0
 40
1.9605639999999991
 50
255.91584800000001
 51
265.67632900000001
  0
ARC
  5
41
  8
0
 62
     7
 10
68.383263999999997
 20
142.19516200000001
 30
0.0
 40
2.9473180000000001
 50
265.17390599999999
 51
270.11865799999998
  0
LINE
  5
42
  8
0
 62
     7
 10
67.264399999999995
 20
144.56
 30
0.0
 11
67.264399999999995
 21
139.82599999999999
 31
0.0
  0
ARC
  5
43
  8
0
 62
     7
 10
69.079722000000004
 20
139.827988
 30
0.0
 40
0.434653
 50
312.25963300000001
 51
359.73019299999999
  0
ARC
  5
44
  8
0
 62
     7
 10
68.927218000000011
 20
139.992099
 30
0.0
 40
0.6586750000000001
 50
295.71140200000002
 51
312.47758399999998
  0
ARC
  5
45
  8
0
 62
     7
 10
68.711422999999996
 20
140.40859800000001
 30
0.0
 40
1.127640999999999
 50
283.39849299999997
 51
296.409335
  0
ARC
  5
46
  8
0
 62
     7
 10
68.495625000000004
 20
141.213278
 30
0.0
 40
1.9605639999999991
 50
274.323691
 51
284.08417200000002
  0
ARC
  5
47
  8
0
 62
     7
 10
68.395471000000001
 20
142.19516200000001
 30
0.0
 40
2.9473180000000001
 50
269.88136200000002
 51
274.82611400000002
  0
ARC
  5
48
  8
0
 62
     7
 10
68.389368000000005
 20
144.559876
 30
0.0
 40
1.1250029999999991
 50
90.0
 51
179.99996999999999
  0
ARC
  5
49
  8
0
 62
     7
 10
68.389367000000007
 20
144.559876
 30
0.0
 40
1.1250029999999991
 50
0.00001
 51
89.999980000000008
  0
ARC
  5
4A
  8
0
 62
     7
 10
74.012185999999986
 20
143.793734
 30
0.0
 40
3.2094269999999998
 50
59.530582000000003
 51
66.124137000000005
  0
ARC
  5
4B
  8
0
 62
     7
 10
73.326416000000009
 20
142.28707
 30
0.0
 40
4.8647580000000001
 50
65.920932999999991
 51
71.903456999999989
  0
ARC
  5
4C
  8
0
 62
     7
 10
72.502251999999999
 20
139.83971500000001
 30
0.0
 40
7.4470899999999993
 50
71.724952000000002
 51
76.883337999999995
  0
ARC
  5
4D
  8
0
 62
     7
 10
71.575234999999992
 20
136.03722999999999
 30
0.0
 40
11.360811
 50
76.682028000000003
 51
80.646838000000002
  0
ARC
  5
4E
  8
0
 62
     7
 10
70.481718999999984
 20
129.645321
 30
0.0
 40
17.845503999999998
 50
80.517865999999984
 51
85.262739999999994
  0
ARC
  5
4F
  8
0
 62
     7
 10
69.390067999999999
 20
118.375606
 30
0.0
 40
29.167300000000001
 50
84.953946000000002
 51
87.482877999999985
  0
ARC
  5
50
  8
0
 62
     7
 10
68.633034999999992
 20
102.167249
 30
0.0
 40
45.393287999999991
 50
87.426750999999996
 51
90.307116000000008
  0
ARC
  5
51
  8
0
 62
     7
 10
62.766893999999994
 20
143.793734
 30
0.0
 40
3.2094269999999998
 50
113.875844
 51
120.469398
  0
ARC
  5
52
  8
0
 62
     7
 10
63.452663000000001
 20
142.28707
 30
0.0
 40
4.8647580000000001
 50
108.096523
 51
114.079047
  0
ARC
  5
53
  8
0
 62
     7
 10
64.276826999999997
 20
139.83971500000001
 30
0.0
 40
7.4470899999999993
 50
103.116642
 51
108.27502800000001
  0
ARC
  5
54
  8
0
 62
     7
 10
65.203843999999989
 20
136.03722999999999
 30
0.0
 40
11.360811
 50
99.353142000000005
 51
103.317953
  0
ARC
  5
55
  8
0
 62
     7
 10
66.297359999999998
 20
129.645321
 30
0.0
 40
17.845503999999998
 50
94.737239999999986
 51
99.482113999999982
  0
ARC
  5
56
  8
0
 62
     7
 10
67.389010999999996
 20
118.375606
 30
0.0
 40
29.167300000000001
 50
92.517102000000008
 51
95.046034999999989
  0
ARC
  5
57
  8
0
 62
     7
 10
68.146043999999989
 20
102.167249
 30
0.0
 40
45.393287999999991
 50
89.692864000000014
 51
92.573230000000009
  0
LINE
  5
58
  8
0
 62
     7
 10
75.639600000000002
 20
130.56
 30
0.0
 11
75.639600000000002
 21
146.56
 31
0.0
  0
LINE
  5
59
  8
0
 62
     7
 10
61.139499999999991
 20
130.56
 30
0.0
 11
61.139499999999991
 21
146.56
 31
0.0
  0
LINE
  5
5A
  8
0
 62
     7
 10
75.639600000000002
 20
146.56
 30
0.0
 11
61.139499999999991
 21
146.56
 31
0.0
  0
LINE
  5
5B
  8
0
 62
     7
 10
75.639600000000002
 20
130.56
 30
0.0
 11
61.139499999999991
 21
130.56
 31
0.0
  0
LINE
  5
5C
  8
0
 62
     7
 10
75.639600000000002
 20
126.56
 30
0.0
 11
61.139499999999991
 21
126.56
 31
0.0
  0
LINE
  5
5D
  8
0
 62
     7
 10
69.514399999999995
 20
144.56
 30
0.0
 11
69.514399999999995
 21
139.82599999999999
 31
0.0
  0
LINE
  5
5E
  8
0
 62
     7
 10
74.639499999999998
 20
130.56
 30
0.0
 11
74.639499999999998
 21
126.56
 31
0.0
  0
LINE
  5
5F
  8
0
 62
     7
 10
62.139600000000002
 20
130.56
 30
0.0
 11
62.139600000000002
 21
126.56
 31
0.0
  0
LINE
  5
60
  8
0
 62
     7
 10
75.639600000000002
 20
126.56
 30
0.0
 11
75.639600000000002
 21
120.31
 31
0.0
  0
LINE
  5
61
  8
0
 62
     7
 10
61.139499999999991
 20
126.56
 30
0.0
 11
61.139499999999991
 21
120.31
 31
0.0
  0
LINE
  5
62
  8
0
  6
AIGENLINE001
 62
     7
 10
68.389399999999995
 20
69.039500000000004
 30
0.0
 11
68.389399999999995
 21
150.48699999999999
 31
0.0
  0
ARC
  5
63
  8
0
 62
     7
 10
126.982133
 20
129.860209
 30
0.0
 40
11.323935000000001
 50
118.006163
 51
124.002942
  0
ARC
  5
64
  8
0
 62
     7
 10
129.156904
 20
125.926821
 30
0.0
 40
15.818080999999999
 50
113.665809
 51
118.270983
  0
ARC
  5
65
  8
0
 62
     7
 10
131.76451900000001
 20
120.12718
 30
0.0
 40
22.176767000000002
 50
109.157927
 51
113.821692
  0
ARC
  5
66
  8
0
 62
     7
 10
135.005707
 20
111.101645
 30
0.0
 40
31.766273999999999
 50
104.766582
 51
109.33783099999999
  0
ARC
  5
67
  8
0
 62
     7
 10
138.67397399999999
 20
97.818119999999993
 30
0.0
 40
45.546334000000002
 50
100.140193
 51
104.969594
  0
ARC
  5
68
  8
0
 62
     7
 10
140.57568000000001
 20
88.398498000000004
 30
0.0
 40
55.154043999999992
 50
95.170218000000006
 51
100.362094
  0
ARC
  5
69
  8
0
 62
     7
 10
138.55539400000001
 20
109.440658
 30
0.0
 40
34.015635000000003
 50
92.883583999999985
 51
94.975081000000017
  0
ARC
  5
6A
  8
0
 62
     7
 10
137.731741
 20
125.394339
 30
0.0
 40
18.040731000000001
 50
90.267238000000006
 51
92.819975000000014
  0
ARC
  5
6B
  8
0
 62
     7
 10
123.137647
 20
135.89976299999989
 30
0.0
 40
6.3615320000000004
 50
126.628529
 51
134.91928799999999
  0
ARC
  5
6C
  8
0
 62
     7
 10
125.14381
 20
133.31408200000001
 30
0.0
 40
9.6337550000000007
 50
120.164113
 51
127.028828
  0
ARC
  5
6D
  8
0
 62
     7
 10
127.60362499999999
 20
129.26067599999999
 30
0.0
 40
14.374573
 50
115.447551
 51
120.522766
  0
ARC
  5
6E
  8
0
 62
     7
 10
130.417033
 20
123.541882
 30
0.0
 40
20.747568999999999
 50
110.989598
 51
115.677229
  0
ARC
  5
6F
  8
0
 62
     7
 10
134.103478
 20
114.23687200000001
 30
0.0
 40
30.755821999999998
 50
106.199482
 51
111.192266
  0
ARC
  5
70
  8
0
 62
     7
 10
138.217996
 20
100.75159600000001
 30
0.0
 40
44.853957000000001
 50
101.015531
 51
106.440906
  0
ARC
  5
71
  8
0
 62
     7
 10
139.84134900000001
 20
93.532397000000003
 30
0.0
 40
52.250765999999999
 50
95.843931000000026
 51
101.25023
  0
ARC
  5
72
  8
0
 62
     7
 10
138.194693
 20
108.819303
 30
0.0
 40
36.875737000000001
 50
91.851756000000023
 51
95.717150000000004
  0
ARC
  5
73
  8
0
 62
     7
 10
137.66275999999999
 20
121.776235
 30
0.0
 40
23.908649
 50
90.03633600000002
 51
91.581033999999988
  0
ARC
  5
74
  8
0
 62
     7
 10
150.522773
 20
143.797765
 30
0.0
 40
3.204882
 50
59.526578000000001
 51
66.129666
  0
ARC
  5
75
  8
0
 62
     7
 10
149.83570599999999
 20
142.28916799999999
 30
0.0
 40
4.8625049999999996
 50
65.919735000000003
 51
71.90509200000001
  0
ARC
  5
76
  8
0
 62
     7
 10
149.01085900000001
 20
139.83994100000001
 30
0.0
 40
7.4468289999999993
 50
71.725488999999996
 51
76.884294999999995
  0
ARC
  5
77
  8
0
 62
     7
 10
148.08418699999999
 20
136.039526
 30
0.0
 40
11.358456
 50
76.681934999999996
 51
80.647701999999995
  0
ARC
  5
78
  8
0
 62
     7
 10
146.98981599999999
 20
129.64246
 30
0.0
 40
17.848375999999998
 50
80.518421000000004
 51
85.262702000000019
  0
ARC
  5
79
  8
0
 62
     7
 10
145.89810299999999
 20
118.370499
 30
0.0
 40
29.172415000000001
 50
84.954219999999992
 51
87.482761999999994
  0
ARC
  5
7A
  8
0
 62
     7
 10
145.14143200000001
 20
102.170331
 30
0.0
 40
45.390205000000002
 50
87.426674000000006
 51
90.307038000000034
  0
ARC
  5
7B
  8
0
 62
     7
 10
139.27291199999999
 20
143.797765
 30
0.0
 40
3.204882
 50
113.87031399999999
 51
120.47340199999999
  0
ARC
  5
7C
  8
0
 62
     7
 10
139.959979
 20
142.28916799999999
 30
0.0
 40
4.8625049999999996
 50
108.094888
 51
114.08024500000001
  0
ARC
  5
7D
  8
0
 62
     7
 10
140.78482600000001
 20
139.83994100000001
 30
0.0
 40
7.4468289999999993
 50
103.115685
 51
108.274492
  0
ARC
  5
7E
  8
0
 62
     7
 10
141.711499
 20
136.039526
 30
0.0
 40
11.358456
 50
99.35227900000001
 51
103.318045
  0
ARC
  5
7F
  8
0
 62
     7
 10
142.805869
 20
129.64246
 30
0.0
 40
17.848375999999998
 50
94.737278000000018
 51
99.48155899999999
  0
ARC
  5
80
  8
0
 62
     7
 10
143.897582
 20
118.370499
 30
0.0
 40
29.172415000000001
 50
92.517218
 51
95.045760000000001
  0
ARC
  5
81
  8
0
 62
     7
 10
144.65425300000001
 20
102.170331
 30
0.0
 40
45.390205000000002
 50
89.692942000000002
 51
92.573306000000017
  0
LINE
  5
82
  8
0
 62
     7
 10
152.148
 20
130.56
 30
0.0
 11
152.148
 21
146.56
 31
0.0
  0
LINE
  5
83
  8
0
 62
     7
 10
137.648
 20
130.56
 30
0.0
 11
137.648
 21
146.56
 31
0.0
  0
LINE
  5
84
  8
0
 62
     7
 10
152.148
 20
146.56
 30
0.0
 11
137.648
 21
146.56
 31
0.0
  0
LINE
  5
85
  8
0
 62
     7
 10
152.148
 20
130.56
 30
0.0
 11
137.648
 21
130.56
 31
0.0
  0
LINE
  5
86
  8
0
 62
     7
 10
120.649
 20
139.24799999999999
 30
0.0
 11
118.646
 21
140.404
 31
0.0
  0
LINE
  5
87
  8
0
 62
     7
 10
152.148
 20
126.56
 30
0.0
 11
137.648
 21
126.56
 31
0.0
  0
LINE
  5
88
  8
0
 62
     7
 10
151.148
 20
130.56
 30
0.0
 11
151.148
 21
126.56
 31
0.0
  0
LINE
  5
89
  8
0
 62
     7
 10
138.648
 20
130.56
 30
0.0
 11
138.648
 21
126.56
 31
0.0
  0
LINE
  5
8A
  8
0
 62
     7
 10
152.148
 20
126.56
 30
0.0
 11
152.148
 21
120.31
 31
0.0
  0
LINE
  5
8B
  8
0
 62
     7
 10
137.648
 20
126.56
 30
0.0
 11
137.648
 21
120.31
 31
0.0
  0
ARC
  5
8C
  8
0
 62
     7
 10
159.65875500000001
 20
74.082013000000003
 30
0.0
 40
2.5221269999999998
 50
217.12748500000001
 51
269.75822899999997
  0
ARC
  5
8D
  8
0
 62
     7
 10
159.62801200000001
 20
74.099541000000002
 30
0.0
 40
2.5397119999999989
 50
270.45347099999998
 51
322.67664500000001
  0
ARC
  5
8E
  8
0
 62
     7
 10
130.13693000000001
 20
74.082013000000003
 30
0.0
 40
2.5221269999999998
 50
270.24179099999998
 51
322.87253500000003
  0
ARC
  5
8F
  8
0
 62
     7
 10
130.16767300000001
 20
74.099541000000002
 30
0.0
 40
2.5397119999999989
 50
217.323375
 51
269.54654900000003
  0
LINE
  5
90
  8
0
 62
     7
 10
163.703
 20
73.501599999999996
 30
0.0
 11
166.21799999999999
 21
116.61799999999999
 31
0.0
  0
ARC
  5
91
  8
0
 62
     7
 10
162.67026799999999
 20
73.596183999999994
 30
0.0
 40
1.037070999999999
 50
271.89822000000009
 51
354.76590499999998
  0
ARC
  5
92
  8
0
 62
     7
 10
167.250698
 20
116.523301
 30
0.0
 40
1.037070999999999
 50
91.898200000000003
 51
174.765885
  0
LINE
  5
93
  8
0
 62
     7
 10
127.09099999999999
 20
72.559700000000007
 30
0.0
 11
162.70500000000001
 21
72.559700000000007
 31
0.0
  0
LINE
  5
94
  8
0
 62
     7
 10
126.093
 20
73.501599999999996
 30
0.0
 11
123.578
 21
116.61799999999999
 31
0.0
  0
ARC
  5
95
  8
0
 62
     7
 10
127.125378
 20
73.596143000000012
 30
0.0
 40
1.0370289999999991
 50
185.23203699999999
 51
268.10387800000001
  0
LINE
  5
96
  8
0
 62
     7
 10
121.023
 20
117.56
 30
0.0
 11
168.773
 21
117.56
 31
0.0
  0
ARC
  5
97
  8
0
 62
     7
 10
122.54502599999999
 20
116.523343
 30
0.0
 40
1.0370289999999991
 50
5.232016999999999
 51
88.103858000000002
  0
LINE
  5
98
  8
0
 62
     7
 10
169.273
 20
119.81
 30
0.0
 11
169.273
 21
118.06
 31
0.0
  0
ARC
  5
99
  8
0
 62
     7
 10
168.77285000000001
 20
118.060035
 30
0.0
 40
0.5002310000000002
 50
270.00002000000001
 51
359.99999000000003
  0
LINE
  5
9A
  8
0
 62
     7
 10
121.023
 20
120.31
 30
0.0
 11
168.773
 21
120.31
 31
0.0
  0
ARC
  5
9B
  8
0
 62
     7
 10
168.75422699999999
 20
119.79081600000001
 30
0.0
 40
0.5192140000000001
 50
2.1344500000000002
 51
87.944513999999984
  0
LINE
  5
9C
  8
0
 62
     7
 10
120.523
 20
119.81
 30
0.0
 11
120.523
 21
118.06
 31
0.0
  0
ARC
  5
9D
  8
0
 62
     7
 10
121.022835
 20
118.060034
 30
0.0
 40
0.5002310000000002
 50
179.99996999999999
 51
270.00002000000001
  0
ARC
  5
9E
  8
0
 62
     7
 10
121.042107
 20
119.790167
 30
0.0
 40
0.519887
 50
92.124339000000006
 51
177.79665700000001
  0
LINE
  5
9F
  8
0
  6
AIGENLINE001
 62
     7
 10
144.89699999999999
 20
69.039500000000004
 30
0.0
 11
144.89699999999999
 21
150.48699999999999
 31
0.0
  0
ARC
  5
A0
  8
0
 62
     7
 10
83.151207999999997
 20
74.083175999999995
 30
0.0
 40
2.523293999999999
 50
217.14054500000009
 51
269.73727400000001
  0
ARC
  5
A1
  8
0
 62
     7
 10
83.119547999999995
 20
74.100215000000006
 30
0.0
 40
2.5403859999999998
 50
270.45309600000002
 51
322.66912400000001
  0
ARC
  5
A2
  8
0
 62
     7
 10
53.628041000000003
 20
74.083184000000003
 30
0.0
 40
2.523301
 50
270.25890099999998
 51
322.85937200000001
  0
ARC
  5
A3
  8
0
 62
     7
 10
53.659525000000002
 20
74.100552000000008
 30
0.0
 40
2.5407220000000001
 50
217.334655
 51
269.54711200000003
  0
ARC
  5
A4
  8
0
 62
     7
 10
68.389279999999999
 20
203.80202800000001
 30
0.0
 40
7.2499919999999989
 50
270.00070099999999
 51
0.000671
  0
ARC
  5
A5
  8
0
 62
     7
 10
68.38936600000001
 20
203.80211199999999
 30
0.0
 40
7.2500759999999991
 50
179.99996999999999
 51
270.00002000000001
  0
ARC
  5
A6
  8
0
 62
     7
 10
68.389368999999988
 20
203.80211199999999
 30
0.0
 40
7.2500780000000002
 50
90.0
 51
179.99996999999999
  0
ARC
  5
A7
  8
0
 62
     7
 10
68.389279999999999
 20
203.802198
 30
0.0
 40
7.2499919999999989
 50
359.99932899999999
 51
89.999299000000008
  0
LINE
  5
A8
  8
0
 62
     7
 10
87.194500000000005
 20
73.501599999999996
 30
0.0
 11
89.709800000000001
 21
116.61799999999999
 31
0.0
  0
ARC
  5
A9
  8
0
 62
     7
 10
86.161793000000003
 20
73.596183999999994
 30
0.0
 40
1.037070999999999
 50
271.89822000000009
 51
354.76590499999998
  0
ARC
  5
AA
  8
0
 62
     7
 10
90.742567000000008
 20
116.523301
 30
0.0
 40
1.037070999999999
 50
91.898200000000003
 51
174.765885
  0
LINE
  5
AB
  8
0
 62
     7
 10
50.582900000000002
 20
72.559700000000007
 30
0.0
 11
86.196099999999987
 21
72.559700000000007
 31
0.0
  0
LINE
  5
AC
  8
0
 62
     7
 10
49.584499999999998
 20
73.501599999999996
 30
0.0
 11
47.069299999999991
 21
116.61799999999999
 31
0.0
  0
ARC
  5
AD
  8
0
 62
     7
 10
50.61683699999999
 20
73.595708000000002
 30
0.0
 40
1.0365809999999991
 50
185.21019899999999
 51
268.12571600000001
  0
LINE
  5
AE
  8
0
 62
     7
 10
44.514400000000002
 20
117.56
 30
0.0
 11
92.264700000000005
 21
117.56
 31
0.0
  0
ARC
  5
AF
  8
0
 62
     7
 10
46.036960999999991
 20
116.523777
 30
0.0
 40
1.0365809999999991
 50
5.2101790000000001
 51
88.125695999999991
  0
LINE
  5
B0
  8
0
 62
     7
 10
106.455
 20
71.559899999999999
 30
0.0
 11
85.497100000000003
 21
71.559899999999999
 31
0.0
  0
LINE
  5
B1
  8
0
 62
     7
 10
47.014499999999998
 20
106.285
 30
0.0
 11
47.014499999999998
 21
59.656999999999996
 31
0.0
  0
LINE
  5
B2
  8
0
 62
     7
 10
89.764600000000016
 20
106.285
 30
0.0
 11
89.764600000000016
 21
59.656999999999996
 31
0.0
  0
LINE
  5
B3
  8
0
 62
     7
 10
49.225200000000001
 20
60.942100000000003
 30
0.0
 11
47.013399999999997
 21
60.349499999999999
 31
0.0
  0
LINE
  5
B4
  8
0
 62
     7
 10
47.013399999999997
 20
60.349499999999999
 30
0.0
 11
49.225200000000001
 21
59.756900000000002
 31
0.0
  0
LINE
  5
B5
  8
0
 62
     7
 10
49.225200000000001
 20
59.756900000000002
 30
0.0
 11
49.225200000000001
 21
60.942100000000003
 31
0.0
  0
LINE
  5
B6
  8
0
 62
     7
 10
87.554199999999994
 20
59.7714
 30
0.0
 11
89.765299999999996
 21
60.363999999999997
 31
0.0
  0
LINE
  5
B7
  8
0
 62
     7
 10
89.765299999999996
 20
60.363999999999997
 30
0.0
 11
87.554199999999994
 21
60.956499999999998
 31
0.0
  0
LINE
  5
B8
  8
0
 62
     7
 10
87.554199999999994
 20
60.956499999999998
 30
0.0
 11
87.554199999999994
 21
59.7714
 31
0.0
  0
LINE
  5
B9
  8
0
 62
     7
 10
47.014499999999998
 20
60.357100000000003
 30
0.0
 11
89.764600000000016
 21
60.357100000000003
 31
0.0
  0
LINE
  5
BA
  8
0
 62
     7
 10
106.44799999999999
 20
147.56
 30
0.0
 11
75.812700000000007
 21
147.56
 31
0.0
  0
LINE
  5
BB
  8
0
 62
     7
 10
106.34
 20
145.34899999999999
 30
0.0
 11
105.748
 21
147.56
 31
0.0
  0
LINE
  5
BC
  8
0
 62
     7
 10
105.748
 20
147.56
 30
0.0
 11
105.155
 21
145.34899999999999
 31
0.0
  0
LINE
  5
BD
  8
0
 62
     7
 10
105.155
 20
145.34899999999999
 30
0.0
 11
106.34
 21
145.34899999999999
 31
0.0
  0
LINE
  5
BE
  8
0
 62
     7
 10
105.17
 20
73.770300000000006
 30
0.0
 11
105.762
 21
71.559200000000004
 31
0.0
  0
LINE
  5
BF
  8
0
 62
     7
 10
105.762
 20
71.559200000000004
 30
0.0
 11
106.355
 21
73.770300000000006
 31
0.0
  0
LINE
  5
C0
  8
0
 62
     7
 10
106.355
 20
73.770300000000006
 30
0.0
 11
105.17
 21
73.770300000000006
 31
0.0
  0
LINE
  5
C1
  8
0
 62
     7
 10
105.755
 20
147.559
 30
0.0
 11
105.755
 21
71.559899999999999
 31
0.0
  0
LINE
  5
C2
  8
0
 62
     7
 10
92.764600000000002
 20
119.81
 30
0.0
 11
92.764600000000002
 21
118.06
 31
0.0
  0
ARC
  5
C3
  8
0
 62
     7
 10
92.245379999999997
 20
118.079016
 30
0.0
 40
0.519573
 50
272.13313399999998
 51
357.90634899999998
  0
LINE
  5
C4
  8
0
 62
     7
 10
44.514400000000002
 20
120.31
 30
0.0
 11
92.264700000000005
 21
120.31
 31
0.0
  0
ARC
  5
C5
  8
0
 62
     7
 10
92.245762999999997
 20
119.790841
 30
0.0
 40
0.5192020000000001
 50
2.131810999999999
 51
87.907679999999985
  0
LINE
  5
C6
  8
0
 62
     7
 10
44.014499999999991
 20
119.81
 30
0.0
 11
44.014499999999991
 21
118.06
 31
0.0
  0
ARC
  5
C7
  8
0
 62
     7
 10
44.534013999999992
 20
118.07933
 30
0.0
 40
0.519898
 50
182.127003
 51
267.83355299999999
  0
ARC
  5
C8
  8
0
 62
     7
 10
44.533645999999997
 20
119.790511
 30
0.0
 40
0.519543
 50
92.127295000000004
 51
177.83317500000001
  0
LINE
  5
C9
  8
0
 62
     7
 10
46.225200000000001
 20
167.82900000000001
 30
0.0
 11
44.013399999999997
 21
167.23599999999999
 31
0.0
  0
LINE
  5
CA
  8
0
 62
     7
 10
44.013399999999997
 20
167.23599999999999
 30
0.0
 11
46.225200000000001
 21
166.64400000000001
 31
0.0
  0
LINE
  5
CB
  8
0
 62
     7
 10
46.225200000000001
 20
166.64400000000001
 30
0.0
 11
46.225200000000001
 21
167.82900000000001
 31
0.0
  0
LINE
  5
CC
  8
0
 62
     7
 10
90.554199999999994
 20
166.65799999999999
 30
0.0
 11
92.765299999999996
 21
167.25099999999989
 31
0.0
  0
LINE
  5
CD
  8
0
 62
     7
 10
92.765299999999996
 20
167.25099999999989
 30
0.0
 11
90.554199999999994
 21
167.84299999999999
 31
0.0
  0
LINE
  5
CE
  8
0
 62
     7
 10
90.554199999999994
 20
167.84299999999999
 30
0.0
 11
90.554199999999994
 21
166.65799999999999
 31
0.0
  0
LINE
  5
CF
  8
0
 62
     7
 10
44.014499999999991
 20
167.24299999999999
 30
0.0
 11
92.764600000000002
 21
167.24299999999999
 31
0.0
  0
LINE
  5
D0
  8
0
 62
     7
 10
92.764600000000002
 20
179.02699999999999
 30
0.0
 11
92.764600000000002
 21
166.54300000000001
 31
0.0
  0
LINE
  5
D1
  8
0
 62
     7
 10
44.014499999999991
 20
179.02699999999999
 30
0.0
 11
44.014499999999991
 21
166.54300000000001
 31
0.0
  0
LINE
  5
D2
  8
0
 62
     7
 10
36.77150000000001
 20
118.09999999999999
 30
0.0
 11
36.178899999999999
 21
120.31100000000001
 31
0.0
  0
LINE
  5
D3
  8
0
 62
     7
 10
36.178899999999999
 20
120.31100000000001
 30
0.0
 11
35.586300000000001
 21
118.09999999999999
 31
0.0
  0
LINE
  5
D4
  8
0
 62
     7
 10
35.586300000000001
 20
118.09999999999999
 30
0.0
 11
36.77150000000001
 21
118.09999999999999
 31
0.0
  0
LINE
  5
D5
  8
0
 62
     7
 10
35.6008
 20
73.770300000000006
 30
0.0
 11
36.193399999999997
 21
71.559200000000004
 31
0.0
  0
LINE
  5
D6
  8
0
 62
     7
 10
36.193399999999997
 20
71.559200000000004
 30
0.0
 11
36.785899999999998
 21
73.770300000000006
 31
0.0
  0
LINE
  5
D7
  8
0
 62
     7
 10
36.785899999999998
 20
73.770300000000006
 30
0.0
 11
35.6008
 21
73.770300000000006
 31
0.0
  0
LINE
  5
D8
  8
0
 62
     7
 10
36.186100000000003
 20
120.31
 30
0.0
 11
36.186100000000003
 21
71.559899999999999
 31
0.0
  0
LINE
  5
D9
  8
0
 62
     7
 10
43.082599999999992
 20
120.31
 30
0.0
 11
35.47890000000001
 21
120.31
 31
0.0
  0
LINE
  5
DA
  8
0
 62
     7
 10
51.189999999999991
 20
71.559899999999999
 30
0.0
 11
35.47890000000001
 21
71.559899999999999
 31
0.0
  0
LINE
  5
DB
  8
0
 62
     7
 10
106.34
 20
225.96700000000001
 30
0.0
 11
105.748
 21
228.178
 31
0.0
  0
LINE
  5
DC
  8
0
 62
     7
 10
105.748
 20
228.178
 30
0.0
 11
105.155
 21
225.96700000000001
 31
0.0
  0
LINE
  5
DD
  8
0
 62
     7
 10
105.155
 20
225.96700000000001
 30
0.0
 11
106.34
 21
225.96700000000001
 31
0.0
  0
LINE
  5
DE
  8
0
 62
     7
 10
105.17
 20
181.637
 30
0.0
 11
105.762
 21
179.42599999999999
 31
0.0
  0
LINE
  5
DF
  8
0
 62
     7
 10
105.762
 20
179.42599999999999
 30
0.0
 11
106.355
 21
181.637
 31
0.0
  0
LINE
  5
E0
  8
0
 62
     7
 10
106.355
 20
181.637
 30
0.0
 11
105.17
 21
181.637
 31
0.0
  0
LINE
  5
E1
  8
0
 62
     7
 10
105.755
 20
228.17699999999999
 30
0.0
 11
105.755
 21
179.42699999999999
 31
0.0
  0
LINE
  5
E2
  8
0
 62
     7
 10
106.455
 20
228.17699999999999
 30
0.0
 11
93.164899999999989
 21
228.17699999999999
 31
0.0
  0
LINE
  5
E3
  8
0
 62
     7
 10
106.455
 20
179.42699999999999
 30
0.0
 11
93.164899999999989
 21
179.42699999999999
 31
0.0
  0
LINE
  5
E4
  8
0
 62
     7
 10
86.764600000000002
 20
186.42699999999999
 30
0.0
 11
86.764600000000002
 21
221.17699999999999
 31
0.0
  0
LINE
  5
E5
  8
0
 62
     7
 10
45.014200000000002
 20
179.42699999999999
 30
0.0
 11
67.264399999999995
 21
179.42699999999999
 31
0.0
  0
LINE
  5
E6
  8
0
 62
     7
 10
69.514399999999995
 20
179.42699999999999
 30
0.0
 11
91.764799999999994
 21
179.42699999999999
 31
0.0
  0
LINE
  5
E7
  8
0
 62
     7
 10
51.014299999999999
 20
185.42699999999999
 30
0.0
 11
67.264399999999995
 21
185.42699999999999
 31
0.0
  0
LINE
  5
E8
  8
0
 62
     7
 10
69.514399999999995
 20
185.42699999999999
 30
0.0
 11
85.764799999999994
 21
185.42699999999999
 31
0.0
  0
ARC
  5
E9
  8
0
 62
     7
 10
85.726143000000008
 20
186.46531100000001
 30
0.0
 40
1.0391399999999991
 50
272.13286099999999
 51
357.90662200000003
  0
LINE
  5
EA
  8
0
 62
     7
 10
50.014499999999998
 20
186.42699999999999
 30
0.0
 11
50.014499999999998
 21
221.17699999999999
 31
0.0
  0
ARC
  5
EB
  8
0
 62
     7
 10
51.053178000000003
 20
186.465552
 30
0.0
 40
1.03939
 50
182.10620199999991
 51
267.854355
  0
LINE
  5
EC
  8
0
 62
     7
 10
51.014299999999999
 20
222.17699999999999
 30
0.0
 11
85.764799999999994
 21
222.17699999999999
 31
0.0
  0
ARC
  5
ED
  8
0
 62
     7
 10
85.726404000000002
 20
221.13915700000001
 30
0.0
 40
1.0388889999999991
 50
2.109067
 51
87.881051999999997
  0
ARC
  5
EE
  8
0
 62
     7
 10
51.052900000000001
 20
221.13893200000001
 30
0.0
 40
1.039121999999999
 50
92.130863000000005
 51
177.87897799999999
  0
LINE
  5
EF
  8
0
  6
AIGENLINE001
 62
     7
 10
68.389399999999995
 20
175.477
 30
0.0
 11
68.389399999999995
 21
231.83799999999999
 31
0.0
  0
LINE
  5
F0
  8
0
 62
     7
 10
92.764600000000002
 20
180.42699999999999
 30
0.0
 11
92.764600000000002
 21
227.17699999999999
 31
0.0
  0
LINE
  5
F1
  8
0
  6
AIGENLINE001
 62
     7
 10
40.510800000000003
 20
203.80199999999999
 30
0.0
 11
96.521500000000003
 21
203.80199999999999
 31
0.0
  0
ARC
  5
F2
  8
0
 62
     7
 10
91.726178000000004
 20
180.46528900000001
 30
0.0
 40
1.0391330000000001
 50
272.13181600000001
 51
357.88793399999997
  0
LINE
  5
F3
  8
0
 62
     7
 10
44.014499999999991
 20
180.42699999999999
 30
0.0
 11
44.014499999999991
 21
227.17699999999999
 31
0.0
  0
ARC
  5
F4
  8
0
 62
     7
 10
45.052833
 20
180.46522100000001
 30
0.0
 40
1.0390619999999999
 50
182.10846599999991
 51
267.871824
  0
LINE
  5
F5
  8
0
 62
     7
 10
45.014200000000002
 20
228.17699999999999
 30
0.0
 11
91.764799999999994
 21
228.17699999999999
 31
0.0
  0
ARC
  5
F6
  8
0
 62
     7
 10
91.726027999999985
 20
227.13878099999999
 30
0.0
 40
1.0392950000000001
 50
2.1298840000000001
 51
87.860235000000003
  0
ARC
  5
F7
  8
0
 62
     7
 10
45.052883999999999
 20
227.138948
 30
0.0
 40
1.039121999999999
 50
92.130863000000005
 51
177.87897799999999
  0
LINE
  5
F8
  8
_________2
 62
     7
 10
205.30099999999999
 20
127.411
 30
0.0
 11
183.55000000000001
 21
127.411
 31
0.0
  0
LINE
  5
F9
  8
_________2
 62
     7
 10
100.3
 20
-4.0910799999999998
 30
0.0
 11
100.3
 21
-21.071400000000001
 31
0.0
  0
LINE
  5
FA
  8
_________2
 62
     7
 10
100.3
 20
275.93099999999998
 30
0.0
 11
100.3
 21
258.911
 31
0.0
  0
LINE
  5
FB
  8
_________2
 62
     7
 10
17.049499999999998
 20
127.411
 30
0.0
 11
-4.70052
 21
127.411
 31
0.0
  0
LINE
  5
FC
  8
_________2
 62
     7
 10
76.741
 20
29.8047
 30
0.0
 11
74.554699999999997
 21
29.8047
 31
0.0
  0
LINE
  5
FD
  8
_________2
 62
     7
 10
77.233699999999999
 20
29.8047
 30
0.0
 11
76.981499999999997
 21
29.8047
 31
0.0
  0
LINE
  5
FE
  8
_________2
 62
     7
 10
77.726299999999995
 20
29.8047
 30
0.0
 11
80.651200000000003
 21
29.8047
 31
0.0
  0
LINE
  5
FF
  8
_________2
 62
     7
 10
77.233699999999999
 20
29.8047
 30
0.0
 11
77.485500000000002
 21
29.8047
 31
0.0
  0
LINE
  5
100
  8
_________2
 62
     7
 10
70.837100000000007
 20
29.8047
 30
0.0
 11
68.650499999999994
 21
29.8047
 31
0.0
  0
LINE
  5
101
  8
_________2
 62
     7
 10
71.329400000000007
 20
29.8047
 30
0.0
 11
71.077600000000004
 21
29.8047
 31
0.0
  0
LINE
  5
102
  8
_________2
 62
     7
 10
71.329400000000007
 20
30.2974
 30
0.0
 11
71.329400000000007
 21
32.484400000000001
 31
0.0
  0
LINE
  5
103
  8
_________2
 62
     7
 10
71.329400000000007
 20
29.8047
 30
0.0
 11
71.329400000000007
 21
30.056899999999999
 31
0.0
  0
LINE
  5
104
  8
_________2
 62
     7
 10
71.822100000000006
 20
29.8047
 30
0.0
 11
74.009
 21
29.8047
 31
0.0
  0
LINE
  5
105
  8
_________2
 62
     7
 10
71.329400000000007
 20
29.8047
 30
0.0
 11
71.581599999999995
 21
29.8047
 31
0.0
  0
LINE
  5
106
  8
_________2
 62
     7
 10
71.329400000000007
 20
29.312799999999999
 30
0.0
 11
71.329400000000007
 21
27.125800000000002
 31
0.0
  0
LINE
  5
107
  8
_________2
 62
     7
 10
71.329400000000007
 20
29.8047
 30
0.0
 11
71.329400000000007
 21
29.5532
 31
0.0
  0
LINE
  5
108
  8
_________2
 62
     7
 10
75.040499999999994
 20
28.5852
 30
0.0
 11
80.218500000000006
 21
27.720400000000001
 31
0.0
  0
LINE
  5
109
  8
_________2
 62
     7
 10
75.040499999999994
 20
31.0243
 30
0.0
 11
80.218500000000006
 21
31.889700000000001
 31
0.0
  0
LINE
  5
10A
  8
_________2
 62
     7
 10
80.218500000000006
 20
27.720400000000001
 30
0.0
 11
80.218500000000006
 21
31.889700000000001
 31
0.0
  0
LINE
  5
10B
  8
_________2
 62
     7
 10
75.040499999999994
 20
28.5852
 30
0.0
 11
75.040499999999994
 21
31.0243
 31
0.0
  0
ARC
  5
10C
  8
_________2
 62
     7
 10
71.28285600000001
 20
29.757811
 30
0.0
 40
1.2673589999999999
 50
2.122214
 51
87.893958999999995
  0
ARC
  5
10D
  8
_________2
 62
     7
 10
71.375959999999992
 20
29.758213000000001
 30
0.0
 40
1.2669559999999991
 50
92.104701000000006
 51
177.89526900000001
  0
ARC
  5
10E
  8
_________2
 62
     7
 10
71.376357999999996
 20
29.851671
 30
0.0
 40
1.2673680000000001
 50
182.12203600000001
 51
267.877993
  0
ARC
  5
10F
  8
_________2
 62
     7
 10
71.282531999999989
 20
29.851998999999999
 30
0.0
 40
1.267695999999999
 50
272.12015300000002
 51
357.863674
  0
ARC
  5
110
  8
_________2
 62
     7
 10
71.329430000000002
 20
29.804742999999998
 30
0.0
 40
2.0849849999999992
 50
0.00001
 51
89.999980000000008
  0
ARC
  5
111
  8
_________2
 62
     7
 10
71.329603000000006
 20
29.804915000000001
 30
0.0
 40
2.084813
 50
90.004733999999999
 51
180.00474399999999
  0
ARC
  5
112
  8
_________2
 62
     7
 10
71.409106000000008
 20
29.884775999999999
 30
0.0
 40
2.1657950000000001
 50
182.11776599999999
 51
267.89173399999999
  0
ARC
  5
113
  8
_________2
 62
     7
 10
71.249459000000002
 20
29.885429999999999
 30
0.0
 40
2.1664590000000001
 50
272.11546800000002
 51
357.86560400000002
  0
TEXT
  5
114
  8
_________2
 62
     7
 10
104.605
 20
1.6794899999999999
 30
0.0
 40
3.0923400000000001
  1
図番
 41
0.5
  0
LINE
  5
115
  8
_________2
 62
     7
 10
103.55
 20
5.9087199999999989
 30
0.0
 11
183.55099999999999
 21
5.9087199999999989
 31
0.0
  0
TEXT
  5
116
  8
_________2
 62
     7
 10
104.605
 20
11.6793
 30
0.0
 40
3.0923400000000001
  1
品番
 41
0.5
  0
TEXT
  5
117
  8
_________2
 62
     7
 10
104.605
 20
31.818100000000001
 30
0.0
 40
3.0923400000000001
  1
名称
 41
0.5
  0
TEXT
  5
118
  8
_________2
 62
     7
 10
91.845058333333341
 20
26.821999999999999
 30
0.0
 40
3.6545800000000002
  1
mm
 41
0.5
 72
     1
 11
93.367800000000003
 21
26.821999999999999
 31
0.0
  0
TEXT
  5
119
  8
_________2
 62
     7
 10
85.643199999999993
 20
31.818100000000001
 30
0.0
 40
3.0923400000000001
  1
単位
 41
0.5
  0
TEXT
  5
11A
  8
_________2
 62
     7
 10
85.643199999999993
 20
19.410799999999998
 30
0.0
 40
3.0923400000000001
  1
尺度
 41
0.5
  0
TEXT
  5
11B
  8
_________2
 62
     7
 10
90.548758666666686
 20
13.2179
 30
0.0
 40
3.6545800000000002
  1
1 ： 2
 41
0.5
 72
     1
 11
93.959699999999998
 21
13.2179
 31
0.0
  0
TEXT
  5
11C
  8
_________2
 62
     7
 10
136.82651250000001
 20
9.1078600000000005
 30
0.0
 40
3.9357000000000002
  1
ECS17210
 41
0.5
 72
     1
 11
143.55000000000001
 21
9.1078600000000005
 31
0.0
  0
TEXT
  5
11D
  8
_________2
 62
     7
 10
136.82651250000001
 20
-0.8926299999999999
 30
0.0
 40
3.9357000000000002
  1
ECS17210
 41
0.5
 72
     1
 11
143.55000000000001
 21
-0.8926299999999999
 31
0.0
  0
TEXT
  5
11E
  8
_________2
 62
     7
 10
109.179
 20
24.2257
 30
0.0
 40
3.9357000000000002
  1
リエゾン　ソープディスペンサー
 41
0.5
  0
TEXT
  5
11F
  8
_________2
 62
     7
 10
39.425300333333333
 20
13.603
 30
0.0
 40
3.6545800000000002
  1
早川
 41
0.5
 72
     1
 11
41.313499999999998
 21
13.603
 31
0.0
  0
TEXT
  5
120
  8
_________2
 62
     7
 10
20.790090666666661
 20
13.603
 30
0.0
 40
3.6545800000000002
  1
石原
 41
0.5
 72
     1
 11
22.7392
 21
13.603
 31
0.0
  0
TEXT
  5
121
  8
_________2
 62
     7
 10
67.785399999999996
 20
13.2179
 30
0.0
 40
3.6545800000000002
  1
16.01.16
 41
0.5
  0
TEXT
  5
122
  8
_________2
 62
     7
 10
66.593100000000007
 20
19.410799999999998
 30
0.0
 40
3.0923400000000001
  1
日付
 41
0.5
  0
TEXT
  5
123
  8
_________2
 62
     7
 10
29.639399999999998
 20
19.410799999999998
 30
0.0
 40
3.0923400000000001
  1
検図
 41
0.5
  0
TEXT
  5
124
  8
_________2
 62
     7
 10
18.021100000000001
 20
5.21143
 30
0.0
 40
3.0923400000000001
  1
備考
 41
0.5
  0
TEXT
  5
125
  8
_________2
 62
     7
 10
18.021100000000001
 20
19.410799999999998
 30
0.0
 40
3.0923400000000001
  1
製図
 41
0.5
  0
TEXT
  5
126
  8
_________2
 62
     7
 10
23.788465333333338
 20
27.936800000000002
 30
0.0
 40
4.4979399999999989
  1
セラトレーディング株式会社
 41
0.5
 72
     1
 11
41.180500000000002
 21
27.936800000000002
 31
0.0
  0
LINE
  5
127
  8
_________2
 62
     7
 10
183.55099999999999
 20
-4.0910799999999998
 30
0.0
 11
17.049499999999998
 21
-4.0910799999999998
 31
0.0
  0
LINE
  5
128
  8
_________2
 62
     7
 10
17.049499999999998
 20
-4.0910799999999998
 30
0.0
 11
17.049499999999998
 21
258.911
 31
0.0
  0
LINE
  5
129
  8
_________2
 62
     7
 10
17.049499999999998
 20
258.911
 30
0.0
 11
183.55099999999999
 21
258.911
 31
0.0
  0
LINE
  5
12A
  8
_________2
 62
     7
 10
183.55099999999999
 20
258.911
 30
0.0
 11
183.55099999999999
 21
-4.0910799999999998
 31
0.0
  0
LINE
  5
12B
  8
_________2
 62
     7
 10
65.549599999999998
 20
9.4089600000000004
 30
0.0
 11
65.549599999999998
 21
35.908799999999999
 31
0.0
  0
LINE
  5
12C
  8
_________2
 62
     7
 10
84.549700000000016
 20
9.4089600000000004
 30
0.0
 11
84.549700000000016
 21
35.908799999999999
 31
0.0
  0
LINE
  5
12D
  8
_________2
 62
     7
 10
103.55
 20
-4.0910799999999998
 30
0.0
 11
103.55
 21
35.908799999999999
 31
0.0
  0
LINE
  5
12E
  8
_________2
 62
     7
 10
28.549299999999999
 20
9.4089600000000004
 30
0.0
 11
28.549299999999999
 21
23.409199999999998
 31
0.0
  0
LINE
  5
12F
  8
_________2
 62
     7
 10
17.049499999999998
 20
9.4089600000000004
 30
0.0
 11
103.55
 21
9.4089600000000004
 31
0.0
  0
LINE
  5
130
  8
_________2
 62
     7
 10
17.049499999999998
 20
23.409199999999998
 30
0.0
 11
103.55
 21
23.409199999999998
 31
0.0
  0
LINE
  5
131
  8
_________2
 62
     7
 10
103.55
 20
15.9085
 30
0.0
 11
183.55099999999999
 21
15.9085
 31
0.0
  0
LINE
  5
132
  8
_________2
 62
     7
 10
17.049499999999998
 20
35.908799999999999
 30
0.0
 11
183.55099999999999
 21
35.908799999999999
 31
0.0
  0
ENDSEC
  0
EOF
