  0
SECTION
  2
HEADER
  9
$ACADVER
  1
AC1009
  9
$INSBASE
 10
0.0
 20
0.0
 30
0.0
  9
$EXTMIN
 10
-4.70052
 20
-21.071400000000001
 30
0.0
  9
$EXTMAX
 10
205.30099999999999
 20
275.93099999999998
 30
0.0
  9
$LIMMIN
 10
0.0
 20
0.0
  9
$LIMMAX
 10
12.0
 20
9.0
  9
$ORTHOMODE
 70
     0
  9
$REGENMODE
 70
     1
  9
$FILLMODE
 70
     1
  9
$QTEXTMODE
 70
     0
  9
$MIRRTEXT
 70
     1
  9
$DRAGMODE
 70
     2
  9
$LTSCALE
 40
1.0
  9
$OSMODE
 70
    37
  9
$ATTMODE
 70
     1
  9
$TEXTSIZE
 40
0.0
  9
$TRACEWID
 40
0.05
  9
$TEXTSTYLE
  7
STANDARD
  9
$CLAYER
  8
0
  9
$CELTYPE
  6
CONTINUOUS
  9
$CECOLOR
 62
   256
  9
$DIMSCALE
 40
1.0
  9
$DIMASZ
 40
0.18
  9
$DIMEXO
 40
0.0625
  9
$DIMDLI
 40
0.38
  9
$DIMRND
 40
0.0
  9
$DIMDLE
 40
0.0
  9
$DIMEXE
 40
0.18
  9
$DIMTP
 40
0.0
  9
$DIMTM
 40
0.0
  9
$DIMTXT
 40
0.18
  9
$DIMCEN
 40
0.09
  9
$DIMTSZ
 40
0.0
  9
$DIMTOL
 70
     0
  9
$DIMLIM
 70
     0
  9
$DIMTIH
 70
     1
  9
$DIMTOH
 70
     1
  9
$DIMSE1
 70
     0
  9
$DIMSE2
 70
     0
  9
$DIMTAD
 70
     0
  9
$DIMZIN
 70
     0
  9
$DIMBLK
  1

  9
$DIMASO
 70
     1
  9
$DIMSHO
 70
     1
  9
$DIMPOST
  1

  9
$DIMAPOST
  1

  9
$DIMALT
 70
     0
  9
$DIMALTD
 70
     2
  9
$DIMALTF
 40
25.399999999999999
  9
$DIMLFAC
 40
1.0
  9
$DIMTOFL
 70
     0
  9
$DIMTVP
 40
0.0
  9
$DIMTIX
 70
     0
  9
$DIMSOXD
 70
     0
  9
$DIMSAH
 70
     0
  9
$DIMBLK1
  1

  9
$DIMBLK2
  1

  9
$DIMSTYLE
  2
STANDARD
  9
$DIMCLRD
 70
     0
  9
$DIMCLRE
 70
     0
  9
$DIMCLRT
 70
     0
  9
$DIMTFAC
 40
1.0
  9
$DIMGAP
 40
0.09
  9
$LUNITS
 70
     2
  9
$LUPREC
 70
     4
  9
$SKETCHINC
 40
0.1
  9
$FILLETRAD
 40
0.0
  9
$AUNITS
 70
     0
  9
$AUPREC
 70
     0
  9
$MENU
  1
.
  9
$ELEVATION
 40
0.0
  9
$PELEVATION
 40
0.0
  9
$THICKNESS
 40
0.0
  9
$LIMCHECK
 70
     0
  9
$BLIPMODE
 70
     0
  9
$CHAMFERA
 40
0.0
  9
$CHAMFERB
 40
0.0
  9
$SKPOLY
 70
     0
  9
$TDCREATE
 40
2444972.375
  9
$TDUPDATE
 40
2457479.250151481
  9
$TDINDWG
 40
0.0000280324
  9
$TDUSRTIMER
 40
0.0000280324
  9
$USRTIMER
 70
     1
  9
$ANGBASE
 50
0.0
  9
$ANGDIR
 70
     0
  9
$PDMODE
 70
     0
  9
$PDSIZE
 40
0.0
  9
$PLINEWID
 40
0.0
  9
$COORDS
 70
     1
  9
$SPLFRAME
 70
     0
  9
$SPLINETYPE
 70
     6
  9
$SPLINESEGS
 70
     8
  9
$ATTDIA
 70
     1
  9
$ATTREQ
 70
     1
  9
$HANDLING
 70
     1
  9
$HANDSEED
  5
188
  9
$SURFTAB1
 70
     6
  9
$SURFTAB2
 70
     6
  9
$SURFTYPE
 70
     6
  9
$SURFU
 70
     6
  9
$SURFV
 70
     6
  9
$UCSNAME
  2

  9
$UCSORG
 10
0.0
 20
0.0
 30
0.0
  9
$UCSXDIR
 10
1.0
 20
0.0
 30
0.0
  9
$UCSYDIR
 10
0.0
 20
1.0
 30
0.0
  9
$PUCSNAME
  2

  9
$PUCSORG
 10
0.0
 20
0.0
 30
0.0
  9
$PUCSXDIR
 10
1.0
 20
0.0
 30
0.0
  9
$PUCSYDIR
 10
0.0
 20
1.0
 30
0.0
  9
$USERI1
 70
     0
  9
$USERI2
 70
     0
  9
$USERI3
 70
     0
  9
$USERI4
 70
     0
  9
$USERI5
 70
     0
  9
$USERR1
 40
0.0
  9
$USERR2
 40
0.0
  9
$USERR3
 40
0.0
  9
$USERR4
 40
0.0
  9
$USERR5
 40
0.0
  9
$WORLDVIEW
 70
     1
  9
$SHADEDGE
 70
     3
  9
$SHADEDIF
 70
    70
  9
$TILEMODE
 70
     1
  9
$MAXACTVP
 70
    48
  9
$PLIMCHECK
 70
     0
  9
$PEXTMIN
 10
1.0000000000000000E+020
 20
1.0000000000000000E+020
 30
1.0000000000000000E+020
  9
$PEXTMAX
 10
-1.0000000000000000E+020
 20
-1.0000000000000000E+020
 30
-1.0000000000000000E+020
  9
$PLIMMIN
 10
0.0
 20
0.0
  9
$PLIMMAX
 10
12.0
 20
9.0
  9
$UNITMODE
 70
     0
  9
$VISRETAIN
 70
     1
  9
$PLINEGEN
 70
     0
  9
$PSLTSCALE
 70
     1
  0
ENDSEC
  0
SECTION
  2
TABLES
  0
TABLE
  2
VPORT
 70
     1
  0
VPORT
  2
*ACTIVE
 70
     0
 10
0.0
 20
0.0
 11
1.0
 21
1.0
 12
173.0589517274982
 22
127.4298
 13
0.0
 23
0.0
 14
1.0
 24
1.0
 15
0.0
 25
0.0
 16
0.0
 26
0.0
 36
1.0
 17
0.0
 27
0.0
 37
0.0
 40
289.64168420534031
 41
2.1063583815028899
 42
50.0
 43
0.0
 44
0.0
 50
0.0
 51
0.0
 71
     0
 72
   100
 73
     1
 74
     1
 75
     0
 76
     0
 77
     0
 78
     0
  0
ENDTAB
  0
TABLE
  2
LTYPE
 70
     1
  0
LTYPE
  2
CONTINUOUS
 70
     0
  3
Solid line
 72
    65
 73
     0
 40
0.0
  0
ENDTAB
  0
TABLE
  2
LAYER
 70
     2
  0
LAYER
  2
0
 70
     0
 62
     7
  6
CONTINUOUS
  0
LAYER
  2
_________2
 70
     0
 62
     7
  6
CONTINUOUS
  0
ENDTAB
  0
TABLE
  2
STYLE
 70
     1
  0
STYLE
  2
STANDARD
 70
     0
 40
0.0
 41
0.0
 50
0.0
 71
     0
 42
0.0
  3
TXT
  4
EXTFONT.SHX
  0
ENDTAB
  0
TABLE
  2
VIEW
 70
     0
  0
ENDTAB
  0
TABLE
  2
UCS
 70
     0
  0
ENDTAB
  0
TABLE
  2
APPID
 70
     3
  0
APPID
  2
ACAD
 70
     0
  0
APPID
  2
ACAD_NAV_VCDISPLAY
 70
     0
  0
APPID
  2
ACAD_MLEADERVER
 70
     0
  0
ENDTAB
  0
TABLE
  2
DIMSTYLE
 70
     1
  0
DIMSTYLE
  2
STANDARD
 70
     0
  3

  4

  5

  6

  7

 40
1.0
 41
0.18
 42
0.0625
 43
0.38
 44
0.18
 45
0.0
 46
0.0
 47
0.0
 48
0.0
140
0.18
141
0.09
142
0.0
143
25.399999999999999
144
1.0
145
0.0
146
1.0
147
0.09
 71
     0
 72
     0
 73
     1
 74
     1
 75
     0
 76
     0
 77
     0
 78
     0
170
     0
171
     2
172
     0
173
     0
174
     0
175
     0
176
     0
177
     0
178
     0
  0
ENDTAB
  0
ENDSEC
  0
SECTION
  2
BLOCKS
  0
BLOCK
  8
0
  2
$MODEL_SPACE
 70
     0
 10
0.0
 20
0.0
 30
0.0
  3
$MODEL_SPACE
  1

  0
ENDBLK
  5
1A
  8
0
  0
BLOCK
 67
     1
  8
0
  2
$PAPER_SPACE
 70
     0
 10
0.0
 20
0.0
 30
0.0
  3
$PAPER_SPACE
  1

  0
ENDBLK
  5
17
 67
     1
  8
0
  0
ENDSEC
  0
SECTION
  2
ENTITIES
  0
TEXT
  5
21
  8
0
 62
     7
 10
147.10676749999999
 20
88.836100000000002
 30
0.0
 40
3.092309999999999
  1
85.5
 41
0.5
 72
     1
 11
149.42599999999999
 21
88.836100000000002
 31
0.0
  0
TEXT
  5
22
  8
0
 62
     7
 10
114.938
 20
177.04674499999999
 30
0.0
 40
3.0923400000000001
  1
97.5
 50
90.0
 41
0.5
 72
     1
 11
114.938
 21
179.36600000000001
 31
0.0
  0
TEXT
  5
23
  8
0
 62
     7
 10
114.938
 20
103.436525
 30
0.0
 40
3.0923400000000001
  1
39
 50
90.0
 41
0.5
 72
     1
 11
114.938
 21
104.72499999999999
 31
0.0
  0
TEXT
  5
24
  8
0
 62
     7
 10
69.758134999999996
 20
153.70099999999999
 30
0.0
 40
3.0923400000000001
  1
198
 41
0.5
 72
     1
 11
71.561999999999998
 21
153.70099999999999
 31
0.0
  0
LINE
  5
25
  8
0
 62
     7
 10
163.90899999999999
 20
102.392
 30
0.0
 11
163.90899999999999
 21
110.492
 31
0.0
  0
LINE
  5
26
  8
0
 62
     7
 10
165.67599999999999
 20
110.492
 30
0.0
 11
163.90899999999999
 21
110.492
 31
0.0
  0
LINE
  5
27
  8
0
 62
     7
 10
165.67599999999999
 20
110.492
 30
0.0
 11
165.67599999999999
 21
110.72499999999999
 31
0.0
  0
LINE
  5
28
  8
0
 62
     7
 10
163.90899999999999
 20
102.392
 30
0.0
 11
163.67599999999999
 21
102.392
 31
0.0
  0
LINE
  5
29
  8
0
 62
     7
 10
163.67599999999999
 20
97.824400000000011
 30
0.0
 11
163.67599999999999
 21
87.436000000000007
 31
0.0
  0
LINE
  5
2A
  8
0
 62
     7
 10
137.386
 20
88.721800000000002
 30
0.0
 11
135.17599999999999
 21
88.129199999999997
 31
0.0
  0
LINE
  5
2B
  8
0
 62
     7
 10
135.17599999999999
 20
88.129199999999997
 30
0.0
 11
137.386
 21
87.536600000000007
 31
0.0
  0
LINE
  5
2C
  8
0
 62
     7
 10
137.386
 20
87.536600000000007
 30
0.0
 11
137.386
 21
88.721800000000002
 31
0.0
  0
LINE
  5
2D
  8
0
 62
     7
 10
161.46600000000001
 20
87.551100000000005
 30
0.0
 11
163.67699999999999
 21
88.143699999999995
 31
0.0
  0
LINE
  5
2E
  8
0
 62
     7
 10
163.67699999999999
 20
88.143699999999995
 30
0.0
 11
161.46600000000001
 21
88.736199999999997
 31
0.0
  0
LINE
  5
2F
  8
0
 62
     7
 10
161.46600000000001
 20
88.736199999999997
 30
0.0
 11
161.46600000000001
 21
87.551100000000005
 31
0.0
  0
LINE
  5
30
  8
0
 62
     7
 10
135.17599999999999
 20
88.136099999999999
 30
0.0
 11
163.67599999999999
 21
88.136099999999999
 31
0.0
  0
LINE
  5
31
  8
0
 62
     7
 10
135.17599999999999
 20
97.824400000000011
 30
0.0
 11
135.17599999999999
 21
87.436000000000007
 31
0.0
  0
LINE
  5
32
  8
0
 62
     7
 10
163.17599999999999
 20
99.224500000000006
 30
0.0
 11
163.17599999999999
 21
110.892
 31
0.0
  0
LINE
  5
33
  8
0
 62
     7
 10
165.67599999999999
 20
111.22499999999999
 30
0.0
 11
163.50899999999999
 21
111.22499999999999
 31
0.0
  0
ARC
  5
34
  8
0
 62
     7
 10
163.52250000000001
 20
110.87830599999999
 30
0.0
 40
0.346863
 50
92.164453000000009
 51
177.717015
  0
ARC
  5
35
  8
0
 62
     7
 10
162.65701200000001
 20
99.243188000000004
 30
0.0
 40
0.5192350000000001
 50
272.1366470000001
 51
357.94233800000001
  0
LINE
  5
36
  8
0
 62
     7
 10
163.67599999999999
 20
99.224500000000006
 30
0.0
 11
163.67599999999999
 21
110.72499999999999
 31
0.0
  0
ARC
  5
37
  8
0
 62
     7
 10
162.63773999999989
 20
99.263175000000004
 30
0.0
 40
1.0391209999999991
 50
272.1304970000001
 51
357.86951299999998
  0
LINE
  5
38
  8
0
 62
     7
 10
165.67599999999999
 20
110.72499999999999
 30
0.0
 11
163.67599999999999
 21
110.72499999999999
 31
0.0
  0
LINE
  5
39
  8
0
 62
     7
 10
165.67599999999999
 20
110.72499999999999
 30
0.0
 11
165.67599999999999
 21
111.226
 31
0.0
  0
LINE
  5
3A
  8
0
 62
     7
 10
135.67599999999999
 20
99.224500000000006
 30
0.0
 11
135.67599999999999
 21
110.892
 31
0.0
  0
LINE
  5
3B
  8
0
 62
     7
 10
133.17599999999999
 20
111.22499999999999
 30
0.0
 11
135.34299999999999
 21
111.22499999999999
 31
0.0
  0
ARC
  5
3C
  8
0
 62
     7
 10
135.32970299999999
 20
110.87903
 30
0.0
 40
0.3461530000000001
 50
2.1677309999999999
 51
87.772916000000009
  0
LINE
  5
3D
  8
0
 62
     7
 10
136.17599999999999
 20
98.724300000000014
 30
0.0
 11
162.67599999999999
 21
98.724300000000014
 31
0.0
  0
ARC
  5
3E
  8
0
 62
     7
 10
136.175839
 20
99.224545000000006
 30
0.0
 40
0.5002310000000002
 50
179.99996999999999
 51
270.00002000000001
  0
LINE
  5
3F
  8
0
 62
     7
 10
136.17599999999999
 20
98.224800000000002
 30
0.0
 11
162.67599999999999
 21
98.224800000000002
 31
0.0
  0
LINE
  5
40
  8
0
 62
     7
 10
135.17599999999999
 20
99.224500000000006
 30
0.0
 11
135.17599999999999
 21
110.72499999999999
 31
0.0
  0
ARC
  5
41
  8
0
 62
     7
 10
136.21479199999999
 20
99.263140000000007
 30
0.0
 40
1.0390989999999991
 50
182.12864300000001
 51
267.85163999999997
  0
LINE
  5
42
  8
0
 62
     7
 10
134.94300000000001
 20
102.392
 30
0.0
 11
134.94300000000001
 21
110.492
 31
0.0
  0
LINE
  5
43
  8
0
 62
     7
 10
133.17599999999999
 20
110.492
 30
0.0
 11
134.94300000000001
 21
110.492
 31
0.0
  0
LINE
  5
44
  8
0
 62
     7
 10
133.17599999999999
 20
110.492
 30
0.0
 11
133.17599999999999
 21
110.72499999999999
 31
0.0
  0
LINE
  5
45
  8
0
 62
     7
 10
134.94300000000001
 20
102.392
 30
0.0
 11
135.17599999999999
 21
102.392
 31
0.0
  0
LINE
  5
46
  8
0
 62
     7
 10
133.17599999999999
 20
110.72499999999999
 30
0.0
 11
135.17599999999999
 21
110.72499999999999
 31
0.0
  0
LINE
  5
47
  8
0
 62
     7
 10
133.17599999999999
 20
110.72499999999999
 30
0.0
 11
133.17599999999999
 21
111.226
 31
0.0
  0
LINE
  5
48
  8
0
 62
     7
 10
96.061899999999994
 20
165.61600000000001
 30
0.0
 11
96.061899999999994
 21
193.11699999999999
 31
0.0
  0
LINE
  5
49
  8
0
 62
     7
 10
93.061899999999994
 20
165.61600000000001
 30
0.0
 11
93.061899999999994
 21
193.11600000000001
 31
0.0
  0
LINE
  5
4A
  8
0
 62
     7
 10
84.562299999999993
 20
165.61600000000001
 30
0.0
 11
84.562299999999993
 21
193.11699999999999
 31
0.0
  0
LINE
  5
4B
  8
0
 62
     7
 10
81.562299999999979
 20
165.61600000000001
 30
0.0
 11
81.562299999999979
 21
193.11600000000001
 31
0.0
  0
LINE
  5
4C
  8
0
 62
     7
 10
73.062200000000004
 20
165.61600000000001
 30
0.0
 11
73.062200000000004
 21
193.11699999999999
 31
0.0
  0
LINE
  5
4D
  8
0
 62
     7
 10
70.062100000000001
 20
165.61600000000001
 30
0.0
 11
70.062100000000001
 21
193.11600000000001
 31
0.0
  0
LINE
  5
4E
  8
0
 62
     7
 10
61.561999999999998
 20
165.61600000000001
 30
0.0
 11
61.561999999999998
 21
193.11699999999999
 31
0.0
  0
LINE
  5
4F
  8
0
 62
     7
 10
58.561999999999998
 20
165.61600000000001
 30
0.0
 11
58.561999999999998
 21
193.11600000000001
 31
0.0
  0
LINE
  5
50
  8
0
 62
     7
 10
50.061900000000001
 20
165.61600000000001
 30
0.0
 11
50.061900000000001
 21
193.11699999999999
 31
0.0
  0
LINE
  5
51
  8
0
 62
     7
 10
47.061900000000001
 20
165.61600000000001
 30
0.0
 11
47.061900000000001
 21
193.11600000000001
 31
0.0
  0
LINE
  5
52
  8
0
 62
     7
 10
115.053
 20
100.435
 30
0.0
 11
115.645
 21
98.223399999999998
 31
0.0
  0
LINE
  5
53
  8
0
 62
     7
 10
115.645
 20
98.223399999999998
 30
0.0
 11
116.238
 21
100.435
 31
0.0
  0
LINE
  5
54
  8
0
 62
     7
 10
116.238
 20
100.435
 30
0.0
 11
115.053
 21
100.435
 31
0.0
  0
LINE
  5
55
  8
0
 62
     7
 10
116.223
 20
109.014
 30
0.0
 11
115.631
 21
111.22499999999999
 31
0.0
  0
LINE
  5
56
  8
0
 62
     7
 10
115.631
 20
111.22499999999999
 30
0.0
 11
115.038
 21
109.014
 31
0.0
  0
LINE
  5
57
  8
0
 62
     7
 10
115.038
 20
109.014
 30
0.0
 11
116.223
 21
109.014
 31
0.0
  0
LINE
  5
58
  8
0
 62
     7
 10
115.63800000000001
 20
98.224800000000002
 30
0.0
 11
115.63800000000001
 21
111.22499999999999
 31
0.0
  0
LINE
  5
59
  8
0
 62
     7
 10
116.339
 20
98.224800000000002
 30
0.0
 11
105.96299999999999
 21
98.224800000000002
 31
0.0
  0
LINE
  5
5A
  8
0
 62
     7
 10
116.339
 20
111.22499999999999
 30
0.0
 11
105.96299999999999
 21
111.22499999999999
 31
0.0
  0
LINE
  5
5B
  8
0
 62
     7
 10
96.061899999999994
 20
98.224800000000002
 30
0.0
 11
96.061899999999994
 21
100.22499999999999
 31
0.0
  0
LINE
  5
5C
  8
0
 62
     7
 10
93.728899999999996
 20
100.89100000000001
 30
0.0
 11
95.395599999999988
 21
100.89100000000001
 31
0.0
  0
ARC
  5
5D
  8
0
 62
     7
 10
95.395640999999983
 20
100.22500700000001
 30
0.0
 40
0.666286
 50
0.00001
 51
89.999980000000008
  0
LINE
  5
5E
  8
0
 62
     7
 10
93.061899999999994
 20
98.224800000000002
 30
0.0
 11
93.061899999999994
 21
100.22499999999999
 31
0.0
  0
ARC
  5
5F
  8
0
 62
     7
 10
93.754356999999999
 20
100.19882800000001
 30
0.0
 40
0.6929330000000001
 50
92.105928000000006
 51
177.834822
  0
LINE
  5
60
  8
0
 62
     7
 10
84.562299999999993
 20
98.224800000000002
 30
0.0
 11
84.562299999999993
 21
100.22499999999999
 31
0.0
  0
LINE
  5
61
  8
0
 62
     7
 10
82.228899999999996
 20
100.89100000000001
 30
0.0
 11
83.895300000000006
 21
100.89100000000001
 31
0.0
  0
ARC
  5
62
  8
0
 62
     7
 10
83.870508000000001
 20
100.199477
 30
0.0
 40
0.6922610000000001
 50
2.1135199999999998
 51
87.945689999999999
  0
LINE
  5
63
  8
0
 62
     7
 10
81.562299999999979
 20
98.224800000000002
 30
0.0
 11
81.562299999999979
 21
100.22499999999999
 31
0.0
  0
ARC
  5
64
  8
0
 62
     7
 10
82.254388000000006
 20
100.19918199999999
 30
0.0
 40
0.6925789999999999
 50
92.107341000000005
 51
177.863011
  0
LINE
  5
65
  8
0
 62
     7
 10
73.062200000000004
 20
98.224800000000002
 30
0.0
 11
73.062200000000004
 21
100.22499999999999
 31
0.0
  0
LINE
  5
66
  8
0
 62
     7
 10
70.728800000000007
 20
100.89100000000001
 30
0.0
 11
72.395499999999998
 21
100.89100000000001
 31
0.0
  0
ARC
  5
67
  8
0
 62
     7
 10
72.370373999999998
 20
100.199501
 30
0.0
 40
0.692249
 50
2.1115400000000002
 51
87.918068000000005
  0
LINE
  5
68
  8
0
 62
     7
 10
70.062100000000001
 20
98.224800000000002
 30
0.0
 11
70.062100000000001
 21
100.22499999999999
 31
0.0
  0
ARC
  5
69
  8
0
 62
     7
 10
70.754242000000005
 20
100.19918199999999
 30
0.0
 40
0.6925789999999999
 50
92.107341000000005
 51
177.863011
  0
LINE
  5
6A
  8
0
 62
     7
 10
61.561999999999998
 20
98.224800000000002
 30
0.0
 11
61.561999999999998
 21
100.22499999999999
 31
0.0
  0
LINE
  5
6B
  8
0
 62
     7
 10
59.2286
 20
100.89100000000001
 30
0.0
 11
60.895400000000002
 21
100.89100000000001
 31
0.0
  0
ARC
  5
6C
  8
0
 62
     7
 10
60.870227999999997
 20
100.199501
 30
0.0
 40
0.692249
 50
2.1115400000000002
 51
87.918068000000005
  0
LINE
  5
6D
  8
0
 62
     7
 10
58.561999999999998
 20
98.224800000000002
 30
0.0
 11
58.561999999999998
 21
100.22499999999999
 31
0.0
  0
ARC
  5
6E
  8
0
 62
     7
 10
59.254095999999997
 20
100.19918199999999
 30
0.0
 40
0.6925789999999999
 50
92.107341000000005
 51
177.863011
  0
LINE
  5
6F
  8
0
 62
     7
 10
50.061900000000001
 20
98.224800000000002
 30
0.0
 11
50.061900000000001
 21
100.22499999999999
 31
0.0
  0
LINE
  5
70
  8
0
 62
     7
 10
47.728499999999997
 20
100.89100000000001
 30
0.0
 11
49.395200000000003
 21
100.89100000000001
 31
0.0
  0
ARC
  5
71
  8
0
 62
     7
 10
49.370082000000011
 20
100.199501
 30
0.0
 40
0.692249
 50
2.1115400000000002
 51
87.918068000000005
  0
LINE
  5
72
  8
0
 62
     7
 10
47.061900000000001
 20
98.224800000000002
 30
0.0
 11
47.061900000000001
 21
100.22499999999999
 31
0.0
  0
ARC
  5
73
  8
0
 62
     7
 10
47.753954999999998
 20
100.19917700000001
 30
0.0
 40
0.692584
 50
92.107738000000012
 51
177.86261400000001
  0
LINE
  5
74
  8
0
 62
     7
 10
104.562
 20
98.224800000000002
 30
0.0
 11
104.562
 21
111.22499999999999
 31
0.0
  0
LINE
  5
75
  8
0
 62
     7
 10
38.561700000000002
 20
98.224800000000002
 30
0.0
 11
38.561700000000002
 21
111.22499999999999
 31
0.0
  0
LINE
  5
76
  8
0
 62
     7
 10
96.062600000000003
 20
98.224800000000002
 30
0.0
 11
104.562
 21
98.224800000000002
 31
0.0
  0
LINE
  5
77
  8
0
 62
     7
 10
84.562299999999993
 20
98.224800000000002
 30
0.0
 11
93.061899999999994
 21
98.224800000000002
 31
0.0
  0
LINE
  5
78
  8
0
 62
     7
 10
73.062200000000004
 20
98.224800000000002
 30
0.0
 11
81.562299999999979
 21
98.224800000000002
 31
0.0
  0
LINE
  5
79
  8
0
 62
     7
 10
61.561999999999998
 20
98.224800000000002
 30
0.0
 11
70.062100000000001
 21
98.224800000000002
 31
0.0
  0
LINE
  5
7A
  8
0
 62
     7
 10
50.061900000000001
 20
98.224800000000002
 30
0.0
 11
58.561999999999998
 21
98.224800000000002
 31
0.0
  0
LINE
  5
7B
  8
0
 62
     7
 10
38.561700000000002
 20
98.224800000000002
 30
0.0
 11
47.062199999999997
 21
98.224800000000002
 31
0.0
  0
LINE
  5
7C
  8
0
 62
     7
 10
38.561700000000002
 20
102.392
 30
0.0
 11
104.562
 21
102.392
 31
0.0
  0
LINE
  5
7D
  8
0
 62
     7
 10
38.561700000000002
 20
110.492
 30
0.0
 11
104.562
 21
110.492
 31
0.0
  0
LINE
  5
7E
  8
0
 62
     7
 10
38.561700000000002
 20
110.72499999999999
 30
0.0
 11
104.562
 21
110.72499999999999
 31
0.0
  0
LINE
  5
7F
  8
0
 62
     7
 10
38.561700000000002
 20
111.22499999999999
 30
0.0
 11
104.562
 21
111.22499999999999
 31
0.0
  0
LINE
  5
80
  8
0
 62
     7
 10
116.224
 20
193.40600000000001
 30
0.0
 11
115.63200000000001
 21
195.61699999999999
 31
0.0
  0
LINE
  5
81
  8
0
 62
     7
 10
115.63200000000001
 20
195.61699999999999
 30
0.0
 11
115.039
 21
193.40600000000001
 31
0.0
  0
LINE
  5
82
  8
0
 62
     7
 10
115.039
 20
193.40600000000001
 30
0.0
 11
116.224
 21
193.40600000000001
 31
0.0
  0
LINE
  5
83
  8
0
 62
     7
 10
115.053
 20
165.327
 30
0.0
 11
115.646
 21
163.11500000000001
 31
0.0
  0
LINE
  5
84
  8
0
 62
     7
 10
115.646
 20
163.11500000000001
 30
0.0
 11
116.239
 21
165.327
 31
0.0
  0
LINE
  5
85
  8
0
 62
     7
 10
116.239
 20
165.327
 30
0.0
 11
115.053
 21
165.327
 31
0.0
  0
LINE
  5
86
  8
0
 62
     7
 10
115.63800000000001
 20
195.61699999999999
 30
0.0
 11
115.63800000000001
 21
163.11600000000001
 31
0.0
  0
LINE
  5
87
  8
0
 62
     7
 10
116.339
 20
163.11600000000001
 30
0.0
 11
105.96299999999999
 21
163.11600000000001
 31
0.0
  0
LINE
  5
88
  8
0
 62
     7
 10
116.339
 20
195.61699999999999
 30
0.0
 11
105.96299999999999
 21
195.61699999999999
 31
0.0
  0
LINE
  5
89
  8
0
 62
     7
 10
104.562
 20
152.30099999999999
 30
0.0
 11
104.562
 21
161.71600000000001
 31
0.0
  0
LINE
  5
8A
  8
0
 62
     7
 10
38.561700000000002
 20
152.30099999999999
 30
0.0
 11
38.561700000000002
 21
161.71600000000001
 31
0.0
  0
LINE
  5
8B
  8
0
 62
     7
 10
40.77239999999999
 20
153.58699999999999
 30
0.0
 11
38.560899999999997
 21
152.994
 31
0.0
  0
LINE
  5
8C
  8
0
 62
     7
 10
38.560899999999997
 20
152.994
 30
0.0
 11
40.77239999999999
 21
152.40199999999999
 31
0.0
  0
LINE
  5
8D
  8
0
 62
     7
 10
40.77239999999999
 20
152.40199999999999
 30
0.0
 11
40.77239999999999
 21
153.58699999999999
 31
0.0
  0
LINE
  5
8E
  8
0
 62
     7
 10
102.352
 20
152.416
 30
0.0
 11
104.563
 21
153.00899999999999
 31
0.0
  0
LINE
  5
8F
  8
0
 62
     7
 10
104.563
 20
153.00899999999999
 30
0.0
 11
102.352
 21
153.601
 31
0.0
  0
LINE
  5
90
  8
0
 62
     7
 10
102.352
 20
153.601
 30
0.0
 11
102.352
 21
152.416
 31
0.0
  0
LINE
  5
91
  8
0
 62
     7
 10
38.561700000000002
 20
153.001
 30
0.0
 11
104.562
 21
153.001
 31
0.0
  0
LINE
  5
92
  8
0
 62
     7
 10
38.561700000000002
 20
165.61600000000001
 30
0.0
 11
104.562
 21
165.61600000000001
 31
0.0
  0
LINE
  5
93
  8
0
 62
     7
 10
38.562399999999997
 20
193.11600000000001
 30
0.0
 11
104.563
 21
193.11600000000001
 31
0.0
  0
LINE
  5
94
  8
0
 62
     7
 10
104.562
 20
195.28299999999999
 30
0.0
 11
104.562
 21
163.4489999999999
 31
0.0
  0
LINE
  5
95
  8
0
 62
     7
 10
38.895499999999998
 20
163.11600000000001
 30
0.0
 11
104.229
 21
163.11600000000001
 31
0.0
  0
ARC
  5
96
  8
0
 62
     7
 10
104.215785
 20
163.46277000000001
 30
0.0
 40
0.34688
 50
272.170389
 51
357.80001900000002
  0
LINE
  5
97
  8
0
 62
     7
 10
38.895499999999998
 20
195.61699999999999
 30
0.0
 11
104.229
 21
195.61699999999999
 31
0.0
  0
ARC
  5
98
  8
0
 62
     7
 10
104.215948
 20
195.27004600000001
 30
0.0
 40
0.346711
 50
2.1741579999999998
 51
87.855435000000014
  0
LINE
  5
99
  8
0
 62
     7
 10
38.562100000000001
 20
195.28299999999999
 30
0.0
 11
38.562100000000001
 21
163.4489999999999
 31
0.0
  0
ARC
  5
9A
  8
0
 62
     7
 10
38.908128000000012
 20
163.46221499999999
 30
0.0
 40
0.346304
 50
182.11170899999999
 51
267.91792400000003
  0
ARC
  5
9B
  8
0
 62
     7
 10
38.907893999999999
 20
195.27067299999999
 30
0.0
 40
0.346062
 50
92.044736000000015
 51
177.92563200000001
  0
LINE
  5
9C
  8
_________2
 62
     7
 10
205.30099999999999
 20
127.411
 30
0.0
 11
183.55000000000001
 21
127.411
 31
0.0
  0
LINE
  5
9D
  8
_________2
 62
     7
 10
100.3
 20
-4.0910799999999998
 30
0.0
 11
100.3
 21
-21.071400000000001
 31
0.0
  0
LINE
  5
9E
  8
_________2
 62
     7
 10
100.3
 20
275.93099999999998
 30
0.0
 11
100.3
 21
258.911
 31
0.0
  0
LINE
  5
9F
  8
_________2
 62
     7
 10
17.049499999999998
 20
127.411
 30
0.0
 11
-4.70052
 21
127.411
 31
0.0
  0
LINE
  5
A0
  8
_________2
 62
     7
 10
76.741
 20
29.8047
 30
0.0
 11
74.554699999999997
 21
29.8047
 31
0.0
  0
LINE
  5
A1
  8
_________2
 62
     7
 10
77.233699999999999
 20
29.8047
 30
0.0
 11
76.981499999999997
 21
29.8047
 31
0.0
  0
LINE
  5
A2
  8
_________2
 62
     7
 10
77.726299999999995
 20
29.8047
 30
0.0
 11
80.651200000000003
 21
29.8047
 31
0.0
  0
LINE
  5
A3
  8
_________2
 62
     7
 10
77.233699999999999
 20
29.8047
 30
0.0
 11
77.485500000000002
 21
29.8047
 31
0.0
  0
LINE
  5
A4
  8
_________2
 62
     7
 10
70.837100000000007
 20
29.8047
 30
0.0
 11
68.650499999999994
 21
29.8047
 31
0.0
  0
LINE
  5
A5
  8
_________2
 62
     7
 10
71.329400000000007
 20
29.8047
 30
0.0
 11
71.077600000000004
 21
29.8047
 31
0.0
  0
LINE
  5
A6
  8
_________2
 62
     7
 10
71.329400000000007
 20
30.2974
 30
0.0
 11
71.329400000000007
 21
32.484400000000001
 31
0.0
  0
LINE
  5
A7
  8
_________2
 62
     7
 10
71.329400000000007
 20
29.8047
 30
0.0
 11
71.329400000000007
 21
30.056899999999999
 31
0.0
  0
LINE
  5
A8
  8
_________2
 62
     7
 10
71.822100000000006
 20
29.8047
 30
0.0
 11
74.009
 21
29.8047
 31
0.0
  0
LINE
  5
A9
  8
_________2
 62
     7
 10
71.329400000000007
 20
29.8047
 30
0.0
 11
71.581599999999995
 21
29.8047
 31
0.0
  0
LINE
  5
AA
  8
_________2
 62
     7
 10
71.329400000000007
 20
29.312799999999999
 30
0.0
 11
71.329400000000007
 21
27.125800000000002
 31
0.0
  0
LINE
  5
AB
  8
_________2
 62
     7
 10
71.329400000000007
 20
29.8047
 30
0.0
 11
71.329400000000007
 21
29.5532
 31
0.0
  0
LINE
  5
AC
  8
_________2
 62
     7
 10
75.040499999999994
 20
28.5852
 30
0.0
 11
80.218500000000006
 21
27.720400000000001
 31
0.0
  0
LINE
  5
AD
  8
_________2
 62
     7
 10
75.040499999999994
 20
31.0243
 30
0.0
 11
80.218500000000006
 21
31.889700000000001
 31
0.0
  0
LINE
  5
AE
  8
_________2
 62
     7
 10
80.218500000000006
 20
27.720400000000001
 30
0.0
 11
80.218500000000006
 21
31.889700000000001
 31
0.0
  0
LINE
  5
AF
  8
_________2
 62
     7
 10
75.040499999999994
 20
28.5852
 30
0.0
 11
75.040499999999994
 21
31.0243
 31
0.0
  0
ARC
  5
B0
  8
_________2
 62
     7
 10
71.28285600000001
 20
29.757811
 30
0.0
 40
1.2673589999999999
 50
2.122214
 51
87.893958999999995
  0
ARC
  5
B1
  8
_________2
 62
     7
 10
71.375959999999992
 20
29.758213000000001
 30
0.0
 40
1.2669559999999991
 50
92.104701000000006
 51
177.89526900000001
  0
ARC
  5
B2
  8
_________2
 62
     7
 10
71.376357999999996
 20
29.851671
 30
0.0
 40
1.2673680000000001
 50
182.12203600000001
 51
267.877993
  0
ARC
  5
B3
  8
_________2
 62
     7
 10
71.282531999999989
 20
29.851998999999999
 30
0.0
 40
1.267695999999999
 50
272.12015300000002
 51
357.863674
  0
ARC
  5
B4
  8
_________2
 62
     7
 10
71.329430000000002
 20
29.804742999999998
 30
0.0
 40
2.0849849999999992
 50
0.00001
 51
89.999980000000008
  0
ARC
  5
B5
  8
_________2
 62
     7
 10
71.329603000000006
 20
29.804915000000001
 30
0.0
 40
2.084813
 50
90.004733999999999
 51
180.00474399999999
  0
ARC
  5
B6
  8
_________2
 62
     7
 10
71.409106000000008
 20
29.884775999999999
 30
0.0
 40
2.1657950000000001
 50
182.11776599999999
 51
267.89173399999999
  0
ARC
  5
B7
  8
_________2
 62
     7
 10
71.249459000000002
 20
29.885429999999999
 30
0.0
 40
2.1664590000000001
 50
272.11546800000002
 51
357.86560400000002
  0
TEXT
  5
B8
  8
_________2
 62
     7
 10
104.605
 20
1.6794899999999999
 30
0.0
 40
3.0923400000000001
  1
図番
 41
0.5
  0
LINE
  5
B9
  8
_________2
 62
     7
 10
103.55
 20
5.9087199999999989
 30
0.0
 11
183.55099999999999
 21
5.9087199999999989
 31
0.0
  0
TEXT
  5
BA
  8
_________2
 62
     7
 10
104.605
 20
11.6793
 30
0.0
 40
3.0923400000000001
  1
品番
 41
0.5
  0
TEXT
  5
BB
  8
_________2
 62
     7
 10
104.605
 20
31.818100000000001
 30
0.0
 40
3.0923400000000001
  1
名称
 41
0.5
  0
TEXT
  5
BC
  8
_________2
 62
     7
 10
91.845058333333341
 20
26.821999999999999
 30
0.0
 40
3.6545800000000002
  1
mm
 41
0.5
 72
     1
 11
93.367800000000003
 21
26.821999999999999
 31
0.0
  0
TEXT
  5
BD
  8
_________2
 62
     7
 10
85.643199999999993
 20
31.818100000000001
 30
0.0
 40
3.0923400000000001
  1
単位
 41
0.5
  0
TEXT
  5
BE
  8
_________2
 62
     7
 10
85.643199999999993
 20
19.410799999999998
 30
0.0
 40
3.0923400000000001
  1
尺度
 41
0.5
  0
TEXT
  5
BF
  8
_________2
 62
     7
 10
90.548758666666686
 20
13.2179
 30
0.0
 40
3.6545800000000002
  1
1 ： 3
 41
0.5
 72
     1
 11
93.959699999999998
 21
13.2179
 31
0.0
  0
TEXT
  5
C0
  8
_________2
 62
     7
 10
135.5146125
 20
9.1078600000000005
 30
0.0
 40
3.9357000000000002
  1
ECS17450R
 41
0.5
 72
     1
 11
143.55000000000001
 21
9.1078600000000005
 31
0.0
  0
TEXT
  5
C1
  8
_________2
 62
     7
 10
135.5146125
 20
-0.8926299999999999
 30
0.0
 40
3.9357000000000002
  1
ECS17450R
 41
0.5
 72
     1
 11
143.55000000000001
 21
-0.8926299999999999
 31
0.0
  0
TEXT
  5
C2
  8
_________2
 62
     7
 10
109.179
 20
24.2257
 30
0.0
 40
3.9357000000000002
  1
リエゾン　トレー
 41
0.5
  0
TEXT
  5
C3
  8
_________2
 62
     7
 10
39.425300333333333
 20
13.603
 30
0.0
 40
3.6545800000000002
  1
早川
 41
0.5
 72
     1
 11
41.313499999999998
 21
13.603
 31
0.0
  0
TEXT
  5
C4
  8
_________2
 62
     7
 10
20.790090666666661
 20
13.603
 30
0.0
 40
3.6545800000000002
  1
石原
 41
0.5
 72
     1
 11
22.7392
 21
13.603
 31
0.0
  0
TEXT
  5
C5
  8
_________2
 62
     7
 10
67.785399999999996
 20
13.2179
 30
0.0
 40
3.6545800000000002
  1
16.01.16
 41
0.5
  0
TEXT
  5
C6
  8
_________2
 62
     7
 10
66.593100000000007
 20
19.410799999999998
 30
0.0
 40
3.0923400000000001
  1
日付
 41
0.5
  0
TEXT
  5
C7
  8
_________2
 62
     7
 10
29.639399999999998
 20
19.410799999999998
 30
0.0
 40
3.0923400000000001
  1
検図
 41
0.5
  0
TEXT
  5
C8
  8
_________2
 62
     7
 10
18.021100000000001
 20
5.21143
 30
0.0
 40
3.0923400000000001
  1
備考
 41
0.5
  0
TEXT
  5
C9
  8
_________2
 62
     7
 10
18.021100000000001
 20
19.410799999999998
 30
0.0
 40
3.0923400000000001
  1
製図
 41
0.5
  0
TEXT
  5
CA
  8
_________2
 62
     7
 10
23.788465333333338
 20
27.936800000000002
 30
0.0
 40
4.4979399999999989
  1
セラトレーディング株式会社
 41
0.5
 72
     1
 11
41.180500000000002
 21
27.936800000000002
 31
0.0
  0
LINE
  5
CB
  8
_________2
 62
     7
 10
183.55099999999999
 20
-4.0910799999999998
 30
0.0
 11
17.049499999999998
 21
-4.0910799999999998
 31
0.0
  0
LINE
  5
CC
  8
_________2
 62
     7
 10
17.049499999999998
 20
-4.0910799999999998
 30
0.0
 11
17.049499999999998
 21
258.911
 31
0.0
  0
LINE
  5
CD
  8
_________2
 62
     7
 10
17.049499999999998
 20
258.911
 30
0.0
 11
183.55099999999999
 21
258.911
 31
0.0
  0
LINE
  5
CE
  8
_________2
 62
     7
 10
183.55099999999999
 20
258.911
 30
0.0
 11
183.55099999999999
 21
-4.0910799999999998
 31
0.0
  0
LINE
  5
CF
  8
_________2
 62
     7
 10
65.549599999999998
 20
9.4089600000000004
 30
0.0
 11
65.549599999999998
 21
35.908799999999999
 31
0.0
  0
LINE
  5
D0
  8
_________2
 62
     7
 10
84.549700000000016
 20
9.4089600000000004
 30
0.0
 11
84.549700000000016
 21
35.908799999999999
 31
0.0
  0
LINE
  5
D1
  8
_________2
 62
     7
 10
103.55
 20
-4.0910799999999998
 30
0.0
 11
103.55
 21
35.908799999999999
 31
0.0
  0
LINE
  5
D2
  8
_________2
 62
     7
 10
28.549299999999999
 20
9.4089600000000004
 30
0.0
 11
28.549299999999999
 21
23.409199999999998
 31
0.0
  0
LINE
  5
D3
  8
_________2
 62
     7
 10
17.049499999999998
 20
9.4089600000000004
 30
0.0
 11
103.55
 21
9.4089600000000004
 31
0.0
  0
LINE
  5
D4
  8
_________2
 62
     7
 10
17.049499999999998
 20
23.409199999999998
 30
0.0
 11
103.55
 21
23.409199999999998
 31
0.0
  0
LINE
  5
D5
  8
_________2
 62
     7
 10
103.55
 20
15.9085
 30
0.0
 11
183.55099999999999
 21
15.9085
 31
0.0
  0
LINE
  5
D6
  8
_________2
 62
     7
 10
17.049499999999998
 20
35.908799999999999
 30
0.0
 11
183.55099999999999
 21
35.908799999999999
 31
0.0
  0
ENDSEC
  0
EOF
