  0
SECTION
  2
HEADER
  9
$ACADVER
  1
AC1009
  9
$INSBASE
 10
0.0
 20
0.0
 30
0.0
  9
$EXTMIN
 10
-4.70052
 20
-21.071400000000001
 30
0.0
  9
$EXTMAX
 10
205.30099999999999
 20
275.93099999999998
 30
0.0
  9
$LIMMIN
 10
0.0
 20
0.0
  9
$LIMMAX
 10
12.0
 20
9.0
  9
$ORTHOMODE
 70
     0
  9
$REGENMODE
 70
     1
  9
$FILLMODE
 70
     1
  9
$QTEXTMODE
 70
     0
  9
$MIRRTEXT
 70
     1
  9
$DRAGMODE
 70
     2
  9
$LTSCALE
 40
1.0
  9
$OSMODE
 70
    37
  9
$ATTMODE
 70
     1
  9
$TEXTSIZE
 40
0.0
  9
$TRACEWID
 40
0.05
  9
$TEXTSTYLE
  7
STANDARD
  9
$CLAYER
  8
0
  9
$CELTYPE
  6
CONTINUOUS
  9
$CECOLOR
 62
   256
  9
$DIMSCALE
 40
1.0
  9
$DIMASZ
 40
0.18
  9
$DIMEXO
 40
0.0625
  9
$DIMDLI
 40
0.38
  9
$DIMRND
 40
0.0
  9
$DIMDLE
 40
0.0
  9
$DIMEXE
 40
0.18
  9
$DIMTP
 40
0.0
  9
$DIMTM
 40
0.0
  9
$DIMTXT
 40
0.18
  9
$DIMCEN
 40
0.09
  9
$DIMTSZ
 40
0.0
  9
$DIMTOL
 70
     0
  9
$DIMLIM
 70
     0
  9
$DIMTIH
 70
     1
  9
$DIMTOH
 70
     1
  9
$DIMSE1
 70
     0
  9
$DIMSE2
 70
     0
  9
$DIMTAD
 70
     0
  9
$DIMZIN
 70
     0
  9
$DIMBLK
  1

  9
$DIMASO
 70
     1
  9
$DIMSHO
 70
     1
  9
$DIMPOST
  1

  9
$DIMAPOST
  1

  9
$DIMALT
 70
     0
  9
$DIMALTD
 70
     2
  9
$DIMALTF
 40
25.399999999999999
  9
$DIMLFAC
 40
1.0
  9
$DIMTOFL
 70
     0
  9
$DIMTVP
 40
0.0
  9
$DIMTIX
 70
     0
  9
$DIMSOXD
 70
     0
  9
$DIMSAH
 70
     0
  9
$DIMBLK1
  1

  9
$DIMBLK2
  1

  9
$DIMSTYLE
  2
STANDARD
  9
$DIMCLRD
 70
     0
  9
$DIMCLRE
 70
     0
  9
$DIMCLRT
 70
     0
  9
$DIMTFAC
 40
1.0
  9
$DIMGAP
 40
0.09
  9
$LUNITS
 70
     2
  9
$LUPREC
 70
     4
  9
$SKETCHINC
 40
0.1
  9
$FILLETRAD
 40
0.0
  9
$AUNITS
 70
     0
  9
$AUPREC
 70
     0
  9
$MENU
  1
.
  9
$ELEVATION
 40
0.0
  9
$PELEVATION
 40
0.0
  9
$THICKNESS
 40
0.0
  9
$LIMCHECK
 70
     0
  9
$BLIPMODE
 70
     0
  9
$CHAMFERA
 40
0.0
  9
$CHAMFERB
 40
0.0
  9
$SKPOLY
 70
     0
  9
$TDCREATE
 40
2444972.375
  9
$TDUPDATE
 40
2457479.2548560882
  9
$TDINDWG
 40
0.0000265394
  9
$TDUSRTIMER
 40
0.0000265394
  9
$USRTIMER
 70
     1
  9
$ANGBASE
 50
0.0
  9
$ANGDIR
 70
     0
  9
$PDMODE
 70
     0
  9
$PDSIZE
 40
0.0
  9
$PLINEWID
 40
0.0
  9
$COORDS
 70
     1
  9
$SPLFRAME
 70
     0
  9
$SPLINETYPE
 70
     6
  9
$SPLINESEGS
 70
     8
  9
$ATTDIA
 70
     1
  9
$ATTREQ
 70
     1
  9
$HANDLING
 70
     1
  9
$HANDSEED
  5
1ED
  9
$SURFTAB1
 70
     6
  9
$SURFTAB2
 70
     6
  9
$SURFTYPE
 70
     6
  9
$SURFU
 70
     6
  9
$SURFV
 70
     6
  9
$UCSNAME
  2

  9
$UCSORG
 10
0.0
 20
0.0
 30
0.0
  9
$UCSXDIR
 10
1.0
 20
0.0
 30
0.0
  9
$UCSYDIR
 10
0.0
 20
1.0
 30
0.0
  9
$PUCSNAME
  2

  9
$PUCSORG
 10
0.0
 20
0.0
 30
0.0
  9
$PUCSXDIR
 10
1.0
 20
0.0
 30
0.0
  9
$PUCSYDIR
 10
0.0
 20
1.0
 30
0.0
  9
$USERI1
 70
     0
  9
$USERI2
 70
     0
  9
$USERI3
 70
     0
  9
$USERI4
 70
     0
  9
$USERI5
 70
     0
  9
$USERR1
 40
0.0
  9
$USERR2
 40
0.0
  9
$USERR3
 40
0.0
  9
$USERR4
 40
0.0
  9
$USERR5
 40
0.0
  9
$WORLDVIEW
 70
     1
  9
$SHADEDGE
 70
     3
  9
$SHADEDIF
 70
    70
  9
$TILEMODE
 70
     1
  9
$MAXACTVP
 70
    48
  9
$PLIMCHECK
 70
     0
  9
$PEXTMIN
 10
1.0000000000000000E+020
 20
1.0000000000000000E+020
 30
1.0000000000000000E+020
  9
$PEXTMAX
 10
-1.0000000000000000E+020
 20
-1.0000000000000000E+020
 30
-1.0000000000000000E+020
  9
$PLIMMIN
 10
0.0
 20
0.0
  9
$PLIMMAX
 10
12.0
 20
9.0
  9
$UNITMODE
 70
     0
  9
$VISRETAIN
 70
     1
  9
$PLINEGEN
 70
     0
  9
$PSLTSCALE
 70
     1
  0
ENDSEC
  0
SECTION
  2
TABLES
  0
TABLE
  2
VPORT
 70
     1
  0
VPORT
  2
*ACTIVE
 70
     0
 10
0.0
 20
0.0
 11
1.0
 21
1.0
 12
173.0589517274982
 22
127.4298
 13
0.0
 23
0.0
 14
1.0
 24
1.0
 15
0.0
 25
0.0
 16
0.0
 26
0.0
 36
1.0
 17
0.0
 27
0.0
 37
0.0
 40
289.64168420534031
 41
2.1063583815028899
 42
50.0
 43
0.0
 44
0.0
 50
0.0
 51
0.0
 71
     0
 72
   100
 73
     1
 74
     1
 75
     0
 76
     0
 77
     0
 78
     0
  0
ENDTAB
  0
TABLE
  2
LTYPE
 70
     3
  0
LTYPE
  2
CONTINUOUS
 70
     0
  3
Solid line
 72
    65
 73
     0
 40
0.0
  0
LTYPE
  2
AIGENLINE001
 70
     0
  3
generate AI->DXF Converter
 72
    65
 73
     4
 40
5.8561449999999988
 49
3.5278
 49
-0.776115
 49
0.776115
 49
-0.776115
  0
LTYPE
  2
AIGENLINE002
 70
     0
  3
generate AI->DXF Converter
 72
    65
 73
     2
 40
1.5522299999999991
 49
0.776115
 49
-0.776115
  0
ENDTAB
  0
TABLE
  2
LAYER
 70
     2
  0
LAYER
  2
0
 70
     0
 62
     7
  6
CONTINUOUS
  0
LAYER
  2
_________2
 70
     0
 62
     7
  6
CONTINUOUS
  0
ENDTAB
  0
TABLE
  2
STYLE
 70
     1
  0
STYLE
  2
STANDARD
 70
     0
 40
0.0
 41
0.0
 50
0.0
 71
     0
 42
0.0
  3
TXT
  4
EXTFONT.SHX
  0
ENDTAB
  0
TABLE
  2
VIEW
 70
     0
  0
ENDTAB
  0
TABLE
  2
UCS
 70
     0
  0
ENDTAB
  0
TABLE
  2
APPID
 70
     3
  0
APPID
  2
ACAD
 70
     0
  0
APPID
  2
ACAD_NAV_VCDISPLAY
 70
     0
  0
APPID
  2
ACAD_MLEADERVER
 70
     0
  0
ENDTAB
  0
TABLE
  2
DIMSTYLE
 70
     1
  0
DIMSTYLE
  2
STANDARD
 70
     0
  3

  4

  5

  6

  7

 40
1.0
 41
0.18
 42
0.0625
 43
0.38
 44
0.18
 45
0.0
 46
0.0
 47
0.0
 48
0.0
140
0.18
141
0.09
142
0.0
143
25.399999999999999
144
1.0
145
0.0
146
1.0
147
0.09
 71
     0
 72
     0
 73
     1
 74
     1
 75
     0
 76
     0
 77
     0
 78
     0
170
     0
171
     2
172
     0
173
     0
174
     0
175
     0
176
     0
177
     0
178
     0
  0
ENDTAB
  0
ENDSEC
  0
SECTION
  2
BLOCKS
  0
BLOCK
  8
0
  2
$MODEL_SPACE
 70
     0
 10
0.0
 20
0.0
 30
0.0
  3
$MODEL_SPACE
  1

  0
ENDBLK
  5
1A
  8
0
  0
BLOCK
 67
     1
  8
0
  2
$PAPER_SPACE
 70
     0
 10
0.0
 20
0.0
 30
0.0
  3
$PAPER_SPACE
  1

  0
ENDBLK
  5
17
 67
     1
  8
0
  0
ENDSEC
  0
SECTION
  2
ENTITIES
  0
TEXT
  5
23
  8
0
 62
     7
 10
46.165100000000002
 20
173.409525
 30
0.0
 40
3.0923400000000001
  1
22
 50
90.0
 41
0.5
 72
     1
 11
46.165100000000002
 21
174.69799999999989
 31
0.0
  0
TEXT
  5
24
  8
0
 62
     7
 10
56.255800000000001
 20
194.779698
 30
0.0
 40
3.0923400000000001
  1
（%%c6\U+00D735樹脂プラグ付）
 50
90.0
 41
0.5
 72
     2
 11
56.255800000000001
 21
216.32300000000001
 31
0.0
  0
TEXT
  5
25
  8
0
 62
     7
 10
51.747599999999998
 20
189.85707500000001
 30
0.0
 40
3.0923400000000001
  1
%%c3.8\U+00D750 十字穴付SUS丸木ねじ
 50
90.0
 41
0.5
 72
     2
 11
51.747599999999998
 21
219.49199999999999
 31
0.0
  0
TEXT
  5
26
  8
0
 62
     7
 10
99.7727
 20
173.409525
 30
0.0
 40
3.0923400000000001
  1
38
 50
90.0
 41
0.5
 72
     1
 11
99.7727
 21
174.69799999999989
 31
0.0
  0
TEXT
  5
27
  8
0
 62
     7
 10
99.7727
 20
63.909025000000007
 30
0.0
 40
3.0923400000000001
  1
38
 50
90.0
 41
0.5
 72
     1
 11
99.7727
 21
65.197500000000005
 31
0.0
  0
TEXT
  5
28
  8
0
 62
     7
 10
99.7727
 20
118.14413500000001
 30
0.0
 40
3.0923400000000001
  1
400
 50
90.0
 41
0.5
 72
     1
 11
99.7727
 21
119.94799999999999
 31
0.0
  0
TEXT
  5
29
  8
0
 62
     7
 10
108.655
 20
117.88643999999999
 30
0.0
 40
3.0923400000000001
  1
476
 50
90.0
 41
0.5
 72
     1
 11
108.655
 21
119.94799999999999
 31
0.0
  0
TEXT
  5
2A
  8
0
 62
     7
 10
75.039150000000006
 20
190.291
 30
0.0
 40
3.0923400000000001
  1
100.6
 41
0.5
 72
     1
 11
77.616100000000003
 21
190.291
 31
0.0
  0
TEXT
  5
2B
  8
0
 62
     7
 10
135.28052500000001
 20
190.291
 30
0.0
 40
3.0923400000000001
  1
38
 41
0.5
 72
     1
 11
136.56899999999999
 21
190.291
 31
0.0
  0
LINE
  5
2C
  8
0
 62
     7
 10
137.04400000000001
 20
241.429
 30
0.0
 11
136.09399999999999
 21
240.97300000000001
 31
0.0
  0
LINE
  5
2D
  8
0
 62
     7
 10
137.04400000000001
 20
240.70500000000001
 30
0.0
 11
136.09399999999999
 21
240.249
 31
0.0
  0
LINE
  5
2E
  8
0
 62
     7
 10
137.04400000000001
 20
239.98099999999999
 30
0.0
 11
136.09399999999999
 21
239.52600000000001
 31
0.0
  0
LINE
  5
2F
  8
0
 62
     7
 10
137.04400000000001
 20
239.25800000000001
 30
0.0
 11
136.09399999999999
 21
238.80199999999999
 31
0.0
  0
LINE
  5
30
  8
0
 62
     7
 10
137.04400000000001
 20
238.53399999999999
 30
0.0
 11
136.09399999999999
 21
238.07900000000001
 31
0.0
  0
LINE
  5
31
  8
0
 62
     7
 10
137.04400000000001
 20
237.81100000000001
 30
0.0
 11
136.09399999999999
 21
237.35499999999999
 31
0.0
  0
LINE
  5
32
  8
0
 62
     7
 10
137.04400000000001
 20
237.08699999999999
 30
0.0
 11
136.09399999999999
 21
236.63200000000001
 31
0.0
  0
LINE
  5
33
  8
0
 62
     7
 10
137.04400000000001
 20
236.364
 30
0.0
 11
136.09399999999999
 21
235.90799999999999
 31
0.0
  0
LINE
  5
34
  8
0
 62
     7
 10
137.04400000000001
 20
235.64099999999999
 30
0.0
 11
136.09399999999999
 21
235.185
 31
0.0
  0
LINE
  5
35
  8
0
 62
     7
 10
137.04400000000001
 20
234.917
 30
0.0
 11
136.09399999999999
 21
234.46100000000001
 31
0.0
  0
LINE
  5
36
  8
0
  6
AIGENLINE001
 62
     7
 10
136.56899999999999
 20
242.79499999999999
 30
0.0
 11
136.56899999999999
 21
228.834
 31
0.0
  0
LINE
  5
37
  8
0
 62
     7
 10
136.83600000000001
 20
241.49299999999999
 30
0.0
 11
136.56899999999999
 21
242.27600000000001
 31
0.0
  0
LINE
  5
38
  8
0
 62
     7
 10
136.30099999999999
 20
241.49299999999999
 30
0.0
 11
136.56899999999999
 21
242.27600000000001
 31
0.0
  0
LINE
  5
39
  8
0
 62
     7
 10
136.83600000000001
 20
241.49299999999999
 30
0.0
 11
136.83600000000001
 21
229.77600000000001
 31
0.0
  0
LINE
  5
3A
  8
0
 62
     7
 10
136.30099999999999
 20
241.49299999999999
 30
0.0
 11
136.30099999999999
 21
229.77600000000001
 31
0.0
  0
LINE
  5
3B
  8
0
 62
     7
 10
137.04400000000001
 20
230.57599999999999
 30
0.0
 11
136.09399999999999
 21
230.12
 31
0.0
  0
LINE
  5
3C
  8
0
 62
     7
 10
137.04400000000001
 20
231.29900000000001
 30
0.0
 11
136.09399999999999
 21
230.84399999999999
 31
0.0
  0
LINE
  5
3D
  8
0
 62
     7
 10
137.04400000000001
 20
232.023
 30
0.0
 11
136.09399999999999
 21
231.56700000000001
 31
0.0
  0
LINE
  5
3E
  8
0
 62
     7
 10
137.04400000000001
 20
232.74600000000001
 30
0.0
 11
136.09399999999999
 21
232.291
 31
0.0
  0
LINE
  5
3F
  8
0
 62
     7
 10
137.04400000000001
 20
233.47
 30
0.0
 11
136.09399999999999
 21
233.01400000000001
 31
0.0
  0
LINE
  5
40
  8
0
 62
     7
 10
137.04400000000001
 20
234.19300000000001
 30
0.0
 11
136.09399999999999
 21
233.738
 31
0.0
  0
LINE
  5
41
  8
0
 62
     7
 10
53.388300000000001
 20
68.4221
 30
0.0
 11
53.84409999999999
 21
67.472300000000004
 31
0.0
  0
LINE
  5
42
  8
0
 62
     7
 10
54.111899999999999
 20
68.4221
 30
0.0
 11
54.567599999999999
 21
67.472300000000004
 31
0.0
  0
LINE
  5
43
  8
0
 62
     7
 10
54.8354
 20
68.4221
 30
0.0
 11
55.290999999999997
 21
67.472300000000004
 31
0.0
  0
LINE
  5
44
  8
0
 62
     7
 10
55.558900000000001
 20
68.4221
 30
0.0
 11
56.014499999999991
 21
67.472300000000004
 31
0.0
  0
LINE
  5
45
  8
0
 62
     7
 10
56.282400000000003
 20
68.4221
 30
0.0
 11
56.737999999999992
 21
67.472300000000004
 31
0.0
  0
LINE
  5
46
  8
0
 62
     7
 10
57.005800000000001
 20
68.4221
 30
0.0
 11
57.461500000000001
 21
67.472300000000004
 31
0.0
  0
LINE
  5
47
  8
0
 62
     7
 10
57.729300000000002
 20
68.4221
 30
0.0
 11
58.185099999999991
 21
67.472300000000004
 31
0.0
  0
LINE
  5
48
  8
0
 62
     7
 10
58.452800000000003
 20
68.4221
 30
0.0
 11
58.908599999999993
 21
67.472300000000004
 31
0.0
  0
LINE
  5
49
  8
0
 62
     7
 10
59.176299999999991
 20
68.4221
 30
0.0
 11
59.632100000000001
 21
67.472300000000004
 31
0.0
  0
LINE
  5
4A
  8
0
 62
     7
 10
59.899700000000003
 20
68.4221
 30
0.0
 11
60.355499999999999
 21
67.472300000000004
 31
0.0
  0
LINE
  5
4B
  8
0
  6
AIGENLINE001
 62
     7
 10
52.021599999999999
 20
67.947000000000003
 30
0.0
 11
65.983000000000004
 21
67.947000000000003
 31
0.0
  0
LINE
  5
4C
  8
0
 62
     7
 10
53.323900000000002
 20
68.214699999999993
 30
0.0
 11
52.540799999999997
 21
67.947000000000003
 31
0.0
  0
LINE
  5
4D
  8
0
 62
     7
 10
53.323900000000002
 20
67.679299999999984
 30
0.0
 11
52.540799999999997
 21
67.947000000000003
 31
0.0
  0
LINE
  5
4E
  8
0
 62
     7
 10
53.323900000000002
 20
68.214699999999993
 30
0.0
 11
65.040899999999993
 21
68.214699999999993
 31
0.0
  0
LINE
  5
4F
  8
0
 62
     7
 10
53.323900000000002
 20
67.679299999999984
 30
0.0
 11
65.040899999999993
 21
67.679299999999984
 31
0.0
  0
LINE
  5
50
  8
0
 62
     7
 10
64.240899999999996
 20
68.4221
 30
0.0
 11
64.696399999999997
 21
67.472300000000004
 31
0.0
  0
LINE
  5
51
  8
0
 62
     7
 10
63.517499999999998
 20
68.4221
 30
0.0
 11
63.972900000000003
 21
67.472300000000004
 31
0.0
  0
LINE
  5
52
  8
0
 62
     7
 10
62.79399999999999
 20
68.4221
 30
0.0
 11
63.249400000000001
 21
67.472300000000004
 31
0.0
  0
LINE
  5
53
  8
0
 62
     7
 10
62.070500000000003
 20
68.4221
 30
0.0
 11
62.52600000000001
 21
67.472300000000004
 31
0.0
  0
LINE
  5
54
  8
0
 62
     7
 10
61.347000000000001
 20
68.4221
 30
0.0
 11
61.802500000000002
 21
67.472300000000004
 31
0.0
  0
LINE
  5
55
  8
0
 62
     7
 10
60.623600000000003
 20
68.4221
 30
0.0
 11
61.078999999999994
 21
67.472300000000004
 31
0.0
  0
LINE
  5
56
  8
0
 62
     7
 10
53.388300000000001
 20
62.921999999999997
 30
0.0
 11
53.84409999999999
 21
61.972099999999998
 31
0.0
  0
LINE
  5
57
  8
0
 62
     7
 10
54.111899999999999
 20
62.921999999999997
 30
0.0
 11
54.567599999999999
 21
61.972099999999998
 31
0.0
  0
LINE
  5
58
  8
0
 62
     7
 10
54.8354
 20
62.921999999999997
 30
0.0
 11
55.290999999999997
 21
61.972099999999998
 31
0.0
  0
LINE
  5
59
  8
0
 62
     7
 10
55.558900000000001
 20
62.921999999999997
 30
0.0
 11
56.014499999999991
 21
61.972099999999998
 31
0.0
  0
LINE
  5
5A
  8
0
 62
     7
 10
56.282400000000003
 20
62.921999999999997
 30
0.0
 11
56.737999999999992
 21
61.972099999999998
 31
0.0
  0
LINE
  5
5B
  8
0
 62
     7
 10
57.005800000000001
 20
62.921999999999997
 30
0.0
 11
57.461500000000001
 21
61.972099999999998
 31
0.0
  0
LINE
  5
5C
  8
0
 62
     7
 10
57.729300000000002
 20
62.921999999999997
 30
0.0
 11
58.185099999999991
 21
61.972099999999998
 31
0.0
  0
LINE
  5
5D
  8
0
 62
     7
 10
58.452800000000003
 20
62.921999999999997
 30
0.0
 11
58.908599999999993
 21
61.972099999999998
 31
0.0
  0
LINE
  5
5E
  8
0
 62
     7
 10
59.176299999999991
 20
62.921999999999997
 30
0.0
 11
59.632100000000001
 21
61.972099999999998
 31
0.0
  0
LINE
  5
5F
  8
0
 62
     7
 10
59.899700000000003
 20
62.921999999999997
 30
0.0
 11
60.355499999999999
 21
61.972099999999998
 31
0.0
  0
LINE
  5
60
  8
0
  6
AIGENLINE001
 62
     7
 10
52.021599999999999
 20
62.447200000000002
 30
0.0
 11
65.983000000000004
 21
62.447200000000002
 31
0.0
  0
LINE
  5
61
  8
0
 62
     7
 10
53.323900000000002
 20
62.7149
 30
0.0
 11
52.540799999999997
 21
62.447200000000002
 31
0.0
  0
LINE
  5
62
  8
0
 62
     7
 10
53.323900000000002
 20
62.179499999999997
 30
0.0
 11
52.540799999999997
 21
62.447200000000002
 31
0.0
  0
LINE
  5
63
  8
0
 62
     7
 10
53.323900000000002
 20
62.7149
 30
0.0
 11
65.040899999999993
 21
62.7149
 31
0.0
  0
LINE
  5
64
  8
0
 62
     7
 10
53.323900000000002
 20
62.179499999999997
 30
0.0
 11
65.040899999999993
 21
62.179499999999997
 31
0.0
  0
LINE
  5
65
  8
0
 62
     7
 10
64.240899999999996
 20
62.921999999999997
 30
0.0
 11
64.696399999999997
 21
61.972099999999998
 31
0.0
  0
LINE
  5
66
  8
0
 62
     7
 10
63.517499999999998
 20
62.921999999999997
 30
0.0
 11
63.972900000000003
 21
61.972099999999998
 31
0.0
  0
LINE
  5
67
  8
0
 62
     7
 10
62.79399999999999
 20
62.921999999999997
 30
0.0
 11
63.249400000000001
 21
61.972099999999998
 31
0.0
  0
LINE
  5
68
  8
0
 62
     7
 10
62.070500000000003
 20
62.921999999999997
 30
0.0
 11
62.52600000000001
 21
61.972099999999998
 31
0.0
  0
LINE
  5
69
  8
0
 62
     7
 10
61.347000000000001
 20
62.921999999999997
 30
0.0
 11
61.802500000000002
 21
61.972099999999998
 31
0.0
  0
LINE
  5
6A
  8
0
 62
     7
 10
60.623600000000003
 20
62.921999999999997
 30
0.0
 11
61.078999999999994
 21
61.972099999999998
 31
0.0
  0
LINE
  5
6B
  8
0
 62
     7
 10
53.388300000000001
 20
177.923
 30
0.0
 11
53.84409999999999
 21
176.97300000000001
 31
0.0
  0
LINE
  5
6C
  8
0
 62
     7
 10
54.111899999999999
 20
177.923
 30
0.0
 11
54.567599999999999
 21
176.97300000000001
 31
0.0
  0
LINE
  5
6D
  8
0
 62
     7
 10
54.8354
 20
177.923
 30
0.0
 11
55.290999999999997
 21
176.97300000000001
 31
0.0
  0
LINE
  5
6E
  8
0
 62
     7
 10
55.558900000000001
 20
177.923
 30
0.0
 11
56.014499999999991
 21
176.97300000000001
 31
0.0
  0
LINE
  5
6F
  8
0
 62
     7
 10
56.282400000000003
 20
177.923
 30
0.0
 11
56.737999999999992
 21
176.97300000000001
 31
0.0
  0
LINE
  5
70
  8
0
 62
     7
 10
57.005800000000001
 20
177.923
 30
0.0
 11
57.461500000000001
 21
176.97300000000001
 31
0.0
  0
LINE
  5
71
  8
0
 62
     7
 10
57.729300000000002
 20
177.923
 30
0.0
 11
58.185099999999991
 21
176.97300000000001
 31
0.0
  0
LINE
  5
72
  8
0
 62
     7
 10
58.452800000000003
 20
177.923
 30
0.0
 11
58.908599999999993
 21
176.97300000000001
 31
0.0
  0
LINE
  5
73
  8
0
 62
     7
 10
59.176299999999991
 20
177.923
 30
0.0
 11
59.632100000000001
 21
176.97300000000001
 31
0.0
  0
LINE
  5
74
  8
0
 62
     7
 10
59.899700000000003
 20
177.923
 30
0.0
 11
60.355499999999999
 21
176.97300000000001
 31
0.0
  0
LINE
  5
75
  8
0
  6
AIGENLINE001
 62
     7
 10
52.021599999999999
 20
177.44800000000001
 30
0.0
 11
65.983000000000004
 21
177.44800000000001
 31
0.0
  0
LINE
  5
76
  8
0
 62
     7
 10
53.323900000000002
 20
177.71600000000001
 30
0.0
 11
52.540799999999997
 21
177.44800000000001
 31
0.0
  0
LINE
  5
77
  8
0
 62
     7
 10
53.323900000000002
 20
177.18000000000001
 30
0.0
 11
52.540799999999997
 21
177.44800000000001
 31
0.0
  0
LINE
  5
78
  8
0
 62
     7
 10
53.323900000000002
 20
177.71600000000001
 30
0.0
 11
65.040899999999993
 21
177.71600000000001
 31
0.0
  0
LINE
  5
79
  8
0
 62
     7
 10
53.323900000000002
 20
177.18000000000001
 30
0.0
 11
65.040899999999993
 21
177.18000000000001
 31
0.0
  0
LINE
  5
7A
  8
0
 62
     7
 10
64.240899999999996
 20
177.923
 30
0.0
 11
64.696399999999997
 21
176.97300000000001
 31
0.0
  0
LINE
  5
7B
  8
0
 62
     7
 10
63.517499999999998
 20
177.923
 30
0.0
 11
63.972900000000003
 21
176.97300000000001
 31
0.0
  0
LINE
  5
7C
  8
0
 62
     7
 10
62.79399999999999
 20
177.923
 30
0.0
 11
63.249400000000001
 21
176.97300000000001
 31
0.0
  0
LINE
  5
7D
  8
0
 62
     7
 10
62.070500000000003
 20
177.923
 30
0.0
 11
62.52600000000001
 21
176.97300000000001
 31
0.0
  0
LINE
  5
7E
  8
0
 62
     7
 10
61.347000000000001
 20
177.923
 30
0.0
 11
61.802500000000002
 21
176.97300000000001
 31
0.0
  0
LINE
  5
7F
  8
0
 62
     7
 10
60.623600000000003
 20
177.923
 30
0.0
 11
61.078999999999994
 21
176.97300000000001
 31
0.0
  0
LINE
  5
80
  8
0
 62
     7
 10
53.388300000000001
 20
172.423
 30
0.0
 11
53.84409999999999
 21
171.47300000000001
 31
0.0
  0
LINE
  5
81
  8
0
 62
     7
 10
54.111899999999999
 20
172.423
 30
0.0
 11
54.567599999999999
 21
171.47300000000001
 31
0.0
  0
LINE
  5
82
  8
0
 62
     7
 10
54.8354
 20
172.423
 30
0.0
 11
55.290999999999997
 21
171.47300000000001
 31
0.0
  0
LINE
  5
83
  8
0
 62
     7
 10
55.558900000000001
 20
172.423
 30
0.0
 11
56.014499999999991
 21
171.47300000000001
 31
0.0
  0
LINE
  5
84
  8
0
 62
     7
 10
56.282400000000003
 20
172.423
 30
0.0
 11
56.737999999999992
 21
171.47300000000001
 31
0.0
  0
LINE
  5
85
  8
0
 62
     7
 10
57.005800000000001
 20
172.423
 30
0.0
 11
57.461500000000001
 21
171.47300000000001
 31
0.0
  0
LINE
  5
86
  8
0
 62
     7
 10
57.729300000000002
 20
172.423
 30
0.0
 11
58.185099999999991
 21
171.47300000000001
 31
0.0
  0
LINE
  5
87
  8
0
 62
     7
 10
58.452800000000003
 20
172.423
 30
0.0
 11
58.908599999999993
 21
171.47300000000001
 31
0.0
  0
LINE
  5
88
  8
0
 62
     7
 10
59.176299999999991
 20
172.423
 30
0.0
 11
59.632100000000001
 21
171.47300000000001
 31
0.0
  0
LINE
  5
89
  8
0
 62
     7
 10
59.899700000000003
 20
172.423
 30
0.0
 11
60.355499999999999
 21
171.47300000000001
 31
0.0
  0
LINE
  5
8A
  8
0
  6
AIGENLINE001
 62
     7
 10
52.021599999999999
 20
171.94800000000001
 30
0.0
 11
65.983000000000004
 21
171.94800000000001
 31
0.0
  0
LINE
  5
8B
  8
0
 62
     7
 10
53.323900000000002
 20
172.21600000000001
 30
0.0
 11
52.540799999999997
 21
171.94800000000001
 31
0.0
  0
LINE
  5
8C
  8
0
 62
     7
 10
53.323900000000002
 20
171.68100000000001
 30
0.0
 11
52.540799999999997
 21
171.94800000000001
 31
0.0
  0
LINE
  5
8D
  8
0
 62
     7
 10
53.323900000000002
 20
172.21600000000001
 30
0.0
 11
65.040899999999993
 21
172.21600000000001
 31
0.0
  0
LINE
  5
8E
  8
0
 62
     7
 10
53.323900000000002
 20
171.68100000000001
 30
0.0
 11
65.040899999999993
 21
171.68100000000001
 31
0.0
  0
LINE
  5
8F
  8
0
 62
     7
 10
64.240899999999996
 20
172.423
 30
0.0
 11
64.696399999999997
 21
171.47300000000001
 31
0.0
  0
LINE
  5
90
  8
0
 62
     7
 10
63.517499999999998
 20
172.423
 30
0.0
 11
63.972900000000003
 21
171.47300000000001
 31
0.0
  0
LINE
  5
91
  8
0
 62
     7
 10
62.79399999999999
 20
172.423
 30
0.0
 11
63.249400000000001
 21
171.47300000000001
 31
0.0
  0
LINE
  5
92
  8
0
 62
     7
 10
62.070500000000003
 20
172.423
 30
0.0
 11
62.52600000000001
 21
171.47300000000001
 31
0.0
  0
LINE
  5
93
  8
0
 62
     7
 10
61.347000000000001
 20
172.423
 30
0.0
 11
61.802500000000002
 21
171.47300000000001
 31
0.0
  0
LINE
  5
94
  8
0
 62
     7
 10
60.623600000000003
 20
172.423
 30
0.0
 11
61.078999999999994
 21
171.47300000000001
 31
0.0
  0
LINE
  5
95
  8
0
 62
     7
 10
46.27259999999999
 20
174.15899999999999
 30
0.0
 11
46.865099999999998
 21
171.94800000000001
 31
0.0
  0
LINE
  5
96
  8
0
 62
     7
 10
46.865099999999998
 20
171.94800000000001
 30
0.0
 11
47.457700000000003
 21
174.15899999999999
 31
0.0
  0
LINE
  5
97
  8
0
 62
     7
 10
47.457700000000003
 20
174.15899999999999
 30
0.0
 11
46.27259999999999
 21
174.15899999999999
 31
0.0
  0
LINE
  5
98
  8
0
 62
     7
 10
47.457700000000003
 20
175.23699999999999
 30
0.0
 11
46.865099999999998
 21
177.44800000000001
 31
0.0
  0
LINE
  5
99
  8
0
 62
     7
 10
46.865099999999998
 20
177.44800000000001
 30
0.0
 11
46.27259999999999
 21
175.23699999999999
 31
0.0
  0
LINE
  5
9A
  8
0
 62
     7
 10
46.27259999999999
 20
175.23699999999999
 30
0.0
 11
47.457700000000003
 21
175.23699999999999
 31
0.0
  0
LINE
  5
9B
  8
0
 62
     7
 10
46.865099999999998
 20
171.94800000000001
 30
0.0
 11
46.865099999999998
 21
177.44800000000001
 31
0.0
  0
LINE
  5
9C
  8
0
 62
     7
 10
51.504300000000001
 20
171.94800000000001
 30
0.0
 11
46.165100000000002
 21
171.94800000000001
 31
0.0
  0
LINE
  5
9D
  8
0
 62
     7
 10
51.504300000000001
 20
177.44800000000001
 30
0.0
 11
46.165100000000002
 21
177.44800000000001
 31
0.0
  0
LINE
  5
9E
  8
0
 62
     7
 10
55.999200000000002
 20
179.423
 30
0.0
 11
57.729300000000002
 21
177.923
 31
0.0
  0
LINE
  5
9F
  8
0
 62
     7
 10
57.729300000000002
 20
177.923
 30
0.0
 11
56.980699999999999
 21
180.08699999999999
 31
0.0
  0
LINE
  5
A0
  8
0
 62
     7
 10
56.980699999999999
 20
180.08699999999999
 30
0.0
 11
55.999200000000002
 21
179.423
 31
0.0
  0
LINE
  5
A1
  8
0
 62
     7
 10
57.723100000000002
 20
177.91999999999999
 30
0.0
 11
52.447600000000001
 21
185.714
 31
0.0
  0
LINE
  5
A2
  8
0
 62
     7
 10
52.447600000000001
 20
185.714
 30
0.0
 11
52.447600000000001
 21
219.49199999999999
 31
0.0
  0
ARC
  5
A3
  8
0
  6
AIGENLINE002
 62
     7
 10
136.55041199999999
 20
62.428713999999999
 30
0.0
 40
0.493944
 50
2.1481479999999991
 51
87.851842000000005
  0
ARC
  5
A4
  8
0
  6
AIGENLINE002
 62
     7
 10
136.58705800000001
 20
62.429455000000011
 30
0.0
 40
0.493189
 50
92.106841000000017
 51
177.9346929999999
  0
ARC
  5
A5
  8
0
  6
AIGENLINE002
 62
     7
 10
136.58777499999999
 20
62.465718999999993
 30
0.0
 40
0.493932
 50
182.14539600000001
 51
267.81306999999998
  0
ARC
  5
A6
  8
0
  6
AIGENLINE002
 62
     7
 10
136.550805
 20
62.465350999999998
 30
0.0
 40
0.493537
 50
272.104332
 51
357.89567799999998
  0
LINE
  5
A7
  8
0
  6
AIGENLINE001
 62
     7
 10
136.56899999999999
 20
63.503199999999993
 30
0.0
 11
136.56899999999999
 21
61.248699999999999
 31
0.0
  0
LINE
  5
A8
  8
0
  6
AIGENLINE001
 62
     7
 10
137.72300000000001
 20
62.447200000000002
 30
0.0
 11
135.25999999999999
 21
62.447200000000002
 31
0.0
  0
ARC
  5
A9
  8
0
  6
AIGENLINE002
 62
     7
 10
136.55041199999999
 20
67.9285
 30
0.0
 40
0.493944
 50
2.1481479999999991
 51
87.851842000000005
  0
ARC
  5
AA
  8
0
  6
AIGENLINE002
 62
     7
 10
136.58705800000001
 20
67.929241000000005
 30
0.0
 40
0.493189
 50
92.106841000000017
 51
177.9346929999999
  0
ARC
  5
AB
  8
0
  6
AIGENLINE002
 62
     7
 10
136.58777499999999
 20
67.965505000000007
 30
0.0
 40
0.493932
 50
182.14539600000001
 51
267.81306999999998
  0
ARC
  5
AC
  8
0
  6
AIGENLINE002
 62
     7
 10
136.550805
 20
67.965136000000001
 30
0.0
 40
0.493537
 50
272.104332
 51
357.89567799999998
  0
LINE
  5
AD
  8
0
  6
AIGENLINE001
 62
     7
 10
136.56899999999999
 20
69.002899999999997
 30
0.0
 11
136.56899999999999
 21
66.748500000000007
 31
0.0
  0
LINE
  5
AE
  8
0
  6
AIGENLINE001
 62
     7
 10
137.72300000000001
 20
67.947000000000003
 30
0.0
 11
135.25999999999999
 21
67.947000000000003
 31
0.0
  0
ARC
  5
AF
  8
0
  6
AIGENLINE002
 62
     7
 10
136.55041199999999
 20
171.9297
 30
0.0
 40
0.493944
 50
2.1481479999999991
 51
87.851842000000005
  0
ARC
  5
B0
  8
0
  6
AIGENLINE002
 62
     7
 10
136.56909899999999
 20
171.948386
 30
0.0
 40
0.4749100000000001
 50
90.020782000000011
 51
180.020792
  0
ARC
  5
B1
  8
0
  6
AIGENLINE002
 62
     7
 10
136.58760100000001
 20
171.96670900000001
 30
0.0
 40
0.493757
 50
182.14666399999999
 51
267.83258000000001
  0
ARC
  5
B2
  8
0
  6
AIGENLINE002
 62
     7
 10
136.55042399999999
 20
171.96689599999999
 30
0.0
 40
0.493938
 50
272.14677200000011
 51
357.83246000000003
  0
LINE
  5
B3
  8
0
  6
AIGENLINE001
 62
     7
 10
136.56899999999999
 20
173.00399999999999
 30
0.0
 11
136.56899999999999
 21
170.75
 31
0.0
  0
LINE
  5
B4
  8
0
  6
AIGENLINE001
 62
     7
 10
137.72300000000001
 20
171.94800000000001
 30
0.0
 11
135.25999999999999
 21
171.94800000000001
 31
0.0
  0
ARC
  5
B5
  8
0
  6
AIGENLINE002
 62
     7
 10
136.55041199999999
 20
177.429485
 30
0.0
 40
0.493944
 50
2.1481479999999991
 51
87.851842000000005
  0
ARC
  5
B6
  8
0
  6
AIGENLINE002
 62
     7
 10
136.56909899999999
 20
177.448172
 30
0.0
 40
0.4749100000000001
 50
90.020782000000011
 51
180.020792
  0
ARC
  5
B7
  8
0
  6
AIGENLINE002
 62
     7
 10
136.58760100000001
 20
177.46649400000001
 30
0.0
 40
0.493757
 50
182.14666399999999
 51
267.83258000000001
  0
ARC
  5
B8
  8
0
  6
AIGENLINE002
 62
     7
 10
136.55042399999999
 20
177.46668099999999
 30
0.0
 40
0.493938
 50
272.14677200000011
 51
357.83246000000003
  0
LINE
  5
B9
  8
0
  6
AIGENLINE001
 62
     7
 10
136.56899999999999
 20
178.50399999999999
 30
0.0
 11
136.56899999999999
 21
176.25
 31
0.0
  0
LINE
  5
BA
  8
0
  6
AIGENLINE001
 62
     7
 10
137.72300000000001
 20
177.44800000000001
 30
0.0
 11
135.25999999999999
 21
177.44800000000001
 31
0.0
  0
LINE
  5
BB
  8
0
 62
     7
 10
131.81899999999999
 20
169.94800000000001
 30
0.0
 11
141.31899999999999
 21
169.94800000000001
 31
0.0
  0
LINE
  5
BC
  8
0
 62
     7
 10
131.81899999999999
 20
69.947599999999994
 30
0.0
 11
141.31899999999999
 21
69.947599999999994
 31
0.0
  0
LINE
  5
BD
  8
0
 62
     7
 10
131.81899999999999
 20
204.626
 30
0.0
 11
141.31899999999999
 21
204.626
 31
0.0
  0
LINE
  5
BE
  8
0
 62
     7
 10
131.81899999999999
 20
229.77600000000001
 30
0.0
 11
141.31899999999999
 21
229.77600000000001
 31
0.0
  0
LINE
  5
BF
  8
0
 62
     7
 10
141.31899999999999
 20
204.626
 30
0.0
 11
141.31899999999999
 21
229.77600000000001
 31
0.0
  0
LINE
  5
C0
  8
0
 62
     7
 10
131.81899999999999
 20
204.626
 30
0.0
 11
131.81899999999999
 21
229.77600000000001
 31
0.0
  0
LINE
  5
C1
  8
0
 62
     7
 10
141.31899999999999
 20
190.291
 30
0.0
 11
141.31899999999999
 21
180.49799999999999
 31
0.0
  0
LINE
  5
C2
  8
0
 62
     7
 10
131.81899999999999
 20
190.291
 30
0.0
 11
131.81899999999999
 21
180.49799999999999
 31
0.0
  0
LINE
  5
C3
  8
0
 62
     7
 10
134.029
 20
190.17599999999999
 30
0.0
 11
131.81700000000001
 21
189.584
 31
0.0
  0
LINE
  5
C4
  8
0
 62
     7
 10
131.81700000000001
 20
189.584
 30
0.0
 11
134.029
 21
188.99100000000001
 31
0.0
  0
LINE
  5
C5
  8
0
 62
     7
 10
134.029
 20
188.99100000000001
 30
0.0
 11
134.029
 21
190.17599999999999
 31
0.0
  0
LINE
  5
C6
  8
0
 62
     7
 10
139.10900000000001
 20
189.006
 30
0.0
 11
141.31999999999999
 21
189.5979999999999
 31
0.0
  0
LINE
  5
C7
  8
0
 62
     7
 10
141.31999999999999
 20
189.5979999999999
 30
0.0
 11
139.10900000000001
 21
190.19099999999989
 31
0.0
  0
LINE
  5
C8
  8
0
 62
     7
 10
139.10900000000001
 20
190.19099999999989
 30
0.0
 11
139.10900000000001
 21
189.006
 31
0.0
  0
LINE
  5
C9
  8
0
 62
     7
 10
131.81899999999999
 20
189.59099999999989
 30
0.0
 11
141.31899999999999
 21
189.59099999999989
 31
0.0
  0
LINE
  5
CA
  8
0
 62
     7
 10
131.81899999999999
 20
60.447299999999998
 30
0.0
 11
141.31899999999999
 21
60.447299999999998
 31
0.0
  0
LINE
  5
CB
  8
0
 62
     7
 10
131.81899999999999
 20
179.44800000000001
 30
0.0
 11
141.31899999999999
 21
179.44800000000001
 31
0.0
  0
LINE
  5
CC
  8
0
 62
     7
 10
141.31899999999999
 20
60.447299999999998
 30
0.0
 11
141.31899999999999
 21
179.44800000000001
 31
0.0
  0
LINE
  5
CD
  8
0
 62
     7
 10
131.81899999999999
 20
60.447299999999998
 30
0.0
 11
131.81899999999999
 21
179.44800000000001
 31
0.0
  0
LINE
  5
CE
  8
0
 62
     7
 10
101.173
 20
169.94800000000001
 30
0.0
 11
91.241200000000006
 21
169.94800000000001
 31
0.0
  0
LINE
  5
CF
  8
0
 62
     7
 10
99.887600000000006
 20
72.160700000000006
 30
0.0
 11
100.48
 21
69.948999999999998
 31
0.0
  0
LINE
  5
D0
  8
0
 62
     7
 10
100.48
 20
69.948999999999998
 30
0.0
 11
101.07299999999999
 21
72.160700000000006
 31
0.0
  0
LINE
  5
D1
  8
0
 62
     7
 10
101.07299999999999
 20
72.160700000000006
 30
0.0
 11
99.887600000000006
 21
72.160700000000006
 31
0.0
  0
LINE
  5
D2
  8
0
 62
     7
 10
99.887600000000006
 20
172.15799999999999
 30
0.0
 11
100.48
 21
169.946
 31
0.0
  0
LINE
  5
D3
  8
0
 62
     7
 10
100.48
 20
169.946
 30
0.0
 11
101.07299999999999
 21
172.15799999999999
 31
0.0
  0
LINE
  5
D4
  8
0
 62
     7
 10
101.07299999999999
 20
172.15799999999999
 30
0.0
 11
99.887600000000006
 21
172.15799999999999
 31
0.0
  0
LINE
  5
D5
  8
0
 62
     7
 10
101.05800000000001
 20
167.73500000000001
 30
0.0
 11
100.46599999999999
 21
169.946
 31
0.0
  0
LINE
  5
D6
  8
0
 62
     7
 10
100.46599999999999
 20
169.946
 30
0.0
 11
99.872900000000016
 21
167.73500000000001
 31
0.0
  0
LINE
  5
D7
  8
0
 62
     7
 10
99.872900000000016
 20
167.73500000000001
 30
0.0
 11
101.05800000000001
 21
167.73500000000001
 31
0.0
  0
LINE
  5
D8
  8
0
 62
     7
 10
101.05800000000001
 20
177.238
 30
0.0
 11
100.46599999999999
 21
179.44900000000001
 31
0.0
  0
LINE
  5
D9
  8
0
 62
     7
 10
100.46599999999999
 20
179.44900000000001
 30
0.0
 11
99.872900000000016
 21
177.238
 31
0.0
  0
LINE
  5
DA
  8
0
 62
     7
 10
99.872900000000016
 20
177.238
 30
0.0
 11
101.05800000000001
 21
177.238
 31
0.0
  0
LINE
  5
DB
  8
0
 62
     7
 10
101.173
 20
69.947599999999994
 30
0.0
 11
91.241200000000006
 21
69.947599999999994
 31
0.0
  0
LINE
  5
DC
  8
0
 62
     7
 10
99.887600000000006
 20
62.657699999999991
 30
0.0
 11
100.48
 21
60.445999999999998
 31
0.0
  0
LINE
  5
DD
  8
0
 62
     7
 10
100.48
 20
60.445999999999998
 30
0.0
 11
101.07299999999999
 21
62.657699999999991
 31
0.0
  0
LINE
  5
DE
  8
0
 62
     7
 10
101.07299999999999
 20
62.657699999999991
 30
0.0
 11
99.887600000000006
 21
62.657699999999991
 31
0.0
  0
LINE
  5
DF
  8
0
 62
     7
 10
101.05800000000001
 20
67.737200000000001
 30
0.0
 11
100.46599999999999
 21
69.948999999999998
 31
0.0
  0
LINE
  5
E0
  8
0
 62
     7
 10
100.46599999999999
 20
69.948999999999998
 30
0.0
 11
99.872900000000016
 21
67.737200000000001
 31
0.0
  0
LINE
  5
E1
  8
0
 62
     7
 10
99.872900000000016
 20
67.737200000000001
 30
0.0
 11
101.05800000000001
 21
67.737200000000001
 31
0.0
  0
LINE
  5
E2
  8
0
 62
     7
 10
100.473
 20
60.447299999999998
 30
0.0
 11
100.473
 21
179.44900000000001
 31
0.0
  0
LINE
  5
E3
  8
0
 62
     7
 10
110.05500000000001
 20
179.44800000000001
 30
0.0
 11
91.241200000000006
 21
179.44800000000001
 31
0.0
  0
LINE
  5
E4
  8
0
 62
     7
 10
110.05500000000001
 20
60.447299999999998
 30
0.0
 11
91.241200000000006
 21
60.447299999999998
 31
0.0
  0
LINE
  5
E5
  8
0
 62
     7
 10
108.77
 20
62.657699999999991
 30
0.0
 11
109.36199999999999
 21
60.445999999999998
 31
0.0
  0
LINE
  5
E6
  8
0
 62
     7
 10
109.36199999999999
 20
60.445999999999998
 30
0.0
 11
109.955
 21
62.657699999999991
 31
0.0
  0
LINE
  5
E7
  8
0
 62
     7
 10
109.955
 20
62.657699999999991
 30
0.0
 11
108.77
 21
62.657699999999991
 31
0.0
  0
LINE
  5
E8
  8
0
 62
     7
 10
109.94
 20
177.23699999999999
 30
0.0
 11
109.348
 21
179.44900000000001
 31
0.0
  0
LINE
  5
E9
  8
0
 62
     7
 10
109.348
 20
179.44900000000001
 30
0.0
 11
108.755
 21
177.23699999999999
 31
0.0
  0
LINE
  5
EA
  8
0
 62
     7
 10
108.755
 20
177.23699999999999
 30
0.0
 11
109.94
 21
177.23699999999999
 31
0.0
  0
LINE
  5
EB
  8
0
 62
     7
 10
109.355
 20
60.447299999999998
 30
0.0
 11
109.355
 21
179.44800000000001
 31
0.0
  0
LINE
  5
EC
  8
0
 62
     7
 10
90.191100000000006
 20
190.291
 30
0.0
 11
90.191100000000006
 21
180.49799999999999
 31
0.0
  0
LINE
  5
ED
  8
0
 62
     7
 10
65.040899999999993
 20
190.291
 30
0.0
 11
65.040899999999993
 21
180.49799999999999
 31
0.0
  0
LINE
  5
EE
  8
0
 62
     7
 10
67.251599999999996
 20
190.17599999999999
 30
0.0
 11
65.039900000000003
 21
189.584
 31
0.0
  0
LINE
  5
EF
  8
0
 62
     7
 10
65.039900000000003
 20
189.584
 30
0.0
 11
67.251599999999996
 21
188.99100000000001
 31
0.0
  0
LINE
  5
F0
  8
0
 62
     7
 10
67.251599999999996
 20
188.99100000000001
 30
0.0
 11
67.251599999999996
 21
190.17599999999999
 31
0.0
  0
LINE
  5
F1
  8
0
 62
     7
 10
87.980400000000003
 20
189.006
 30
0.0
 11
90.192099999999996
 21
189.5979999999999
 31
0.0
  0
LINE
  5
F2
  8
0
 62
     7
 10
90.192099999999996
 20
189.5979999999999
 30
0.0
 11
87.980400000000003
 21
190.19099999999989
 31
0.0
  0
LINE
  5
F3
  8
0
 62
     7
 10
87.980400000000003
 20
190.19099999999989
 30
0.0
 11
87.980400000000003
 21
189.006
 31
0.0
  0
LINE
  5
F4
  8
0
 62
     7
 10
65.040899999999993
 20
189.59099999999989
 30
0.0
 11
90.191100000000006
 21
189.59099999999989
 31
0.0
  0
LINE
  5
F5
  8
0
 62
     7
 10
66.915700000000001
 20
61.947299999999991
 30
0.0
 11
66.915700000000001
 21
177.94799999999989
 31
0.0
  0
LINE
  5
F6
  8
0
 62
     7
 10
65.040899999999993
 20
169.94800000000001
 30
0.0
 11
90.191100000000006
 21
169.94800000000001
 31
0.0
  0
LINE
  5
F7
  8
0
 62
     7
 10
65.040899999999993
 20
69.947599999999994
 30
0.0
 11
90.191100000000006
 21
69.947599999999994
 31
0.0
  0
LINE
  5
F8
  8
0
 62
     7
 10
66.915700000000001
 20
61.947299999999991
 30
0.0
 11
88.691100000000006
 21
61.947299999999991
 31
0.0
  0
LINE
  5
F9
  8
0
 62
     7
 10
66.915700000000001
 20
177.94799999999989
 30
0.0
 11
88.691299999999998
 21
177.94799999999989
 31
0.0
  0
LINE
  5
FA
  8
0
 62
     7
 10
88.691100000000006
 20
61.947299999999991
 30
0.0
 11
88.691100000000006
 21
177.94799999999989
 31
0.0
  0
LINE
  5
FB
  8
0
 62
     7
 10
65.040899999999993
 20
179.44800000000001
 30
0.0
 11
90.191100000000006
 21
179.44800000000001
 31
0.0
  0
LINE
  5
FC
  8
0
 62
     7
 10
65.040899999999993
 20
60.447299999999998
 30
0.0
 11
90.191100000000006
 21
60.447299999999998
 31
0.0
  0
LINE
  5
FD
  8
0
 62
     7
 10
65.040899999999993
 20
169.94800000000001
 30
0.0
 11
65.040899999999993
 21
179.44800000000001
 31
0.0
  0
LINE
  5
FE
  8
0
 62
     7
 10
65.415899999999993
 20
69.947599999999994
 30
0.0
 11
65.415899999999993
 21
169.94800000000001
 31
0.0
  0
LINE
  5
FF
  8
0
 62
     7
 10
65.040899999999993
 20
60.447299999999998
 30
0.0
 11
65.040899999999993
 21
69.948300000000003
 31
0.0
  0
LINE
  5
100
  8
0
 62
     7
 10
90.191100000000006
 20
60.447299999999998
 30
0.0
 11
90.191100000000006
 21
179.44800000000001
 31
0.0
  0
LINE
  5
101
  8
_________2
 62
     7
 10
205.30099999999999
 20
127.411
 30
0.0
 11
183.55000000000001
 21
127.411
 31
0.0
  0
LINE
  5
102
  8
_________2
 62
     7
 10
100.3
 20
-4.0910799999999998
 30
0.0
 11
100.3
 21
-21.071400000000001
 31
0.0
  0
LINE
  5
103
  8
_________2
 62
     7
 10
100.3
 20
275.93099999999998
 30
0.0
 11
100.3
 21
258.911
 31
0.0
  0
LINE
  5
104
  8
_________2
 62
     7
 10
17.049499999999998
 20
127.411
 30
0.0
 11
-4.70052
 21
127.411
 31
0.0
  0
LINE
  5
105
  8
_________2
 62
     7
 10
76.741
 20
29.8047
 30
0.0
 11
74.554699999999997
 21
29.8047
 31
0.0
  0
LINE
  5
106
  8
_________2
 62
     7
 10
77.233699999999999
 20
29.8047
 30
0.0
 11
76.981499999999997
 21
29.8047
 31
0.0
  0
LINE
  5
107
  8
_________2
 62
     7
 10
77.726299999999995
 20
29.8047
 30
0.0
 11
80.651200000000003
 21
29.8047
 31
0.0
  0
LINE
  5
108
  8
_________2
 62
     7
 10
77.233699999999999
 20
29.8047
 30
0.0
 11
77.485500000000002
 21
29.8047
 31
0.0
  0
LINE
  5
109
  8
_________2
 62
     7
 10
70.837100000000007
 20
29.8047
 30
0.0
 11
68.650499999999994
 21
29.8047
 31
0.0
  0
LINE
  5
10A
  8
_________2
 62
     7
 10
71.329400000000007
 20
29.8047
 30
0.0
 11
71.077600000000004
 21
29.8047
 31
0.0
  0
LINE
  5
10B
  8
_________2
 62
     7
 10
71.329400000000007
 20
30.2974
 30
0.0
 11
71.329400000000007
 21
32.484400000000001
 31
0.0
  0
LINE
  5
10C
  8
_________2
 62
     7
 10
71.329400000000007
 20
29.8047
 30
0.0
 11
71.329400000000007
 21
30.056899999999999
 31
0.0
  0
LINE
  5
10D
  8
_________2
 62
     7
 10
71.822100000000006
 20
29.8047
 30
0.0
 11
74.009
 21
29.8047
 31
0.0
  0
LINE
  5
10E
  8
_________2
 62
     7
 10
71.329400000000007
 20
29.8047
 30
0.0
 11
71.581599999999995
 21
29.8047
 31
0.0
  0
LINE
  5
10F
  8
_________2
 62
     7
 10
71.329400000000007
 20
29.312799999999999
 30
0.0
 11
71.329400000000007
 21
27.125800000000002
 31
0.0
  0
LINE
  5
110
  8
_________2
 62
     7
 10
71.329400000000007
 20
29.8047
 30
0.0
 11
71.329400000000007
 21
29.5532
 31
0.0
  0
LINE
  5
111
  8
_________2
 62
     7
 10
75.040499999999994
 20
28.5852
 30
0.0
 11
80.218500000000006
 21
27.720400000000001
 31
0.0
  0
LINE
  5
112
  8
_________2
 62
     7
 10
75.040499999999994
 20
31.0243
 30
0.0
 11
80.218500000000006
 21
31.889700000000001
 31
0.0
  0
LINE
  5
113
  8
_________2
 62
     7
 10
80.218500000000006
 20
27.720400000000001
 30
0.0
 11
80.218500000000006
 21
31.889700000000001
 31
0.0
  0
LINE
  5
114
  8
_________2
 62
     7
 10
75.040499999999994
 20
28.5852
 30
0.0
 11
75.040499999999994
 21
31.0243
 31
0.0
  0
ARC
  5
115
  8
_________2
 62
     7
 10
71.28285600000001
 20
29.757811
 30
0.0
 40
1.2673589999999999
 50
2.122214
 51
87.893958999999995
  0
ARC
  5
116
  8
_________2
 62
     7
 10
71.375959999999992
 20
29.758213000000001
 30
0.0
 40
1.2669559999999991
 50
92.104701000000006
 51
177.89526900000001
  0
ARC
  5
117
  8
_________2
 62
     7
 10
71.376357999999996
 20
29.851671
 30
0.0
 40
1.2673680000000001
 50
182.12203600000001
 51
267.877993
  0
ARC
  5
118
  8
_________2
 62
     7
 10
71.282531999999989
 20
29.851998999999999
 30
0.0
 40
1.267695999999999
 50
272.12015300000002
 51
357.863674
  0
ARC
  5
119
  8
_________2
 62
     7
 10
71.329430000000002
 20
29.804742999999998
 30
0.0
 40
2.0849849999999992
 50
0.00001
 51
89.999980000000008
  0
ARC
  5
11A
  8
_________2
 62
     7
 10
71.329603000000006
 20
29.804915000000001
 30
0.0
 40
2.084813
 50
90.004733999999999
 51
180.00474399999999
  0
ARC
  5
11B
  8
_________2
 62
     7
 10
71.409106000000008
 20
29.884775999999999
 30
0.0
 40
2.1657950000000001
 50
182.11776599999999
 51
267.89173399999999
  0
ARC
  5
11C
  8
_________2
 62
     7
 10
71.249459000000002
 20
29.885429999999999
 30
0.0
 40
2.1664590000000001
 50
272.11546800000002
 51
357.86560400000002
  0
TEXT
  5
11D
  8
_________2
 62
     7
 10
104.605
 20
1.6794899999999999
 30
0.0
 40
3.0923400000000001
  1
図番
 41
0.5
  0
LINE
  5
11E
  8
_________2
 62
     7
 10
103.55
 20
5.9087199999999989
 30
0.0
 11
183.55099999999999
 21
5.9087199999999989
 31
0.0
  0
TEXT
  5
11F
  8
_________2
 62
     7
 10
104.605
 20
11.6793
 30
0.0
 40
3.0923400000000001
  1
品番
 41
0.5
  0
TEXT
  5
120
  8
_________2
 62
     7
 10
104.605
 20
31.818100000000001
 30
0.0
 40
3.0923400000000001
  1
名称
 41
0.5
  0
TEXT
  5
121
  8
_________2
 62
     7
 10
91.845058333333341
 20
26.821999999999999
 30
0.0
 40
3.6545800000000002
  1
mm
 41
0.5
 72
     1
 11
93.367800000000003
 21
26.821999999999999
 31
0.0
  0
TEXT
  5
122
  8
_________2
 62
     7
 10
85.643199999999993
 20
31.818100000000001
 30
0.0
 40
3.0923400000000001
  1
単位
 41
0.5
  0
TEXT
  5
123
  8
_________2
 62
     7
 10
85.643199999999993
 20
19.410799999999998
 30
0.0
 40
3.0923400000000001
  1
尺度
 41
0.5
  0
TEXT
  5
124
  8
_________2
 62
     7
 10
90.548758666666686
 20
13.2179
 30
0.0
 40
3.6545800000000002
  1
1 ： 4
 41
0.5
 72
     1
 11
93.959699999999998
 21
13.2179
 31
0.0
  0
TEXT
  5
125
  8
_________2
 62
     7
 10
135.35062500000001
 20
9.1078600000000005
 30
0.0
 40
3.9357000000000002
  1
ECS17664R
 41
0.5
 72
     1
 11
143.55000000000001
 21
9.1078600000000005
 31
0.0
  0
TEXT
  5
126
  8
_________2
 62
     7
 10
135.35062500000001
 20
-0.8926299999999999
 30
0.0
 40
3.9357000000000002
  1
ECS17664R
 41
0.5
 72
     1
 11
143.55000000000001
 21
-0.8926299999999999
 31
0.0
  0
TEXT
  5
127
  8
_________2
 62
     7
 10
109.179
 20
24.2257
 30
0.0
 40
3.9357000000000002
  1
リエゾン　タオルバー
 41
0.5
  0
TEXT
  5
128
  8
_________2
 62
     7
 10
39.425300333333333
 20
13.603
 30
0.0
 40
3.6545800000000002
  1
早川
 41
0.5
 72
     1
 11
41.313499999999998
 21
13.603
 31
0.0
  0
TEXT
  5
129
  8
_________2
 62
     7
 10
20.790090666666661
 20
13.603
 30
0.0
 40
3.6545800000000002
  1
石原
 41
0.5
 72
     1
 11
22.7392
 21
13.603
 31
0.0
  0
TEXT
  5
12A
  8
_________2
 62
     7
 10
67.785399999999996
 20
13.2179
 30
0.0
 40
3.6545800000000002
  1
16.01.16
 41
0.5
  0
TEXT
  5
12B
  8
_________2
 62
     7
 10
66.593100000000007
 20
19.410799999999998
 30
0.0
 40
3.0923400000000001
  1
日付
 41
0.5
  0
TEXT
  5
12C
  8
_________2
 62
     7
 10
29.639399999999998
 20
19.410799999999998
 30
0.0
 40
3.0923400000000001
  1
検図
 41
0.5
  0
TEXT
  5
12D
  8
_________2
 62
     7
 10
18.021100000000001
 20
5.21143
 30
0.0
 40
3.0923400000000001
  1
備考
 41
0.5
  0
TEXT
  5
12E
  8
_________2
 62
     7
 10
18.021100000000001
 20
19.410799999999998
 30
0.0
 40
3.0923400000000001
  1
製図
 41
0.5
  0
TEXT
  5
12F
  8
_________2
 62
     7
 10
23.788465333333338
 20
27.936800000000002
 30
0.0
 40
4.4979399999999989
  1
セラトレーディング株式会社
 41
0.5
 72
     1
 11
41.180500000000002
 21
27.936800000000002
 31
0.0
  0
LINE
  5
130
  8
_________2
 62
     7
 10
183.55099999999999
 20
-4.0910799999999998
 30
0.0
 11
17.049499999999998
 21
-4.0910799999999998
 31
0.0
  0
LINE
  5
131
  8
_________2
 62
     7
 10
17.049499999999998
 20
-4.0910799999999998
 30
0.0
 11
17.049499999999998
 21
258.911
 31
0.0
  0
LINE
  5
132
  8
_________2
 62
     7
 10
17.049499999999998
 20
258.911
 30
0.0
 11
183.55099999999999
 21
258.911
 31
0.0
  0
LINE
  5
133
  8
_________2
 62
     7
 10
183.55099999999999
 20
258.911
 30
0.0
 11
183.55099999999999
 21
-4.0910799999999998
 31
0.0
  0
LINE
  5
134
  8
_________2
 62
     7
 10
65.549599999999998
 20
9.4089600000000004
 30
0.0
 11
65.549599999999998
 21
35.908799999999999
 31
0.0
  0
LINE
  5
135
  8
_________2
 62
     7
 10
84.549700000000016
 20
9.4089600000000004
 30
0.0
 11
84.549700000000016
 21
35.908799999999999
 31
0.0
  0
LINE
  5
136
  8
_________2
 62
     7
 10
103.55
 20
-4.0910799999999998
 30
0.0
 11
103.55
 21
35.908799999999999
 31
0.0
  0
LINE
  5
137
  8
_________2
 62
     7
 10
28.549299999999999
 20
9.4089600000000004
 30
0.0
 11
28.549299999999999
 21
23.409199999999998
 31
0.0
  0
LINE
  5
138
  8
_________2
 62
     7
 10
17.049499999999998
 20
9.4089600000000004
 30
0.0
 11
103.55
 21
9.4089600000000004
 31
0.0
  0
LINE
  5
139
  8
_________2
 62
     7
 10
17.049499999999998
 20
23.409199999999998
 30
0.0
 11
103.55
 21
23.409199999999998
 31
0.0
  0
LINE
  5
13A
  8
_________2
 62
     7
 10
103.55
 20
15.9085
 30
0.0
 11
183.55099999999999
 21
15.9085
 31
0.0
  0
LINE
  5
13B
  8
_________2
 62
     7
 10
17.049499999999998
 20
35.908799999999999
 30
0.0
 11
183.55099999999999
 21
35.908799999999999
 31
0.0
  0
ENDSEC
  0
EOF
