  0
SECTION
  2
HEADER
  9
$ACADVER
  1
AC1009
  9
$INSBASE
 10
0
 20
0
 30
0
  9
$EXTMIN
 10
0
 20
0
  9
$EXTMAX
 10
14850
 20
10500
  9
$LIMMIN
 10
0
 20
0
  9
$LIMMAX
 10
14850
 20
10500
  9
$LTSCALE
 40
25
  0
ENDSEC
  0
SECTION
  2
TABLES
  0
TABLE
  2
LTYPE
 70
     9
  0
LTYPE
  2
CONTINUOUS
 70
    64
  3
実線
 72
    65
 73
     0
 40
0.0
  0
LTYPE
  2
DASHED1
 70
    64
  3
--  --  --  --  --  --  --  --  
 72
    65
 73
     2
 40
2.5
 49
1.25
 49
-1.25
  0
LTYPE
  2
DASHED2
 70
    64
  3
----    ----    ----    ----    
 72
    65
 73
     2
 40
5.0
 49
2.5
 49
-2.5
  0
LTYPE
  2
DASHED3
 70
    64
  3
------  ------  ------  ------  
 72
    65
 73
     2
 40
5.0
 49
3.75
 49
-1.25
  0
LTYPE
  2
CENTER1
 70
    64
  3
----- - ----- - ----- - ----- - 
 72
    65
 73
     4
 40
10.0
 49
6.25
 49
-1.25
 49
1.25
 49
-1.25
  0
LTYPE
  2
CENTER2
 70
    64
  3
----------  --  ----------  --  
 72
    65
 73
     4
 40
20.0
 49
12.5
 49
-2.5
 49
2.5
 49
-2.5
  0
LTYPE
  2
PHANTOM1
 70
    64
  3
--- - - --- - - --- - - --- - - 
 72
    65
 73
     6
 40
10.0
 49
3.25
 49
-1.25
 49
1.25
 49
-1.25
 49
1.25
 49
-1.25
  0
LTYPE
  2
PHANTOM2
 70
    64
  3
--------  -  -  --------  -  -  
 72
    65
 73
     6
 40
20.0
 49
10.0
 49
-2.5
 49
1.25
 49
-2.5
 49
1.25
 49
-2.5
  0
LTYPE
  2
DOT
 70
    64
  3
-   -   -   -   -   -   -   -   
 72
    65
 73
     2
 40
2.5
 49
0.625
 49
-1.875
  0
LTYPE
  2
DUMMY
 70
    64
  3
ダミー
 72
    65
 73
     0
 40
0.0
  0
LTYPE
  2
RAND1
 70
    64
  3
ランダム線1
 72
    65
 73
     4
 40
10.0
 49
1.0
 49
-2.0
 49
3.0
 49
-4.0
  0
LTYPE
  2
RAND2
 70
    64
  3
ランダム線2
 72
    65
 73
     4
 40
14.0
 49
2.0
 49
-3.0
 49
4.0
 49
-5.0
  0
LTYPE
  2
RAND3
 70
    64
  3
ランダム線3
 72
    65
 73
     4
 40
18.0
 49
3.0
 49
-4.0
 49
5.0
 49
-6.0
  0
LTYPE
  2
RAND4
 70
    64
  3
ランダム線4
 72
    65
 73
     4
 40
22.0
 49
4.0
 49
-5.0
 49
6.0
 49
-7.0
  0
LTYPE
  2
RAND5
 70
    64
  3
ランダム線5
 72
    65
 73
     4
 40
26.0
 49
5.0
 49
-6.0
 49
7.0
 49
-8.0
  0
LTYPE
  2
LONG1
 70
    64
  3
----------  --  ----------  --  
 72
    65
 73
     4
 40
40.0
 49
32.5
 49
-2.5
 49
2.5
 49
-2.5
  0
LTYPE
  2
LONG2
 70
    64
  3
--------  -  -  --------  -  -  
 72
    65
 73
     6
 40
40.0
 49
30.0
 49
-2.5
 49
1.25
 49
-2.5
 49
1.25
 49
-2.5
  0
LTYPE
  2
LONG3
 70
    64
  3
+++++++++++++++..+++++++++++++++
 72
    65
 73
     2
 40
40.0
 49
37.5
 49
-2.5
  0
LTYPE
  2
LONG4
 70
    64
  3
+++++++++++++++..+++++++++++++++
 72
    65
 73
     2
 40
80.0
 49
75.0
 49
-5.0
  0
LTYPE
  2
LONG5
 70
    64
  3
----------  --  ----------  --  
 72
    65
 73
     4
 40
60.0
 49
37.5
 49
-7.5
 49
7.5
 49
-7.5
  0
LTYPE
  2
dashed
 70
   64
  3
-------   -------------   ------
 72
   65
 73
    2
 40
7.5
 49
6
 49
-1.5
  0
LTYPE
  2
dashed_spaced
 70
   64
  3
----        --------        ----
 72
   65
 73
    2
 40
12
 49
6
 49
-6
  0
LTYPE
  2
long_dashed_dotted
 70
   64
  3
------------- --- --------------
 72
   65
 73
    4
 40
15.25
 49
12
 49
-1.5
 49
0.25
 49
-1.5
  0
LTYPE
  2
long_dashed_double-dotted
 70
   64
  3
----------- --- --- ------------
 72
   65
 73
    6
 40
17
 49
12
 49
-1.5
 49
0.25
 49
-1.5
 49
0.25
 49
-1.5
  0
LTYPE
  2
long_dashed_triplicate-dotted
 70
   64
  3
--------- --- --- --- ----------
 72
   65
 73
    8
 40
18.75
 49
12
 49
-1.5
 49
0.25
 49
-1.5
 49
0.25
 49
-1.5
 49
0.25
 49
-1.5
  0
LTYPE
  2
dotted
 70
   64
  3
   -       -       -       -    
 72
   65
 73
    2
 40
1.75
 49
0.25
 49
-1.5
  0
LTYPE
  2
chain
 70
   64
  3
-------------- -- --------------
 72
   65
 73
    4
 40
18.5
 49
12
 49
-1.5
 49
3.5
 49
-1.5
  0
LTYPE
  2
chain_double_dash
 70
   64
  3
------------ -- -- -------------
 72
   65
 73
    6
 40
23.5
 49
12
 49
-1.5
 49
3.5
 49
-1.5
 49
3.5
 49
-1.5
  0
LTYPE
  2
dashed_dotted
 70
   64
  3
-----------     -     ----------
 72
   65
 73
    4
 40
9.25
 49
6
 49
-1.5
 49
0.25
 49
-1.5
  0
LTYPE
  2
double-dashed_dotted
 70
   64
  3
------   -----------   -   -----
 72
   65
 73
    6
 40
16.75
 49
6
 49
-1.5
 49
6
 49
-1.5
 49
0.25
 49
-1.5
  0
LTYPE
  2
dashed_double-dotted
 70
   64
  3
---------    -    -    ---------
 72
   65
 73
    6
 40
11
 49
6
 49
-1.5
 49
0.25
 49
-1.5
 49
0.25
 49
-1.5
  0
LTYPE
  2
double-dashed_double-dotted
 70
   64
  3
-----   ---------   -   -   ----
 72
   65
 73
    8
 40
18.5
 49
6
 49
-1.5
 49
6
 49
-1.5
 49
0.25
 49
-1.5
 49
0.25
 49
-1.5
  0
LTYPE
  2
dashed_triplicate-dotted
 70
   64
  3
-------    -    -    -    ------
 72
   65
 73
    8
 40
12.75
 49
6
 49
-1.5
 49
0.25
 49
-1.5
 49
0.25
 49
-1.5
 49
0.25
 49
-1.5
  0
LTYPE
  2
double-dashed_triplicate-dotted
 70
   64
  3
-----  ---------  -  -  -  -----
 72
   65
 73
   10
 40
20.25
 49
6
 49
-1.5
 49
6
 49
-1.5
 49
0.25
 49
-1.5
 49
0.25
 49
-1.5
 49
0.25
 49
-1.5
  0
LTYPE
  2
undefined
 70
   64
  3
--------------------------------
 72
   65
 73
    0
 40
0
  0
LTYPE
  2
_
 70
   64
  3
                                
 72
   65
 73
    0
 40
0
  0
LTYPE
  2
__18
 70
   64
  3
                                
 72
   65
 73
    0
 40
0
  0
LTYPE
  2
__19
 70
   64
  3
                                
 72
   65
 73
    0
 40
0
  0
LTYPE
  2
__20
 70
   64
  3
                                
 72
   65
 73
    0
 40
0
  0
LTYPE
  2
__21
 70
   64
  3
                                
 72
   65
 73
    0
 40
0
  0
LTYPE
  2
__22
 70
   64
  3
                                
 72
   65
 73
    0
 40
0
  0
LTYPE
  2
__23
 70
   64
  3
                                
 72
   65
 73
    0
 40
0
  0
LTYPE
  2
__24
 70
   64
  3
                                
 72
   65
 73
    0
 40
0
  0
LTYPE
  2
__25
 70
   64
  3
                                
 72
   65
 73
    0
 40
0
  0
LTYPE
  2
__26
 70
   64
  3
                                
 72
   65
 73
    0
 40
0
  0
LTYPE
  2
__27
 70
   64
  3
                                
 72
   65
 73
    0
 40
0
  0
LTYPE
  2
__28
 70
   64
  3
                                
 72
   65
 73
    0
 40
0
  0
LTYPE
  2
__29
 70
   64
  3
                                
 72
   65
 73
    0
 40
0
  0
LTYPE
  2
__30
 70
   64
  3
                                
 72
   65
 73
    0
 40
0
  0
LTYPE
  2
__31
 70
   64
  3
                                
 72
   65
 73
    0
 40
0
  0
LTYPE
  2
__32
 70
   64
  3
                                
 72
   65
 73
    0
 40
0
  0
ENDTAB
  0
TABLE
  2
STYLE
  5
3
100
AcDbSymbolTable
 70
     1
  0
STYLE
  5
10
100
AcDbSymbolTableRecord
100
AcDbTextStyleTableRecord
  2
STANDARD
 70
     0
 40
0.0
 41
1.0
 50
0.0
 71
     0
 42
0.2
  3
txt
  4
bigfont.shx
  0
STYLE
  5
26
100
AcDbSymbolTableRecord
100
AcDbTextStyleTableRecord
  2
TATEGAKI
 70
    68
 40
0.0
 41
1.0
 50
0.0
 71
     0
 42
1.0
  3
txt
  4
bigfont.shx
  0
ENDTAB
  0
TABLE
  2
LAYER
 70
    5
  0
LAYER
  2
_1-0_
 70
   64
 62
    7
  6
CONTINUOUS
  0
LAYER
  2
_1-3_
 70
   64
 62
    7
  6
CONTINUOUS
  0
LAYER
  2
_1-a_
 70
   64
 62
    7
  6
CONTINUOUS
  0
LAYER
  2
_1-f_
 70
   64
 62
    7
  6
CONTINUOUS
  0
LAYER
  2
ADD_LINE
 70
   64
 62
    7
  6
CONTINUOUS
  0
ENDTAB
  0
ENDSEC
  0
SECTION
  2
BLOCKS
  0
ENDSEC
  0
SECTION
  2
ENTITIES
  0
ARC
  8
_1-0_
  6
CONTINUOUS
 62
    3
 10
3703.1061032120028
 20
1785.0000000000002
 40
1250
 50
180
 51
270
  0
LINE
  8
_1-f_
  6
CONTINUOUS
 62
    7
 10
3703.1061032120042
 20
8785.0000000000018
 11
2446.1981618837799
 21
10041.907941328223
  0
ARC
  8
_1-0_
  6
CONTINUOUS
 62
    3
 10
10703.106103212001
 20
8785
 40
1250
 50
0
 51
90
  0
LINE
  8
_1-3_
  6
CONTINUOUS
 62
    7
 10
7203.1061032120024
 20
785.00000000000011
 11
7202.4999999999991
 21
785.00000000000011
  0
LINE
  8
_1-3_
  6
CONTINUOUS
 62
    7
 10
7203.1061032120024
 20
9785
 11
7202.5000000000009
 21
9785
  0
TEXT
  8
_1-f_
 62
    6
 10
8013.1177973369249
 20
5297.5
 40
225
 41
1
 50
0
  1
380
  0
TEXT
  8
_1-f_
 62
    6
 10
7190.6061032120024
 20
4033.8776166498528
 40
225
 41
1
 50
90
  1
380
  0
LINE
  8
ADD_LINE
  6
DOT
 62
    9
 10
3078.1061032120028
 20
10035
 11
3078.1061032120028
 21
535.00000000000011
  0
LINE
  8
ADD_LINE
  6
DOT
 62
    9
 10
11953.106103212001
 20
9410
 11
2453.1061032120028
 21
9410
  0
LINE
  8
ADD_LINE
  6
DOT
 62
    9
 10
11328.106103212001
 20
535.00000000000011
 11
11328.106103212001
 21
10035
  0
LINE
  8
ADD_LINE
  6
DOT
 62
    9
 10
2453.1061032120028
 20
1160.0000000000002
 11
11953.106103212001
 21
1160.0000000000002
  0
LINE
  8
_1-f_
  6
CONTINUOUS
 62
    7
 10
7203.1061032120024
 20
10035
 11
7203.1061032120024
 21
535.00000000000159
  0
LINE
  8
_1-f_
  6
CONTINUOUS
 62
    7
 10
7203.1061032120024
 20
10035
 11
7222.5175315946917
 21
9962.5555630283197
  0
LINE
  8
_1-f_
  6
CONTINUOUS
 62
    7
 10
7203.1061032120024
 20
10035
 11
7183.694674829314
 21
9962.5555630283197
  0
LINE
  8
_1-f_
  6
CONTINUOUS
 62
    7
 10
7203.1061032120024
 20
535.00000000000159
 11
7222.5175315946917
 21
607.44443697168151
  0
LINE
  8
_1-f_
  6
CONTINUOUS
 62
    7
 10
7203.1061032120024
 20
535.00000000000159
 11
7183.694674829313
 21
607.44443697168151
  0
LINE
  8
_1-f_
  6
CONTINUOUS
 62
    7
 10
11953.106103212001
 20
5285
 11
2453.1060218811044
 21
5285
  0
LINE
  8
_1-f_
  6
CONTINUOUS
 62
    7
 10
11953.106103212001
 20
5285
 11
11880.661666240323
 21
5265.5885716173107
  0
LINE
  8
_1-f_
  6
CONTINUOUS
 62
    7
 10
11953.106103212001
 20
5285
 11
11880.661666240323
 21
5304.4114283826893
  0
LINE
  8
_1-f_
  6
CONTINUOUS
 62
    7
 10
2453.1060218811044
 20
5285
 11
2525.5504588527842
 21
5265.5885716173107
  0
LINE
  8
_1-f_
  6
CONTINUOUS
 62
    7
 10
2453.1060218811044
 20
5285
 11
2525.5504588527842
 21
5304.4114283826893
  0
LINE
  8
_1-f_
  6
CONTINUOUS
 62
    7
 10
2446.1981618837799
 20
10041.907941328223
 11
2029.6306111111114
 21
10041.907941328223
  0
LINE
  8
_1-f_
  6
CONTINUOUS
 62
    7
 10
11960.014044540227
 20
10041.907941328222
 11
12376.581595312893
 21
10041.907941328222
  0
LINE
  8
_1-3_
  6
CONTINUOUS
 62
    7
 10
7203.1061032120033
 20
785.00000000000011
 11
7202.5000000000009
 21
785.00000000000011
  0
LINE
  8
_1-f_
  6
CONTINUOUS
 62
    7
 10
2446.1981618837799
 20
528.09205867177695
 11
2029.6306111111114
 21
528.09205867177695
  0
LINE
  8
_1-f_
  6
CONTINUOUS
 62
    7
 10
11960.014044540227
 20
528.09205867177764
 11
12376.581595312893
 21
528.09205867177764
  0
TEXT
  8
_1-a_
 62
    6
 10
2678.7499999999995
 20
7600.1818980235566
 40
250
 41
1
 50
0
  1
CIE-EJLASIQ　カウンター開口図
  0
TEXT
  8
_1-a_
 62
    6
 10
2673.2334172216001
 20
6589.2802684551953
 40
250
 41
1
 50
0
  1
開口をカットする前に必ず現物寸法
  0
TEXT
  8
_1-a_
 62
    6
 10
2673.2334172216001
 20
6272.9386017885281
 40
250
 41
1
 50
0
  1
を確認して調整してください
  0
TEXT
  8
_1-a_
 62
    6
 10
2673.2334172216001
 20
6924.2302684551942
 40
250
 41
1
 50
0
  1
焼物の特性上、個体差があるので
  0
ARC
  8
_1-0_
  6
CONTINUOUS
 62
    3
 10
3703.1061032120028
 20
8785
 40
1250
 50
90
 51
180
  0
TEXT
  8
_1-a_
 62
    6
 10
2035.7806111111117
 20
10054.652533333334
 40
250
 41
1
 50
0
  1
R50
  0
LINE
  8
_1-0_
  6
CONTINUOUS
 62
    3
 10
10703.106103212001
 20
10035
 11
3703.1061032120028
 21
10035
  0
LINE
  8
_1-f_
  6
CONTINUOUS
 62
    7
 10
10703.106103212001
 20
8785
 11
11960.014044540227
 21
10041.907941328222
  0
LINE
  8
_1-f_
  6
CONTINUOUS
 62
    7
 10
3703.1061032120028
 20
1784.9999999999973
 11
2446.1981618837799
 21
528.09205867177695
  0
LINE
  8
_1-f_
  6
CONTINUOUS
 62
    7
 10
10703.106103212001
 20
1784.999999999998
 11
11960.014044540227
 21
528.09205867177764
  0
LINE
  8
_1-f_
  6
CONTINUOUS
 62
    7
 10
2819.2226388848107
 20
9668.8834694649195
 11
2754.2707336009776
 21
9706.3834694649195
  0
LINE
  8
_1-f_
  6
CONTINUOUS
 62
    7
 10
2819.2226388848107
 20
9668.8834694649195
 11
2781.7226388848107
 21
9733.8353747487527
  0
LINE
  8
_1-f_
  6
CONTINUOUS
 62
    7
 10
11586.989579695186
 20
9668.8834764831845
 11
11651.941484979019
 21
9706.3834764831845
  0
LINE
  8
_1-f_
  6
CONTINUOUS
 62
    7
 10
11586.989579695186
 20
9668.8834764831845
 11
11624.489579695186
 21
9733.8353817670177
  0
ARC
  8
_1-0_
  6
CONTINUOUS
 62
    3
 10
10703.106103212001
 20
1785.0000000000009
 40
1250
 50
270
 51
0
  0
LINE
  8
_1-0_
  6
CONTINUOUS
 62
    3
 10
2453.1061032120028
 20
8785
 11
2453.1061032120028
 21
1785.0000000000002
  0
LINE
  8
_1-0_
  6
CONTINUOUS
 62
    3
 10
11953.106103212001
 20
1785.0000000000009
 11
11953.106103212001
 21
8785
  0
LINE
  8
_1-0_
  6
CONTINUOUS
 62
    3
 10
3703.1061032120028
 20
535.00000000000011
 11
10703.106103212001
 21
535.00000000000011
  0
LINE
  8
_1-f_
  6
CONTINUOUS
 62
    7
 10
11586.989567539194
 20
901.11653053508144
 11
11651.941472823029
 21
863.61653053508144
  0
LINE
  8
_1-f_
  6
CONTINUOUS
 62
    7
 10
11586.989567539194
 20
901.11653053508144
 11
11624.489567539194
 21
836.16462525124859
  0
LINE
  8
_1-f_
  6
CONTINUOUS
 62
    7
 10
2819.2226388848098
 20
901.11653053508007
 11
2754.2707336009771
 21
863.61653053508007
  0
LINE
  8
_1-f_
  6
CONTINUOUS
 62
    7
 10
2819.2226388848098
 20
901.11653053508007
 11
2781.7226388848098
 21
836.16462525124712
  0
TEXT
  8
_1-a_
 62
    6
 10
11970.431595312893
 20
10054.652533333332
 40
250
 41
1
 50
0
  1
R50
  0
TEXT
  8
_1-a_
 62
    6
 10
2035.7806111111117
 20
539.71014492753613
 40
250
 41
1
 50
0
  1
R50
  0
TEXT
  8
_1-a_
 62
    6
 10
11970.431595312893
 20
539.71014492753682
 40
250
 41
1
 50
0
  1
R50
  0
ENDSEC
  0
EOF
