  0
SECTION
  2
HEADER
  9
$ACADVER
  1
AC1009
  9
$INSBASE
 10
0
 20
0
 30
0
  9
$EXTMIN
 10
0
 20
0
  9
$EXTMAX
 10
14850
 20
10500
  9
$LIMMIN
 10
0
 20
0
  9
$LIMMAX
 10
14850
 20
10500
  9
$LTSCALE
 40
25
  0
ENDSEC
  0
SECTION
  2
TABLES
  0
TABLE
  2
LTYPE
 70
     9
  0
LTYPE
  2
CONTINUOUS
 70
    64
  3
実線
 72
    65
 73
     0
 40
0.0
  0
LTYPE
  2
DASHED1
 70
    64
  3
--  --  --  --  --  --  --  --  
 72
    65
 73
     2
 40
2.5
 49
1.25
 49
-1.25
  0
LTYPE
  2
DASHED2
 70
    64
  3
----    ----    ----    ----    
 72
    65
 73
     2
 40
5.0
 49
2.5
 49
-2.5
  0
LTYPE
  2
DASHED3
 70
    64
  3
------  ------  ------  ------  
 72
    65
 73
     2
 40
5.0
 49
3.75
 49
-1.25
  0
LTYPE
  2
CENTER1
 70
    64
  3
----- - ----- - ----- - ----- - 
 72
    65
 73
     4
 40
10.0
 49
6.25
 49
-1.25
 49
1.25
 49
-1.25
  0
LTYPE
  2
CENTER2
 70
    64
  3
----------  --  ----------  --  
 72
    65
 73
     4
 40
20.0
 49
12.5
 49
-2.5
 49
2.5
 49
-2.5
  0
LTYPE
  2
PHANTOM1
 70
    64
  3
--- - - --- - - --- - - --- - - 
 72
    65
 73
     6
 40
10.0
 49
3.25
 49
-1.25
 49
1.25
 49
-1.25
 49
1.25
 49
-1.25
  0
LTYPE
  2
PHANTOM2
 70
    64
  3
--------  -  -  --------  -  -  
 72
    65
 73
     6
 40
20.0
 49
10.0
 49
-2.5
 49
1.25
 49
-2.5
 49
1.25
 49
-2.5
  0
LTYPE
  2
DOT
 70
    64
  3
-   -   -   -   -   -   -   -   
 72
    65
 73
     2
 40
2.5
 49
0.625
 49
-1.875
  0
LTYPE
  2
DUMMY
 70
    64
  3
ダミー
 72
    65
 73
     0
 40
0.0
  0
LTYPE
  2
RAND1
 70
    64
  3
ランダム線1
 72
    65
 73
     4
 40
10.0
 49
1.0
 49
-2.0
 49
3.0
 49
-4.0
  0
LTYPE
  2
RAND2
 70
    64
  3
ランダム線2
 72
    65
 73
     4
 40
14.0
 49
2.0
 49
-3.0
 49
4.0
 49
-5.0
  0
LTYPE
  2
RAND3
 70
    64
  3
ランダム線3
 72
    65
 73
     4
 40
18.0
 49
3.0
 49
-4.0
 49
5.0
 49
-6.0
  0
LTYPE
  2
RAND4
 70
    64
  3
ランダム線4
 72
    65
 73
     4
 40
22.0
 49
4.0
 49
-5.0
 49
6.0
 49
-7.0
  0
LTYPE
  2
RAND5
 70
    64
  3
ランダム線5
 72
    65
 73
     4
 40
26.0
 49
5.0
 49
-6.0
 49
7.0
 49
-8.0
  0
LTYPE
  2
LONG1
 70
    64
  3
----------  --  ----------  --  
 72
    65
 73
     4
 40
40.0
 49
32.5
 49
-2.5
 49
2.5
 49
-2.5
  0
LTYPE
  2
LONG2
 70
    64
  3
--------  -  -  --------  -  -  
 72
    65
 73
     6
 40
40.0
 49
30.0
 49
-2.5
 49
1.25
 49
-2.5
 49
1.25
 49
-2.5
  0
LTYPE
  2
LONG3
 70
    64
  3
+++++++++++++++..+++++++++++++++
 72
    65
 73
     2
 40
40.0
 49
37.5
 49
-2.5
  0
LTYPE
  2
LONG4
 70
    64
  3
+++++++++++++++..+++++++++++++++
 72
    65
 73
     2
 40
80.0
 49
75.0
 49
-5.0
  0
LTYPE
  2
LONG5
 70
    64
  3
----------  --  ----------  --  
 72
    65
 73
     4
 40
60.0
 49
37.5
 49
-7.5
 49
7.5
 49
-7.5
  0
LTYPE
  2
dashed
 70
   64
  3
-------   -------------   ------
 72
   65
 73
    2
 40
7.5
 49
6
 49
-1.5
  0
LTYPE
  2
dashed_spaced
 70
   64
  3
----        --------        ----
 72
   65
 73
    2
 40
12
 49
6
 49
-6
  0
LTYPE
  2
long_dashed_dotted
 70
   64
  3
------------- --- --------------
 72
   65
 73
    4
 40
15.25
 49
12
 49
-1.5
 49
0.25
 49
-1.5
  0
LTYPE
  2
long_dashed_double-dotted
 70
   64
  3
----------- --- --- ------------
 72
   65
 73
    6
 40
17
 49
12
 49
-1.5
 49
0.25
 49
-1.5
 49
0.25
 49
-1.5
  0
LTYPE
  2
long_dashed_triplicate-dotted
 70
   64
  3
--------- --- --- --- ----------
 72
   65
 73
    8
 40
18.75
 49
12
 49
-1.5
 49
0.25
 49
-1.5
 49
0.25
 49
-1.5
 49
0.25
 49
-1.5
  0
LTYPE
  2
dotted
 70
   64
  3
   -       -       -       -    
 72
   65
 73
    2
 40
1.75
 49
0.25
 49
-1.5
  0
LTYPE
  2
chain
 70
   64
  3
-------------- -- --------------
 72
   65
 73
    4
 40
18.5
 49
12
 49
-1.5
 49
3.5
 49
-1.5
  0
LTYPE
  2
chain_double_dash
 70
   64
  3
------------ -- -- -------------
 72
   65
 73
    6
 40
23.5
 49
12
 49
-1.5
 49
3.5
 49
-1.5
 49
3.5
 49
-1.5
  0
LTYPE
  2
dashed_dotted
 70
   64
  3
-----------     -     ----------
 72
   65
 73
    4
 40
9.25
 49
6
 49
-1.5
 49
0.25
 49
-1.5
  0
LTYPE
  2
double-dashed_dotted
 70
   64
  3
------   -----------   -   -----
 72
   65
 73
    6
 40
16.75
 49
6
 49
-1.5
 49
6
 49
-1.5
 49
0.25
 49
-1.5
  0
LTYPE
  2
dashed_double-dotted
 70
   64
  3
---------    -    -    ---------
 72
   65
 73
    6
 40
11
 49
6
 49
-1.5
 49
0.25
 49
-1.5
 49
0.25
 49
-1.5
  0
LTYPE
  2
double-dashed_double-dotted
 70
   64
  3
-----   ---------   -   -   ----
 72
   65
 73
    8
 40
18.5
 49
6
 49
-1.5
 49
6
 49
-1.5
 49
0.25
 49
-1.5
 49
0.25
 49
-1.5
  0
LTYPE
  2
dashed_triplicate-dotted
 70
   64
  3
-------    -    -    -    ------
 72
   65
 73
    8
 40
12.75
 49
6
 49
-1.5
 49
0.25
 49
-1.5
 49
0.25
 49
-1.5
 49
0.25
 49
-1.5
  0
LTYPE
  2
double-dashed_triplicate-dotted
 70
   64
  3
-----  ---------  -  -  -  -----
 72
   65
 73
   10
 40
20.25
 49
6
 49
-1.5
 49
6
 49
-1.5
 49
0.25
 49
-1.5
 49
0.25
 49
-1.5
 49
0.25
 49
-1.5
  0
LTYPE
  2
undefined
 70
   64
  3
--------------------------------
 72
   65
 73
    0
 40
0
  0
LTYPE
  2
_
 70
   64
  3
                                
 72
   65
 73
    0
 40
0
  0
LTYPE
  2
__18
 70
   64
  3
                                
 72
   65
 73
    0
 40
0
  0
LTYPE
  2
__19
 70
   64
  3
                                
 72
   65
 73
    0
 40
0
  0
LTYPE
  2
__20
 70
   64
  3
                                
 72
   65
 73
    0
 40
0
  0
LTYPE
  2
__21
 70
   64
  3
                                
 72
   65
 73
    0
 40
0
  0
LTYPE
  2
__22
 70
   64
  3
                                
 72
   65
 73
    0
 40
0
  0
LTYPE
  2
__23
 70
   64
  3
                                
 72
   65
 73
    0
 40
0
  0
LTYPE
  2
__24
 70
   64
  3
                                
 72
   65
 73
    0
 40
0
  0
LTYPE
  2
__25
 70
   64
  3
                                
 72
   65
 73
    0
 40
0
  0
LTYPE
  2
__26
 70
   64
  3
                                
 72
   65
 73
    0
 40
0
  0
LTYPE
  2
__27
 70
   64
  3
                                
 72
   65
 73
    0
 40
0
  0
LTYPE
  2
__28
 70
   64
  3
                                
 72
   65
 73
    0
 40
0
  0
LTYPE
  2
__29
 70
   64
  3
                                
 72
   65
 73
    0
 40
0
  0
LTYPE
  2
__30
 70
   64
  3
                                
 72
   65
 73
    0
 40
0
  0
LTYPE
  2
__31
 70
   64
  3
                                
 72
   65
 73
    0
 40
0
  0
LTYPE
  2
__32
 70
   64
  3
                                
 72
   65
 73
    0
 40
0
  0
ENDTAB
  0
TABLE
  2
STYLE
  5
3
100
AcDbSymbolTable
 70
     1
  0
STYLE
  5
10
100
AcDbSymbolTableRecord
100
AcDbTextStyleTableRecord
  2
STANDARD
 70
     0
 40
0.0
 41
1.0
 50
0.0
 71
     0
 42
0.2
  3
txt
  4
bigfont.shx
  0
STYLE
  5
26
100
AcDbSymbolTableRecord
100
AcDbTextStyleTableRecord
  2
TATEGAKI
 70
    68
 40
0.0
 41
1.0
 50
0.0
 71
     0
 42
1.0
  3
txt
  4
bigfont.shx
  0
ENDTAB
  0
TABLE
  2
LAYER
 70
    5
  0
LAYER
  2
_1-0_
 70
   64
 62
    7
  6
CONTINUOUS
  0
LAYER
  2
_1-3_
 70
   64
 62
    7
  6
CONTINUOUS
  0
LAYER
  2
_1-a_
 70
   64
 62
    7
  6
CONTINUOUS
  0
LAYER
  2
_1-f_
 70
   64
 62
    7
  6
CONTINUOUS
  0
LAYER
  2
ADD_LINE
 70
   64
 62
    7
  6
CONTINUOUS
  0
ENDTAB
  0
ENDSEC
  0
SECTION
  2
BLOCKS
  0
ENDSEC
  0
SECTION
  2
ENTITIES
  0
LINE
  8
_1-0_
  6
CONTINUOUS
 62
    3
 10
12952.5
 20
5285
 11
12952.5
 21
5285
  0
LINE
  8
_1-0_
  6
CONTINUOUS
 62
    3
 10
12952.5
 20
5285
 11
12865.144579820197
 21
6066.4168038423904
  0
LINE
  8
_1-0_
  6
CONTINUOUS
 62
    3
 10
12865.144579820197
 20
6066.4168038423904
 11
12605.732569518976
 21
6824.090653516012
  0
LINE
  8
_1-0_
  6
CONTINUOUS
 62
    3
 10
12605.732569518976
 20
6824.090653516012
 11
12182.146071760522
 21
7535.0000124999988
  0
LINE
  8
_1-0_
  6
CONTINUOUS
 62
    3
 10
12182.146071760522
 20
7535.0000124999988
 11
11607.255547934124
 21
8177.5442596591165
  0
LINE
  8
_1-0_
  6
CONTINUOUS
 62
    3
 10
11607.255547934124
 20
8177.5442596591165
 11
10898.528755697602
 21
8732.2000131865116
  0
LINE
  8
_1-0_
  6
CONTINUOUS
 62
    3
 10
10898.528755697602
 20
8732.2000131865116
 11
10077.500000000002
 21
9182.1143386806089
  0
LINE
  8
_1-0_
  6
CONTINUOUS
 62
    3
 10
10077.500000000002
 20
9182.1143386806089
 11
9169.1158241225967
 21
9513.616817028902
  0
LINE
  8
_1-0_
  6
CONTINUOUS
 62
    3
 10
9169.1158241225967
 20
9513.616817028902
 11
8200.9770215848512
 21
9716.6349131751304
  0
LINE
  8
_1-0_
  6
CONTINUOUS
 62
    3
 10
8200.9770215848512
 20
9716.6349131751304
 11
7202.5000000000009
 21
9785.0000249999994
  0
LINE
  8
_1-0_
  6
CONTINUOUS
 62
    3
 10
7202.5000000000009
 20
9785.0000249999994
 11
6204.0229784151516
 21
9716.6349131751304
  0
LINE
  8
_1-0_
  6
CONTINUOUS
 62
    3
 10
6204.0229784151516
 20
9716.6349131751304
 11
5235.8841758774061
 21
9513.616817028902
  0
LINE
  8
_1-0_
  6
CONTINUOUS
 62
    3
 10
5235.8841758774061
 20
9513.616817028902
 11
4327.5000000000018
 21
9182.1143386806089
  0
LINE
  8
_1-0_
  6
CONTINUOUS
 62
    3
 10
4327.5000000000018
 20
9182.1143386806089
 11
3506.4712443024014
 21
8732.2000131865134
  0
LINE
  8
_1-0_
  6
CONTINUOUS
 62
    3
 10
3506.4712443024014
 20
8732.2000131865134
 11
2797.7444520658792
 21
8177.5442596591183
  0
LINE
  8
_1-0_
  6
CONTINUOUS
 62
    3
 10
2797.7444520658792
 20
8177.5442596591183
 11
2222.8539282394813
 21
7535.0000125000033
  0
LINE
  8
_1-0_
  6
CONTINUOUS
 62
    3
 10
2222.8539282394813
 20
7535.0000125000033
 11
1799.2674304810298
 21
6824.0906535160175
  0
LINE
  8
_1-0_
  6
CONTINUOUS
 62
    3
 10
1799.2674304810298
 20
6824.0906535160175
 11
1539.8554201798061
 21
6066.4168038423968
  0
LINE
  8
_1-0_
  6
CONTINUOUS
 62
    3
 10
1539.8554201798061
 20
6066.4168038423968
 11
1452.5000000000009
 21
5285.0000000000064
  0
LINE
  8
_1-0_
  6
CONTINUOUS
 62
    3
 10
1452.5000000000009
 20
5285.0000000000064
 11
1539.8554201798033
 21
4503.5831961576168
  0
LINE
  8
_1-0_
  6
CONTINUOUS
 62
    3
 10
1539.8554201798033
 20
4503.5831961576168
 11
1799.2674304810243
 21
3745.9093464839953
  0
LINE
  8
_1-0_
  6
CONTINUOUS
 62
    3
 10
1799.2674304810243
 20
3745.9093464839953
 11
2222.8539282394722
 21
3034.9999875000085
  0
LINE
  8
_1-0_
  6
CONTINUOUS
 62
    3
 10
2222.8539282394722
 20
3034.9999875000085
 11
2797.7444520658692
 21
2392.4557403408912
  0
LINE
  8
_1-0_
  6
CONTINUOUS
 62
    3
 10
2797.7444520658692
 20
2392.4557403408912
 11
3506.4712443023905
 21
1837.7999868134943
  0
LINE
  8
_1-0_
  6
CONTINUOUS
 62
    3
 10
3506.4712443023905
 20
1837.7999868134943
 11
4327.49999999999
 21
1387.8856613193966
  0
LINE
  8
_1-0_
  6
CONTINUOUS
 62
    3
 10
4327.49999999999
 20
1387.8856613193966
 11
5235.8841758773924
 21
1056.3831829711007
  0
LINE
  8
_1-0_
  6
CONTINUOUS
 62
    3
 10
5235.8841758773924
 20
1056.3831829711007
 11
6204.0229784151361
 21
853.36508682487238
  0
LINE
  8
_1-0_
  6
CONTINUOUS
 62
    3
 10
6204.0229784151361
 20
853.36508682487238
 11
7202.4999999999845
 21
784.99997500000063
  0
LINE
  8
_1-0_
  6
CONTINUOUS
 62
    3
 10
7202.4999999999845
 20
784.99997500000063
 11
8200.977021584833
 21
853.36508682486783
  0
LINE
  8
_1-0_
  6
CONTINUOUS
 62
    3
 10
8200.977021584833
 20
853.36508682486783
 11
9169.1158241225785
 21
1056.3831829710925
  0
LINE
  8
_1-0_
  6
CONTINUOUS
 62
    3
 10
9169.1158241225785
 20
1056.3831829710925
 11
10077.499999999984
 21
1387.8856613193839
  0
LINE
  8
_1-0_
  6
CONTINUOUS
 62
    3
 10
10077.499999999984
 20
1387.8856613193839
 11
10898.528755697585
 21
1837.799986813478
  0
LINE
  8
_1-0_
  6
CONTINUOUS
 62
    3
 10
10898.528755697585
 20
1837.799986813478
 11
11607.25554793411
 21
2392.4557403408699
  0
LINE
  8
_1-0_
  6
CONTINUOUS
 62
    3
 10
11607.25554793411
 20
2392.4557403408699
 11
12182.146071760511
 21
3034.9999874999844
  0
LINE
  8
_1-0_
  6
CONTINUOUS
 62
    3
 10
12182.146071760511
 20
3034.9999874999844
 11
12605.732569518965
 21
3745.9093464839689
  0
LINE
  8
_1-0_
  6
CONTINUOUS
 62
    3
 10
12605.732569518965
 20
3745.9093464839689
 11
12865.144579820193
 21
4503.5831961575896
  0
LINE
  8
_1-0_
  6
CONTINUOUS
 62
    3
 10
12865.144579820193
 20
4503.5831961575896
 11
12952.5
 21
5284.9999999999791
  0
LINE
  8
_1-0_
  6
CONTINUOUS
 62
    3
 10
12952.5
 20
5284.9999999999791
 11
12952.5
 21
5284.9999999999991
  0
LINE
  8
ADD_LINE
  6
DOT
 62
    9
 10
1452.5000000000005
 20
5285
 11
12952.5
 21
5285
  0
LINE
  8
ADD_LINE
  6
DOT
 62
    9
 10
7203.1061032120024
 20
785.00000000000011
 11
7203.1061032120024
 21
9785
  0
LINE
  8
_1-3_
  6
CONTINUOUS
 62
    7
 10
7203.1061032120024
 20
785.00000000000011
 11
7203.1061032120024
 21
9785
  0
LINE
  8
_1-3_
  6
CONTINUOUS
 62
    7
 10
7203.1061032120024
 20
785.00000000000011
 11
7183.694674829313
 21
857.44443697168003
  0
LINE
  8
_1-3_
  6
CONTINUOUS
 62
    7
 10
7203.1061032120024
 20
785.00000000000011
 11
7222.5175315946917
 21
857.44443697168003
  0
LINE
  8
_1-3_
  6
CONTINUOUS
 62
    7
 10
7203.1061032120024
 20
9785
 11
7183.694674829314
 21
9712.5555630283197
  0
LINE
  8
_1-3_
  6
CONTINUOUS
 62
    7
 10
7203.1061032120024
 20
9785
 11
7222.5175315946917
 21
9712.5555630283197
  0
LINE
  8
_1-3_
  6
CONTINUOUS
 62
    7
 10
7203.1061032120024
 20
785.00000000000011
 11
7202.4999999999991
 21
785.00000000000011
  0
LINE
  8
_1-3_
  6
CONTINUOUS
 62
    7
 10
7203.1061032120024
 20
9785
 11
7202.5000000000009
 21
9785
  0
LINE
  8
_1-3_
  6
CONTINUOUS
 62
    7
 10
1452.5000000000005
 20
5285
 11
12952.5
 21
5285
  0
LINE
  8
_1-3_
  6
CONTINUOUS
 62
    7
 10
1452.5000000000005
 20
5285
 11
1524.9444369716805
 21
5304.4114283826893
  0
LINE
  8
_1-3_
  6
CONTINUOUS
 62
    7
 10
1452.5000000000005
 20
5285
 11
1524.9444369716805
 21
5265.5885716173107
  0
LINE
  8
_1-3_
  6
CONTINUOUS
 62
    7
 10
12952.5
 20
5285
 11
12880.055563028322
 21
5304.4114283826893
  0
LINE
  8
_1-3_
  6
CONTINUOUS
 62
    7
 10
12952.5
 20
5285
 11
12880.055563028322
 21
5265.5885716173107
  0
TEXT
  8
_1-3_
 62
    6
 10
7190.6061032120024
 20
4733.4499999999998
 40
225
 41
1
 50
90
  1
360
  0
TEXT
  8
_1-3_
 62
    6
 10
7377.1000000000004
 20
5297.5
 40
225
 41
1
 50
0
  1
460
  0
TEXT
  8
_1-a_
 62
    6
 10
2443.083333333333
 20
7075.9402313568899
 40
250
 41
1
 50
0
  1
CIE-EJLASPO　カウンター開口図
  0
TEXT
  8
_1-a_
 62
    6
 10
2443.083333333333
 20
6104.6902313568889
 40
250
 41
1
 50
0
  1
開口をカットする前に必ず現物寸法
  0
TEXT
  8
_1-a_
 62
    6
 10
2443.083333333333
 20
5775.5443980235559
 40
250
 41
1
 50
0
  1
を確認して調整してください
  0
TEXT
  8
_1-a_
 62
    6
 10
2443.083333333333
 20
6445.9402313568889
 40
250
 41
1
 50
0
  1
焼物の特性上、個体差があるので
  0
ENDSEC
  0
EOF
