  0
SECTION
  2
HEADER
  9
$ACADVER
  1
AC1018
  9
$ACADMAINTVER
 70
     0
  9
$DWGCODEPAGE
  3
ANSI_1252
  9
$INSBASE
 10
0.0
 20
0.0
 30
0.0
  9
$EXTMIN
 10
839.0052984165005
 20
-0.0000025477924339
 30
0.0
  9
$EXTMAX
 10
1348.387017928572
 20
440.5096676416157
 30
0.0
  9
$LIMMIN
 10
0.0
 20
0.0
  9
$LIMMAX
 10
12.0
 20
9.0
  9
$ORTHOMODE
 70
     0
  9
$REGENMODE
 70
     1
  9
$FILLMODE
 70
     1
  9
$QTEXTMODE
 70
     0
  9
$MIRRTEXT
 70
     1
  9
$LTSCALE
 40
1.0
  9
$ATTMODE
 70
     1
  9
$TEXTSIZE
 40
0.2
  9
$TRACEWID
 40
0.05
  9
$TEXTSTYLE
  7
Standard
  9
$CLAYER
  8
0
  9
$CELTYPE
  6
ByLayer
  9
$CECOLOR
 62
   256
  9
$CELTSCALE
 40
1.0
  9
$DISPSILH
 70
     0
  9
$DIMSCALE
 40
1.0
  9
$DIMASZ
 40
0.18
  9
$DIMEXO
 40
0.0625
  9
$DIMDLI
 40
0.38
  9
$DIMRND
 40
0.0
  9
$DIMDLE
 40
0.0
  9
$DIMEXE
 40
0.18
  9
$DIMTP
 40
0.0
  9
$DIMTM
 40
0.0
  9
$DIMTXT
 40
0.18
  9
$DIMCEN
 40
0.09
  9
$DIMTSZ
 40
0.0
  9
$DIMTOL
 70
     0
  9
$DIMLIM
 70
     0
  9
$DIMTIH
 70
     1
  9
$DIMTOH
 70
     1
  9
$DIMSE1
 70
     0
  9
$DIMSE2
 70
     0
  9
$DIMTAD
 70
     0
  9
$DIMZIN
 70
     0
  9
$DIMBLK
  1

  9
$DIMASO
 70
     1
  9
$DIMSHO
 70
     1
  9
$DIMPOST
  1

  9
$DIMAPOST
  1

  9
$DIMALT
 70
     0
  9
$DIMALTD
 70
     2
  9
$DIMALTF
 40
25.4
  9
$DIMLFAC
 40
1.0
  9
$DIMTOFL
 70
     0
  9
$DIMTVP
 40
0.0
  9
$DIMTIX
 70
     0
  9
$DIMSOXD
 70
     0
  9
$DIMSAH
 70
     0
  9
$DIMBLK1
  1

  9
$DIMBLK2
  1

  9
$DIMSTYLE
  2
Standard
  9
$DIMCLRD
 70
     0
  9
$DIMCLRE
 70
     0
  9
$DIMCLRT
 70
     0
  9
$DIMTFAC
 40
1.0
  9
$DIMGAP
 40
0.09
  9
$DIMJUST
 70
     0
  9
$DIMSD1
 70
     0
  9
$DIMSD2
 70
     0
  9
$DIMTOLJ
 70
     1
  9
$DIMTZIN
 70
     0
  9
$DIMALTZ
 70
     0
  9
$DIMALTTZ
 70
     0
  9
$DIMUPT
 70
     0
  9
$DIMDEC
 70
     4
  9
$DIMTDEC
 70
     4
  9
$DIMALTU
 70
     2
  9
$DIMALTTD
 70
     2
  9
$DIMTXSTY
  7
Standard
  9
$DIMAUNIT
 70
     0
  9
$DIMADEC
 70
     0
  9
$DIMALTRND
 40
0.0
  9
$DIMAZIN
 70
     0
  9
$DIMDSEP
 70
    46
  9
$DIMATFIT
 70
     3
  9
$DIMFRAC
 70
     0
  9
$DIMLDRBLK
  1

  9
$DIMLUNIT
 70
     2
  9
$DIMLWD
 70
    -2
  9
$DIMLWE
 70
    -2
  9
$DIMTMOVE
 70
     2
  9
$LUNITS
 70
     2
  9
$LUPREC
 70
     2
  9
$SKETCHINC
 40
0.1
  9
$FILLETRAD
 40
0.5
  9
$AUNITS
 70
     0
  9
$AUPREC
 70
     0
  9
$MENU
  1
.
  9
$ELEVATION
 40
0.0
  9
$PELEVATION
 40
0.0
  9
$THICKNESS
 40
0.0
  9
$LIMCHECK
 70
     0
  9
$CHAMFERA
 40
0.5
  9
$CHAMFERB
 40
0.5
  9
$CHAMFERC
 40
1.0
  9
$CHAMFERD
 40
0.0
  9
$SKPOLY
 70
     0
  9
$TDCREATE
 40
2457340.589623831
  9
$TDUCREATE
 40
2457340.547957164
  9
$TDUPDATE
 40
2457340.589623842
  9
$TDUUPDATE
 40
2457340.547957176
  9
$TDINDWG
 40
0.0000000116
  9
$TDUSRTIMER
 40
0.0000000116
  9
$USRTIMER
 70
     1
  9
$ANGBASE
 50
0.0
  9
$ANGDIR
 70
     0
  9
$PDMODE
 70
     0
  9
$PDSIZE
 40
0.0
  9
$PLINEWID
 40
0.0
  9
$SPLFRAME
 70
     0
  9
$SPLINETYPE
 70
     6
  9
$SPLINESEGS
 70
     8
  9
$HANDSEED
  5
147
  9
$SURFTAB1
 70
     6
  9
$SURFTAB2
 70
     6
  9
$SURFTYPE
 70
     6
  9
$SURFU
 70
     6
  9
$SURFV
 70
     6
  9
$UCSBASE
  2

  9
$UCSNAME
  2

  9
$UCSORG
 10
0.0
 20
0.0
 30
0.0
  9
$UCSXDIR
 10
1.0
 20
0.0
 30
0.0
  9
$UCSYDIR
 10
0.0
 20
1.0
 30
0.0
  9
$UCSORTHOREF
  2

  9
$UCSORTHOVIEW
 70
     0
  9
$UCSORGTOP
 10
0.0
 20
0.0
 30
0.0
  9
$UCSORGBOTTOM
 10
0.0
 20
0.0
 30
0.0
  9
$UCSORGLEFT
 10
0.0
 20
0.0
 30
0.0
  9
$UCSORGRIGHT
 10
0.0
 20
0.0
 30
0.0
  9
$UCSORGFRONT
 10
0.0
 20
0.0
 30
0.0
  9
$UCSORGBACK
 10
0.0
 20
0.0
 30
0.0
  9
$PUCSBASE
  2

  9
$PUCSNAME
  2

  9
$PUCSORG
 10
0.0
 20
0.0
 30
0.0
  9
$PUCSXDIR
 10
1.0
 20
0.0
 30
0.0
  9
$PUCSYDIR
 10
0.0
 20
1.0
 30
0.0
  9
$PUCSORTHOREF
  2

  9
$PUCSORTHOVIEW
 70
     0
  9
$PUCSORGTOP
 10
0.0
 20
0.0
 30
0.0
  9
$PUCSORGBOTTOM
 10
0.0
 20
0.0
 30
0.0
  9
$PUCSORGLEFT
 10
0.0
 20
0.0
 30
0.0
  9
$PUCSORGRIGHT
 10
0.0
 20
0.0
 30
0.0
  9
$PUCSORGFRONT
 10
0.0
 20
0.0
 30
0.0
  9
$PUCSORGBACK
 10
0.0
 20
0.0
 30
0.0
  9
$USERI1
 70
     0
  9
$USERI2
 70
     0
  9
$USERI3
 70
     0
  9
$USERI4
 70
     0
  9
$USERI5
 70
     0
  9
$USERR1
 40
0.0
  9
$USERR2
 40
0.0
  9
$USERR3
 40
0.0
  9
$USERR4
 40
0.0
  9
$USERR5
 40
0.0
  9
$WORLDVIEW
 70
     1
  9
$SHADEDGE
 70
     3
  9
$SHADEDIF
 70
    70
  9
$TILEMODE
 70
     1
  9
$MAXACTVP
 70
    64
  9
$PINSBASE
 10
0.0
 20
0.0
 30
0.0
  9
$PLIMCHECK
 70
     0
  9
$PEXTMIN
 10
1.000000000000000E+20
 20
1.000000000000000E+20
 30
1.000000000000000E+20
  9
$PEXTMAX
 10
-1.000000000000000E+20
 20
-1.000000000000000E+20
 30
-1.000000000000000E+20
  9
$PLIMMIN
 10
0.0
 20
0.0
  9
$PLIMMAX
 10
12.0
 20
9.0
  9
$UNITMODE
 70
     0
  9
$VISRETAIN
 70
     1
  9
$PLINEGEN
 70
     0
  9
$PSLTSCALE
 70
     1
  9
$TREEDEPTH
 70
  3020
  9
$CMLSTYLE
  2
Standard
  9
$CMLJUST
 70
     0
  9
$CMLSCALE
 40
1.0
  9
$PROXYGRAPHICS
 70
     1
  9
$MEASUREMENT
 70
     0
  9
$CELWEIGHT
370
    -1
  9
$ENDCAPS
280
     0
  9
$JOINSTYLE
280
     0
  9
$LWDISPLAY
290
     0
  9
$INSUNITS
 70
     4
  9
$HYPERLINKBASE
  1

  9
$STYLESHEET
  1

  9
$XEDIT
290
     1
  9
$CEPSNTYPE
380
     0
  9
$PSTYLEMODE
290
     1
  9
$FINGERPRINTGUID
  2
{418B0121-75BD-433C-AA9E-E43F4253E027}
  9
$VERSIONGUID
  2
{FAEB1C32-E019-11D5-929B-00C0DF256EC4}
  9
$EXTNAMES
290
     1
  9
$PSVPSCALE
 40
0.0
  9
$OLESTARTUP
290
     0
  9
$SORTENTS
280
   127
  9
$INDEXCTL
280
     0
  9
$HIDETEXT
280
     1
  9
$XCLIPFRAME
290
     0
  9
$HALOGAP
280
     0
  9
$OBSCOLOR
 70
   257
  9
$OBSLTYPE
280
     0
  9
$INTERSECTIONDISPLAY
280
     0
  9
$INTERSECTIONCOLOR
 70
   257
  9
$DIMASSOC
280
     2
  9
$PROJECTNAME
  1

  0
ENDSEC
  0
SECTION
  2
CLASSES
  0
CLASS
  1
ACDBDICTIONARYWDFLT
  2
AcDbDictionaryWithDefault
  3
ObjectDBX Classes
 90
        0
 91
        4
280
     0
281
     0
  0
CLASS
  1
VISUALSTYLE
  2
AcDbVisualStyle
  3
ObjectDBX Classes
 90
     4095
 91
        4
280
     0
281
     0
  0
ENDSEC
  0
SECTION
  2
TABLES
  0
TABLE
  2
VPORT
  5
8
330
0
100
AcDbSymbolTable
 70
     1
  0
VPORT
  5
29
330
8
100
AcDbSymbolTableRecord
100
AcDbViewportTableRecord
  2
*Active
 70
     0
 10
0.0
 20
0.0
 11
1.0
 21
1.0
 12
1093.696158172536
 22
220.2548325469116
 13
0.0
 23
0.0
 14
0.5
 24
0.5
 15
0.5
 25
0.5
 16
0.0
 26
0.0
 36
1.0
 17
0.0
 27
0.0
 37
0.0
 40
449.3198635931963
 41
1.156346282461972
 42
50.0
 43
0.0
 44
0.0
 50
0.0
 51
0.0
 71
     0
 72
   100
 73
     1
 74
     3
 75
     0
 76
     0
 77
     0
 78
     0
281
     0
 65
     1
110
0.0
120
0.0
130
0.0
111
1.0
121
0.0
131
0.0
112
0.0
122
1.0
132
0.0
 79
     0
146
0.0
  0
ENDTAB
  0
TABLE
  2
LTYPE
  5
5
330
0
100
AcDbSymbolTable
 70
     1
  0
LTYPE
  5
14
330
5
100
AcDbSymbolTableRecord
100
AcDbLinetypeTableRecord
  2
ByBlock
 70
     0
  3

 72
    65
 73
     0
 40
0.0
  0
LTYPE
  5
15
330
5
100
AcDbSymbolTableRecord
100
AcDbLinetypeTableRecord
  2
ByLayer
 70
     0
  3

 72
    65
 73
     0
 40
0.0
  0
LTYPE
  5
16
330
5
100
AcDbSymbolTableRecord
100
AcDbLinetypeTableRecord
  2
Continuous
 70
     0
  3
Solid line
 72
    65
 73
     0
 40
0.0
  0
ENDTAB
  0
TABLE
  2
LAYER
  5
2
330
0
100
AcDbSymbolTable
 70
     7
  0
LAYER
  5
10
330
2
100
AcDbSymbolTableRecord
100
AcDbLayerTableRecord
  2
0
 70
     0
 62
     7
  6
Continuous
370
    -3
390
F
  0
LAYER
  5
3B
330
2
100
AcDbSymbolTableRecord
100
AcDbLayerTableRecord
  2
3D_WOOD - NASCOSTA
 70
     0
 62
   255
  6
Continuous
370
    -3
390
F
  0
LAYER
  5
40
330
2
100
AcDbSymbolTableRecord
100
AcDbLayerTableRecord
  2
3D_WOOD - VISIBILE
 70
     0
 62
   253
  6
Continuous
370
    -3
390
F
  0
LAYER
  5
54
330
2
100
AcDbSymbolTableRecord
100
AcDbLayerTableRecord
  2
3D_PORTALAMPADE - NASCOSTA
 70
     0
 62
   255
  6
Continuous
370
    -3
390
F
  0
LAYER
  5
5D
330
2
100
AcDbSymbolTableRecord
100
AcDbLayerTableRecord
  2
3D_U METALLICA - NASCOSTA
 70
     0
 62
   255
  6
Continuous
370
    -3
390
F
  0
LAYER
  5
65
330
2
100
AcDbSymbolTableRecord
100
AcDbLayerTableRecord
  2
3D_BLOCCACAVI - NASCOSTA
 70
     0
 62
   255
  6
Continuous
370
    -3
390
F
  0
LAYER
  5
D7
330
2
100
AcDbSymbolTableRecord
100
AcDbLayerTableRecord
  2
3D_BLOCCACAVI - VISIBILE
 70
     0
 62
     7
  6
Continuous
370
    -3
390
F
  0
ENDTAB
  0
TABLE
  2
STYLE
  5
3
330
0
100
AcDbSymbolTable
 70
     1
  0
STYLE
  5
11
330
3
100
AcDbSymbolTableRecord
100
AcDbTextStyleTableRecord
  2
Standard
 70
     0
 40
0.0
 41
1.0
 50
0.0
 71
     0
 42
0.2
  3
txt
  4

  0
ENDTAB
  0
TABLE
  2
VIEW
  5
6
330
0
100
AcDbSymbolTable
 70
     0
  0
ENDTAB
  0
TABLE
  2
UCS
  5
7
330
0
100
AcDbSymbolTable
 70
     0
  0
ENDTAB
  0
TABLE
  2
APPID
  5
9
330
0
100
AcDbSymbolTable
 70
     1
  0
APPID
  5
12
330
9
100
AcDbSymbolTableRecord
100
AcDbRegAppTableRecord
  2
ACAD
 70
     0
  0
ENDTAB
  0
TABLE
  2
DIMSTYLE
  5
A
330
0
100
AcDbSymbolTable
 70
     1
100
AcDbDimStyleTable
  0
DIMSTYLE
105
27
330
A
100
AcDbSymbolTableRecord
100
AcDbDimStyleTableRecord
  2
Standard
 70
     0
340
11
  0
ENDTAB
  0
TABLE
  2
BLOCK_RECORD
  5
1
330
0
100
AcDbSymbolTable
 70
     1
  0
BLOCK_RECORD
  5
1F
330
1
100
AcDbSymbolTableRecord
100
AcDbBlockTableRecord
  2
*Model_Space
340
22
  0
BLOCK_RECORD
  5
1B
330
1
100
AcDbSymbolTableRecord
100
AcDbBlockTableRecord
  2
*Paper_Space
340
1E
  0
BLOCK_RECORD
  5
23
330
1
100
AcDbSymbolTableRecord
100
AcDbBlockTableRecord
  2
*Paper_Space0
340
26
  0
ENDTAB
  0
ENDSEC
  0
SECTION
  2
BLOCKS
  0
BLOCK
  5
20
330
1F
100
AcDbEntity
  8
0
100
AcDbBlockBegin
  2
*Model_Space
 70
     0
 10
0.0
 20
0.0
 30
0.0
  3
*Model_Space
  1

  0
ENDBLK
  5
21
330
1F
100
AcDbEntity
  8
0
100
AcDbBlockEnd
  0
BLOCK
  5
1C
330
1B
100
AcDbEntity
 67
     1
  8
0
100
AcDbBlockBegin
  2
*Paper_Space
 70
     0
 10
0.0
 20
0.0
 30
0.0
  3
*Paper_Space
  1

  0
ENDBLK
  5
1D
330
1B
100
AcDbEntity
 67
     1
  8
0
100
AcDbBlockEnd
  0
BLOCK
  5
24
330
23
100
AcDbEntity
  8
0
100
AcDbBlockBegin
  2
*Paper_Space0
 70
     0
 10
0.0
 20
0.0
 30
0.0
  3
*Paper_Space0
  1

  0
ENDBLK
  5
25
330
23
100
AcDbEntity
  8
0
100
AcDbBlockEnd
  0
ENDSEC
  0
SECTION
  2
ENTITIES
  0
SPLINE
  5
3C
330
1F
100
AcDbEntity
  8
3D_WOOD - NASCOSTA
100
AcDbSpline
210
0.0
220
0.0
230
1.0
 70
    24
 71
     2
 72
     6
 73
     3
 74
     0
 42
0.0000000001
 43
0.0000000001
 40
0.0
 40
0.0
 40
0.0
 40
14.12518751166393
 40
14.12518751166393
 40
14.12518751166393
 10
941.7877312451644
 20
439.7366408531766
 30
0.0
 10
945.7877312482328
 20
433.9159681656456
 30
0.0
 10
949.7877312513014
 20
428.0952954781146
 30
0.0
  0
SPLINE
  5
3D
330
1F
100
AcDbEntity
  8
3D_WOOD - NASCOSTA
100
AcDbSpline
210
0.0
220
0.0
230
1.0
 70
    24
 71
     2
 72
     6
 73
     3
 74
     0
 42
0.0000000001
 43
0.0000000001
 40
0.0
 40
0.0
 40
0.0
 40
14.12518751166393
 40
14.12518751166393
 40
14.12518751166393
 10
922.7806201110479
 20
428.0952954781146
 30
0.0
 10
926.7806201141163
 20
433.9159681656456
 30
0.0
 10
930.7806201171848
 20
439.7366408531766
 30
0.0
  0
SPLINE
  5
3E
330
1F
100
AcDbEntity
  8
3D_WOOD - NASCOSTA
100
AcDbSpline
210
0.0
220
0.0
230
1.0
 70
    12
 71
     3
 72
    12
 73
     8
 74
     0
 42
0.0000000001
 43
0.0000000001
 40
0.0603165893901914
 40
0.0603165893901914
 40
0.0603165893901914
 40
0.0603165893901914
 40
0.2666198164959976
 40
0.5196156935650199
 40
0.6563702217104372
 40
0.711072032968604
 40
1.367493768066605
 40
1.367493768066605
 40
1.367493768066605
 40
1.367493768066605
 10
942.8186165263568
 20
440.4972489162462
 30
0.0
 41
1.0
 10
942.750761079265
 20
440.4864389946475
 30
0.0
 41
1.0
 10
942.6024227856876
 20
440.4450048217907
 30
0.0
 41
1.0
 10
942.4232748825142
 20
440.354949567543
 30
0.0
 41
1.0
 10
942.3117183435957
 20
440.25703123325
 30
0.0
 41
1.0
 10
942.1054574536555
 20
440.063748799344
 30
0.0
 41
1.0
 10
941.9459190470385
 20
439.8878136821054
 30
0.0
 41
1.0
 10
941.7877312426698
 20
439.73664083723
 30
0.0
 41
1.0
  0
SPLINE
  5
3F
330
1F
100
AcDbEntity
  8
3D_WOOD - NASCOSTA
100
AcDbSpline
210
0.0
220
0.0
230
1.0
 70
    12
 71
     3
 72
    12
 73
     8
 74
     0
 42
0.0000000001
 43
0.0000000001
 40
0.0
 40
0.0
 40
0.0
 40
0.0
 40
0.6564217350980015
 40
0.7111235463561683
 40
0.8478780745015856
 40
1.100873951570608
 40
1.307144294733625
 40
1.307144294733625
 40
1.307144294733625
 40
1.307144294733625
 10
930.7806201196794
 20
439.73664083723
 30
0.0
 41
1.0
 10
930.6224323153108
 20
439.8878136821054
 30
0.0
 41
1.0
 10
930.462764116649
 20
440.0635692681195
 30
0.0
 41
1.0
 10
930.2566768603059
 20
440.2570563294641
 30
0.0
 41
1.0
 10
930.1448910656401
 20
440.3550744737845
 30
0.0
 41
1.0
 10
929.9655057523285
 20
440.4451231065491
 30
0.0
 41
1.0
 10
929.8175142787611
 20
440.4864600115543
 30
0.0
 41
1.0
 10
929.7497359622904
 20
440.4972523499961
 30
0.0
 41
1.0
  0
SPLINE
  5
41
330
1F
100
AcDbEntity
  8
3D_WOOD - VISIBILE
100
AcDbSpline
210
0.0
220
0.0
230
1.0
 70
     8
 71
     3
 72
    16
 73
    12
 74
     0
 42
0.0000000001
 43
0.0000000001
 40
0.0
 40
0.0
 40
0.0
 40
0.0
 40
0.2049080145326863
 40
0.7578505724603638
 40
2.215498606585231
 40
4.578075932467284
 40
9.403580343364338
 40
19.05453570380605
 40
38.15547943440441
 40
56.75366349813915
 40
75.35159833740455
 40
75.35159833740455
 40
75.35159833740455
 40
75.35159833740455
 10
942.98248650667
 20
440.5096676416157
 30
0.0
 10
943.0508200103407
 20
440.5080037054088
 30
0.0
 10
943.3014143006789
 20
440.4747581021932
 30
0.0
 10
944.0311270631075
 20
440.3622777419226
 30
0.0
 10
945.4692699608868
 20
440.1220542886655
 30
0.0
 10
948.296034614882
 20
439.5605381394374
 30
0.0
 10
953.7329807809334
 20
438.1450473290681
 30
0.0
 10
964.1904053163705
 20
434.0647575457133
 30
0.0
 10
977.2941594836254
 20
424.8978137465303
 30
0.0
 10
988.5349534950469
 20
409.5463284124469
 30
0.0
 10
992.1763884141769
 20
397.5016952346071
 30
0.0
 10
992.9138437862509
 20
391.3461459377459
 30
0.0
  0
SPLINE
  5
42
330
1F
100
AcDbEntity
  8
3D_WOOD - VISIBILE
100
AcDbSpline
210
0.0
220
0.0
230
1.0
 70
     8
 71
     3
 72
    17
 73
    13
 74
     0
 42
0.0000000001
 43
0.0000000001
 40
0.0
 40
0.0
 40
0.0
 40
0.0
 40
9.0475717516831
 40
18.59810650075432
 40
37.19627638476114
 40
56.24682697853999
 40
65.94805018280798
 40
70.87403533987822
 40
73.18624762237476
 40
74.64394865341296
 40
75.14659677373697
 40
75.35152736795887
 40
75.35152736795887
 40
75.35152736795887
 40
75.35152736795887
 10
879.6545075760982
 20
391.346145937746
 30
0.0
 10
880.0141968775819
 20
394.3410514948915
 30
0.0
 10
881.276987307959
 20
400.431179586026
 30
0.0
 10
885.8404620891051
 20
412.0137860407695
 30
0.0
 10
895.2638405788279
 20
424.8840402001928
 30
0.0
 10
908.3634602289231
 20
434.0562114714388
 30
0.0
 10
918.8502912860479
 20
438.1529064239429
 30
0.0
 10
924.3212370654992
 20
439.5730078520563
 30
0.0
 10
927.1650374046086
 20
440.1338527183133
 30
0.0
 10
928.5702753943417
 20
440.3677084654253
 30
0.0
 10
929.2834370753718
 20
440.4775564771773
 30
0.0
 10
929.517589611469
 20
440.5074283498014
 30
0.0
 10
929.5858648556797
 20
440.5096676416156
 30
0.0
  0
SPLINE
  5
43
330
1F
100
AcDbEntity
  8
3D_WOOD - VISIBILE
100
AcDbSpline
210
0.0
220
0.0
230
1.0
 70
    24
 71
     2
 72
     6
 73
     3
 74
     0
 42
0.0000000001
 43
0.0000000001
 40
0.0
 40
0.0
 40
0.0
 40
13.39662165100418
 40
13.39662165100418
 40
13.39662165100418
 10
929.5858648556788
 20
440.5096676416156
 30
0.0
 10
936.2841756811808
 20
440.5096676416156
 30
0.0
 10
942.982486506683
 20
440.5096676416156
 30
0.0
  0
SPLINE
  5
44
330
1F
100
AcDbEntity
  8
3D_WOOD - VISIBILE
100
AcDbSpline
210
0.0
220
0.0
230
1.0
 70
     8
 71
     3
 72
    19
 73
    15
 74
     0
 42
0.0000000001
 43
0.0000000001
 40
0.0
 40
0.0
 40
0.0
 40
0.0
 40
26.66583814142217
 40
27.14336065644792
 40
27.83451498892207
 40
29.11628086053831
 40
30.22211080059598
 40
31.02633597207898
 40
32.39608700601518
 40
33.4642423927725
 40
33.55220847298237
 40
42.63020452987491
 40
60.786905551056
 40
78.94320175514143
 40
78.94320175514143
 40
78.94320175514143
 40
78.94320175514143
 10
992.9138437862509
 20
391.346145937746
 30
0.0
 10
994.3055199808413
 20
382.5671330214648
 30
0.0
 10
995.7223516761336
 20
373.6310287005362
 30
0.0
 10
997.1748341116705
 20
364.4671978426747
 30
0.0
 10
997.3529841649486
 20
363.669440054222
 30
0.0
 10
997.6685533707807
 20
362.6908795080138
 30
0.0
 10
998.1111943316513
 20
361.7218873616944
 30
0.0
 10
998.6531708981826
 20
360.7711413482166
 30
0.0
 10
999.2871218364817
 20
359.893455899567
 30
0.0
 10
999.8536623505896
 20
359.268891810888
 30
0.0
 10
1002.306798435087
 20
356.8983321201841
 30
0.0
 10
1008.859899438467
 20
350.5734154730515
 30
0.0
 10
1019.744102034696
 20
340.0633794858758
 30
0.0
 10
1028.452683006561
 20
331.6565025692376
 30
0.0
 10
1032.806460242307
 20
327.4526343560196
 30
0.0
  0
SPLINE
  5
45
330
1F
100
AcDbEntity
  8
3D_WOOD - VISIBILE
100
AcDbSpline
210
0.0
220
0.0
230
1.0
 70
     8
 71
     3
 72
    20
 73
    16
 74
     0
 42
0.0000000001
 43
0.0000000001
 40
0.0
 40
0.0
 40
0.0
 40
0.0
 40
24.96509866119589
 40
36.31299722526658
 40
45.45382335334293
 40
45.76795515845085
 40
46.05069633161605
 40
46.67903789547093
 40
47.27592012270987
 40
47.90424194200061
 40
50.50546691464351
 40
51.79979564332102
 40
52.13908707467109
 40
52.30245005996429
 40
78.94315544896496
 40
78.94315544896496
 40
78.94315544896496
 40
78.94315544896496
 10
839.7618911200426
 20
327.4526343560196
 30
0.0
 10
845.7482846232783
 20
333.2330971810744
 30
0.0
 10
854.457345171945
 20
341.6394784459819
 30
0.0
 10
865.3559769436706
 20
352.1647209738136
 30
0.0
 10
870.3468195225832
 20
356.9788645986733
 30
0.0
 10
872.6785975453096
 20
359.2368686291985
 30
0.0
 10
872.9532969612297
 20
359.5394565193978
 30
0.0
 10
873.2826386882501
 20
359.919253398378
 30
0.0
 10
873.6541795301359
 20
360.4133917784067
 30
0.0
 10
874.3646294682571
 20
361.4733618322632
 30
0.0
 10
875.0023943617434
 20
362.8529346814569
 30
0.0
 10
875.3495631411273
 20
364.2238586316312
 30
0.0
 10
875.4487228587742
 20
364.8147265247397
 30
0.0
 10
876.8648054342079
 20
373.7509898183915
 30
0.0
 10
878.2642661802604
 20
382.5754166521809
 30
0.0
 10
879.6545075760982
 20
391.346145937746
 30
0.0
  0
SPLINE
  5
46
330
1F
100
AcDbEntity
  8
3D_WOOD - VISIBILE
100
AcDbSpline
210
0.0
220
0.0
230
1.0
 70
    12
 71
     2
 72
     8
 73
     5
 74
     0
 42
0.0000000001
 43
0.0000000001
 40
0.0
 40
0.0
 40
0.0
 40
2.950692503601208
 40
2.950692503601208
 40
5.901385007202416
 40
5.901385007202416
 40
5.901385007202416
 10
1032.809523143115
 20
327.4496771339689
 30
0.0
 41
1.0
 10
1033.974281616885
 20
326.2750099399137
 30
0.0
 41
0.8454082794048671
 10
1033.41362228054
 20
324.7186788608764
 30
0.0
 41
1.0
 10
1032.852962944195
 20
323.1623477818389
 30
0.0
 41
0.8454082794048671
 10
1031.206676236488
 20
323.0003434762332
 30
0.0
 41
1.0
  0
SPLINE
  5
47
330
1F
100
AcDbEntity
  8
3D_WOOD - VISIBILE
100
AcDbSpline
210
0.0
220
0.0
230
1.0
 70
    12
 71
     2
 72
     8
 73
     5
 74
     0
 42
0.0000000001
 43
0.0000000001
 40
0.0
 40
0.0
 40
0.0
 40
2.9506870397981
 40
2.9506870397981
 40
5.9013740795962
 40
5.9013740795962
 40
5.9013740795962
 10
841.3616751258608
 20
323.0003434762332
 30
0.0
 41
1.0
 10
839.7153938228546
 20
323.1623547233567
 30
0.0
 41
0.8454094801078749
 10
839.1547360790751
 20
324.7186813816012
 30
0.0
 41
1.0
 10
838.5940783352958
 20
326.2750080398459
 30
0.0
 41
0.8454094801078749
 10
839.7588282192343
 20
327.4496771339689
 30
0.0
 41
1.0
  0
SPLINE
  5
48
330
1F
100
AcDbEntity
  8
3D_WOOD - VISIBILE
100
AcDbSpline
210
0.0
220
0.0
230
1.0
 70
    12
 71
     2
 72
     6
 73
     3
 74
     0
 42
0.0000000001
 43
0.0000000001
 40
0.0
 40
0.0
 40
0.0
 40
59.19172034982771
 40
59.19172034982771
 40
59.19172034982771
 10
1031.154832476241
 20
322.9931168672629
 30
0.0
 41
1.0
 10
1001.842374521072
 20
318.9071959869187
 30
0.0
 41
0.9999999988693762
 10
972.5303052906063
 20
314.8184873592009
 30
0.0
 41
1.0
  0
SPLINE
  5
49
330
1F
100
AcDbEntity
  8
3D_WOOD - VISIBILE
100
AcDbSpline
210
0.0
220
0.0
230
1.0
 70
    24
 71
     2
 72
     6
 73
     3
 74
     0
 42
0.0000000001
 43
0.0000000001
 40
0.0
 40
0.0
 40
0.0
 40
0.0028960754744108
 40
0.0028960754744108
 40
0.0028960754744108
 10
1031.200967128321
 20
322.9995476720397
 30
0.0
 10
1031.199532956632
 20
322.9993477599224
 30
0.0
 10
1031.198098784943
 20
322.9991478478051
 30
0.0
  0
SPLINE
  5
4A
330
1F
100
AcDbEntity
  8
3D_WOOD - VISIBILE
100
AcDbSpline
210
0.0
220
0.0
230
1.0
 70
    12
 71
     2
 72
     6
 73
     3
 74
     0
 42
0.0000000001
 43
0.0000000001
 40
0.0
 40
0.0
 40
0.0
 40
59.19172034982721
 40
59.19172034982721
 40
59.19172034982721
 10
900.0380460717424
 20
314.8184873592108
 30
0.0
 41
1.0
 10
870.7259768412774
 20
318.9071959867788
 30
0.0
 41
0.9999999988693762
 10
841.4135188861057
 20
322.9931168671147
 30
0.0
 41
1.0
  0
SPLINE
  5
4B
330
1F
100
AcDbEntity
  8
3D_WOOD - NASCOSTA
100
AcDbSpline
210
0.0
220
0.0
230
1.0
 70
     8
 71
     3
 72
    13
 73
     9
 74
     0
 42
0.0000000001
 43
0.0000000001
 40
0.0
 40
0.0
 40
0.0
 40
0.0
 40
0.3531205662193827
 40
0.7146881488462784
 40
1.423501495559634
 40
1.444387723507046
 40
8.782555506803527
 40
50.35652860188813
 40
50.35652860188813
 40
50.35652860188813
 40
50.35652860188813
 10
972.1546941260381
 20
314.8270811459897
 30
0.0
 10
972.0378682535954
 20
314.8423245532996
 30
0.0
 10
971.8077106673668
 20
314.9160386128368
 30
0.0
 10
971.4271497455195
 20
315.2128119117215
 30
0.0
 10
971.2856461631468
 20
315.5730066823089
 30
0.0
 10
971.2852611998255
 20
318.2624771787096
 30
0.0
 10
971.2844084957192
 20
334.5732551140873
 30
0.0
 10
971.2832858458219
 20
350.8774910755599
 30
0.0
 10
971.2824732176007
 20
364.7354205831214
 30
0.0
  0
SPLINE
  5
4C
330
1F
100
AcDbEntity
  8
3D_WOOD - VISIBILE
100
AcDbSpline
210
0.0
220
0.0
230
1.0
 70
    12
 71
     2
 72
     6
 73
     3
 74
     0
 42
0.0000000001
 43
0.0000000001
 40
0.0
 40
0.0
 40
0.0
 40
0.0050100295826388
 40
0.0050100295826388
 40
0.0050100295826388
 10
972.5213756834036
 20
314.8184886594398
 30
0.0
 41
1.0
 10
972.5188706687269
 20
314.818489435897
 30
0.0
 41
0.9999999965317502
 10
972.516365654214
 20
314.8184906296179
 30
0.0
 41
1.0
  0
SPLINE
  5
4D
330
1F
100
AcDbEntity
  8
3D_WOOD - NASCOSTA
100
AcDbSpline
210
0.0
220
0.0
230
1.0
 70
     8
 71
     3
 72
    15
 73
    11
 74
     0
 42
0.0000000001
 43
0.0000000001
 40
0.0
 40
0.0
 40
0.0
 40
0.0
 40
48.91055658245258
 40
48.93930807611183
 40
49.11468419993157
 40
49.30299648859197
 40
49.47866180011512
 40
49.66695845533361
 40
50.13383899401173
 40
50.3975150177843
 40
50.3975150177843
 40
50.3975150177843
 40
50.3975150177843
 10
901.2858781447485
 20
364.7354205831215
 30
0.0
 10
901.2848374545551
 20
348.4319001784169
 30
0.0
 10
901.2839496951377
 20
332.1188021508364
 30
0.0
 10
901.2828127270164
 20
315.7472355449863
 30
0.0
 10
901.2676562616963
 20
315.6167277876057
 30
0.0
 10
901.2161320956816
 20
315.4437280787728
 30
0.0
 10
901.1315474494105
 20
315.2793925918481
 30
0.0
 10
900.9621680283467
 20
315.0586760498203
 30
0.0
 10
900.7002095553084
 20
314.8843345523823
 30
0.0
 10
900.4604212478611
 20
314.830571393304
 30
0.0
 10
900.3729335607103
 20
314.8225479258107
 30
0.0
  0
SPLINE
  5
4E
330
1F
100
AcDbEntity
  8
3D_WOOD - NASCOSTA
100
AcDbSpline
210
0.0
220
0.0
230
1.0
 70
    24
 71
     2
 72
     6
 73
     3
 74
     0
 42
0.0000000001
 43
0.0000000001
 40
0.0
 40
0.0
 40
0.0
 40
0.0043667873174196
 40
0.0043667873174196
 40
0.0043667873174196
 10
971.2694842389959
 20
364.735421119258
 30
0.0
 10
971.2716676326528
 20
364.7354210291357
 30
0.0
 10
971.2738510263097
 20
364.7354209390134
 30
0.0
  0
SPLINE
  5
4F
330
1F
100
AcDbEntity
  8
3D_WOOD - NASCOSTA
100
AcDbSpline
210
0.0
220
0.0
230
1.0
 70
    24
 71
     2
 72
     6
 73
     3
 74
     0
 42
0.0000000001
 43
0.0000000001
 40
0.0
 40
0.0
 40
0.0
 40
44.99997972969477
 40
44.99997972969477
 40
44.99997972969477
 10
957.7793262620194
 20
409.7359577655873
 30
0.0
 10
957.7819742523086
 20
387.2359680565589
 30
0.0
 10
957.7846222425977
 20
364.7359783475305
 30
0.0
  0
SPLINE
  5
50
330
1F
100
AcDbEntity
  8
3D_WOOD - NASCOSTA
100
AcDbSpline
210
0.0
220
0.0
230
1.0
 70
    24
 71
     2
 72
     6
 73
     3
 74
     0
 42
0.0000000001
 43
0.0000000001
 40
0.0
 40
0.0
 40
0.0
 40
44.99997972969477
 40
44.99997972969477
 40
44.99997972969477
 10
914.7837291197516
 20
364.7359783475305
 30
0.0
 10
914.7863771100407
 20
387.2359680565589
 30
0.0
 10
914.7890251003298
 20
409.7359577655873
 30
0.0
  0
SPLINE
  5
51
330
1F
100
AcDbEntity
  8
3D_WOOD - NASCOSTA
100
AcDbSpline
210
0.0
220
0.0
230
1.0
 70
    24
 71
     2
 72
     6
 73
     3
 74
     0
 42
0.0000000001
 43
0.0000000001
 40
0.0
 40
0.0
 40
0.0
 40
0.0026769507010993
 40
0.0026769507010993
 40
0.0026769507010993
 10
957.7740307101782
 20
409.7359572899378
 30
0.0
 10
957.772692234833
 20
409.7359571697152
 30
0.0
 10
957.7713537594879
 20
409.7359570494927
 30
0.0
  0
SPLINE
  5
52
330
1F
100
AcDbEntity
  8
3D_WOOD - NASCOSTA
100
AcDbSpline
210
0.0
220
0.0
230
1.0
 70
    24
 71
     2
 72
     6
 73
     3
 74
     0
 42
0.0000000001
 43
0.0000000001
 40
0.0
 40
0.0
 40
0.0
 40
18.36005552200032
 40
18.36005552200032
 40
18.36005552200032
 10
949.7877312513014
 20
428.0952954781146
 30
0.0
 10
949.7877312513014
 20
418.9152677171145
 30
0.0
 10
949.7877312513014
 20
409.7352399561143
 30
0.0
  0
SPLINE
  5
53
330
1F
100
AcDbEntity
  8
3D_WOOD - NASCOSTA
100
AcDbSpline
210
0.0
220
0.0
230
1.0
 70
    24
 71
     2
 72
     6
 73
     3
 74
     0
 42
0.0000000001
 43
0.0000000001
 40
0.0
 40
0.0
 40
0.0
 40
18.36005552200032
 40
18.36005552200032
 40
18.36005552200032
 10
922.7806201110479
 20
409.7352399561143
 30
0.0
 10
922.7806201110479
 20
418.9152677171145
 30
0.0
 10
922.7806201110478
 20
428.0952954781146
 30
0.0
  0
SPLINE
  5
55
330
1F
100
AcDbEntity
  8
3D_PORTALAMPADE - NASCOSTA
100
AcDbSpline
210
0.0
220
0.0
230
1.0
 70
    24
 71
     2
 72
     6
 73
     3
 74
     0
 42
0.0000000001
 43
0.0000000001
 40
0.0
 40
0.0
 40
0.0
 40
1.503643449455552
 40
1.503643449455552
 40
1.503643449455552
 10
928.7878191728411
 20
407.7350864295011
 30
0.0
 10
928.0359974481132
 20
407.7350864295011
 30
0.0
 10
927.2841757233855
 20
407.7350864295011
 30
0.0
  0
SPLINE
  5
56
330
1F
100
AcDbEntity
  8
3D_PORTALAMPADE - NASCOSTA
100
AcDbSpline
210
0.0
220
0.0
230
1.0
 70
    24
 71
     2
 72
     6
 73
     3
 74
     0
 42
0.0000000001
 43
0.0000000001
 40
0.0
 40
0.0
 40
0.0
 40
1.503643491832136
 40
1.503643491832136
 40
1.503643491832136
 10
945.2841756811806
 20
407.7350864295011
 30
0.0
 10
944.5323539352646
 20
407.7350864295011
 30
0.0
 10
943.7805321893485
 20
407.7350864295011
 30
0.0
  0
SPLINE
  5
57
330
1F
100
AcDbEntity
  8
3D_PORTALAMPADE - NASCOSTA
100
AcDbSpline
210
0.0
220
0.0
230
1.0
 70
     8
 71
     3
 72
    15
 73
    11
 74
     0
 42
0.0000000001
 43
0.0000000001
 40
0.0
 40
0.0
 40
0.0
 40
0.0
 40
3.519104764830397
 40
7.035024046000038
 40
10.55448896570124
 40
14.07815420396127
 40
15.69082417681356
 40
15.75233713205929
 40
15.81415175217981
 40
66.70795274033449
 40
66.70795274033449
 40
66.70795274033449
 40
66.70795274033449
 10
945.2841763529583
 20
407.7350864295011
 30
0.0
 10
946.4571949269588
 20
407.7356166103697
 30
0.0
 10
948.8019348242977
 20
407.3181413902614
 30
0.0
 10
951.8889974797064
 20
405.5194262736002
 30
0.0
 10
954.1679126476854
 20
402.7650604258903
 30
0.0
 10
955.143095215523
 20
400.0019546779694
 30
0.0
 10
955.2845428072889
 20
398.2691608972721
 30
0.0
 10
955.2842416110366
 20
397.6906288977346
 30
0.0
 10
955.2840872827194
 20
380.6848551692721
 30
0.0
 10
955.2842200724617
 20
363.6997052435831
 30
0.0
 10
955.2841756811746
 20
346.7350864295011
 30
0.0
  0
SPLINE
  5
58
330
1F
100
AcDbEntity
  8
3D_PORTALAMPADE - NASCOSTA
100
AcDbSpline
210
0.0
220
0.0
230
1.0
 70
     8
 71
     3
 72
    17
 73
    13
 74
     0
 42
0.0000000001
 43
0.0000000001
 40
0.0
 40
0.0
 40
0.0
 40
0.0
 40
50.89380098815468
 40
51.01753075529783
 40
51.4836170261808
 40
51.82345504411114
 40
52.16379331961718
 40
52.62992720632936
 40
56.15318045086682
 40
59.66072606444929
 40
63.18868859660552
 40
66.70794445362094
 40
66.70794445362094
 40
66.70794445362094
 40
66.70794445362094
 10
917.2841756811746
 20
346.7350864295011
 30
0.0
 10
917.2840562190862
 20
363.6996886360027
 30
0.0
 10
917.2844045802032
 20
380.7055268417513
 30
0.0
 10
917.2840154708183
 20
397.8667383210192
 30
0.0
 10
917.290963977605
 20
398.1765917269685
 30
0.0
 10
917.316148780541
 20
398.5579648812809
 30
0.0
 10
917.3542331185853
 20
398.9381598735854
 30
0.0
 10
917.5542898715915
 20
400.3679952356761
 30
0.0
 10
918.3992065661275
 20
402.7610378084361
 30
0.0
 10
920.6758432796393
 20
405.5166232061351
 30
0.0
 10
923.7623429855065
 20
407.3173893478298
 30
0.0
 10
926.1110969229869
 20
407.7356294449377
 30
0.0
 10
927.2841750093909
 20
407.7350864295011
 30
0.0
  0
SPLINE
  5
59
330
1F
100
AcDbEntity
  8
3D_PORTALAMPADE - NASCOSTA
100
AcDbSpline
210
0.0
220
0.0
230
1.0
 70
    24
 71
     2
 72
     6
 73
     3
 74
     0
 42
0.0000000001
 43
0.0000000001
 40
0.0
 40
0.0
 40
0.0
 40
10.0
 40
10.0
 40
10.0
 10
943.7841756810034
 20
418.7350862050886
 30
0.0
 10
943.7841756809582
 20
413.7350862050886
 30
0.0
 10
943.7841756809132
 20
408.7350862050886
 30
0.0
  0
SPLINE
  5
5A
330
1F
100
AcDbEntity
  8
3D_PORTALAMPADE - NASCOSTA
100
AcDbSpline
210
0.0
220
0.0
230
1.0
 70
    24
 71
     2
 72
     6
 73
     3
 74
     0
 42
0.0000000001
 43
0.0000000001
 40
0.0
 40
0.0
 40
0.0
 40
10.0
 40
10.0
 40
10.0
 10
928.7841756814361
 20
408.7350862050886
 30
0.0
 10
928.7841756813909
 20
413.7350862050886
 30
0.0
 10
928.7841756813459
 20
418.7350862050886
 30
0.0
  0
SPLINE
  5
5B
330
1F
100
AcDbEntity
  8
3D_PORTALAMPADE - NASCOSTA
100
AcDbSpline
210
0.0
220
0.0
230
1.0
 70
    24
 71
     2
 72
     6
 73
     3
 74
     0
 42
0.0000000001
 43
0.0000000001
 40
0.0
 40
0.0
 40
0.0
 40
19.10419259770889
 40
19.10419259770889
 40
19.10419259770889
 10
941.7841756811746
 20
437.7350862051066
 30
0.0
 10
942.7841348238301
 20
428.2354743490565
 30
0.0
 10
943.7840939664857
 20
418.7358624930063
 30
0.0
  0
SPLINE
  5
5C
330
1F
100
AcDbEntity
  8
3D_PORTALAMPADE - NASCOSTA
100
AcDbSpline
210
0.0
220
0.0
230
1.0
 70
    24
 71
     2
 72
     6
 73
     3
 74
     0
 42
0.0000000001
 43
0.0000000001
 40
0.0
 40
0.0
 40
0.0
 40
19.10419259771489
 40
19.10419259771489
 40
19.10419259771489
 10
928.7842573958628
 20
418.7358624930004
 30
0.0
 10
929.7842165385186
 20
428.2354743490534
 30
0.0
 10
930.7841756811746
 20
437.7350862051066
 30
0.0
  0
SPLINE
  5
5E
330
1F
100
AcDbEntity
  8
3D_U METALLICA - NASCOSTA
100
AcDbSpline
210
0.0
220
0.0
230
1.0
 70
    24
 71
     2
 72
     6
 73
     3
 74
     0
 42
0.0000000001
 43
0.0000000001
 40
0.0
 40
0.0
 40
0.0
 40
14.99271301669188
 40
14.99271301669188
 40
14.99271301669188
 10
943.7805321895205
 20
407.7350864295011
 30
0.0
 10
936.2841756811746
 20
407.7350864295011
 30
0.0
 10
928.7878191728287
 20
407.7350864295011
 30
0.0
  0
SPLINE
  5
5F
330
1F
100
AcDbEntity
  8
3D_U METALLICA - NASCOSTA
100
AcDbSpline
210
0.0
220
0.0
230
1.0
 70
    24
 71
     2
 72
     6
 73
     3
 74
     0
 42
0.0000000001
 43
0.0000000001
 40
0.0
 40
0.0
 40
0.0
 40
15.0
 40
15.0
 40
15.0
 10
943.7841756811746
 20
363.7350864295011
 30
0.0
 10
936.2841756811746
 20
363.7350864295011
 30
0.0
 10
928.7841756811746
 20
363.7350864295011
 30
0.0
  0
SPLINE
  5
60
330
1F
100
AcDbEntity
  8
3D_U METALLICA - NASCOSTA
100
AcDbSpline
210
0.0
220
0.0
230
1.0
 70
    24
 71
     2
 72
     6
 73
     3
 74
     0
 42
0.0000000001
 43
0.0000000001
 40
0.0
 40
0.0
 40
0.0
 40
14.9850871000627
 40
14.9850871000627
 40
14.9850871000627
 10
943.776719231206
 20
408.7350864295011
 30
0.0
 10
936.2841756811747
 20
408.7350864295011
 30
0.0
 10
928.7916321311433
 20
408.7350864295011
 30
0.0
  0
SPLINE
  5
61
330
1F
100
AcDbEntity
  8
3D_U METALLICA - NASCOSTA
100
AcDbSpline
210
0.0
220
0.0
230
1.0
 70
    24
 71
     2
 72
     6
 73
     3
 74
     0
 42
0.0000000001
 43
0.0000000001
 40
0.0
 40
0.0
 40
0.0
 40
43.99955412825938
 40
43.99955412825938
 40
43.99955412825938
 10
928.7841756811746
 20
364.7355320768262
 30
0.0
 10
928.7841756811746
 20
386.7353091409559
 30
0.0
 10
928.7841756811746
 20
408.7350862050856
 30
0.0
  0
SPLINE
  5
62
330
1F
100
AcDbEntity
  8
3D_U METALLICA - NASCOSTA
100
AcDbSpline
210
0.0
220
0.0
230
1.0
 70
    24
 71
     2
 72
     6
 73
     3
 74
     0
 42
0.0000000001
 43
0.0000000001
 40
0.0
 40
0.0
 40
0.0
 40
1.0
 40
1.0
 40
1.0
 10
928.7841756811746
 20
363.7350864295011
 30
0.0
 10
928.7841756811746
 20
364.2350864295011
 30
0.0
 10
928.7841756811746
 20
364.7350864295011
 30
0.0
  0
SPLINE
  5
63
330
1F
100
AcDbEntity
  8
3D_U METALLICA - NASCOSTA
100
AcDbSpline
210
0.0
220
0.0
230
1.0
 70
    24
 71
     2
 72
     6
 73
     3
 74
     0
 42
0.0000000001
 43
0.0000000001
 40
0.0
 40
0.0
 40
0.0
 40
1.0
 40
1.0
 40
1.0
 10
943.7841756811746
 20
364.7350864295011
 30
0.0
 10
943.7841756811746
 20
364.2350864295011
 30
0.0
 10
943.7841756811746
 20
363.7350864295011
 30
0.0
  0
SPLINE
  5
64
330
1F
100
AcDbEntity
  8
3D_U METALLICA - NASCOSTA
100
AcDbSpline
210
0.0
220
0.0
230
1.0
 70
    24
 71
     2
 72
     6
 73
     3
 74
     0
 42
0.0000000001
 43
0.0000000001
 40
0.0
 40
0.0
 40
0.0
 40
43.9995541282654
 40
43.9995541282654
 40
43.9995541282654
 10
943.7841756811746
 20
408.7350862050916
 30
0.0
 10
943.7841756811746
 20
386.7353091409589
 30
0.0
 10
943.7841756811746
 20
364.7355320768262
 30
0.0
  0
SPLINE
  5
66
330
1F
100
AcDbEntity
  8
3D_BLOCCACAVI - NASCOSTA
100
AcDbSpline
210
0.0
220
0.0
230
1.0
 70
    15
 71
     2
 72
    12
 73
     9
 74
     0
 42
0.0000000001
 43
0.0000000001
 40
0.0
 40
0.0
 40
0.0
 40
5.497787143782114
 40
5.497787143782114
 40
10.99557428756433
 40
10.99557428756433
 40
16.49336143134649
 40
16.49336143134649
 40
21.99114857512859
 40
21.99114857512859
 40
21.99114857512859
 10
936.2841756811746
 20
410.2350862051562
 30
0.0
 41
1.0
 10
939.7841756811745
 20
410.2350862051562
 30
0.0
 41
0.707106781186559
 10
939.7841756811746
 20
413.7350862051562
 30
0.0
 41
1.0
 10
939.7841756811747
 20
417.2350862051563
 30
0.0
 41
0.7071067811865303
 10
936.2841756811746
 20
417.2350862051562
 30
0.0
 41
1.0
 10
932.7841756811745
 20
417.2350862051562
 30
0.0
 41
0.7071067811865275
 10
932.7841756811746
 20
413.7350862051562
 30
0.0
 41
1.0
 10
932.7841756811747
 20
410.2350862051562
 30
0.0
 41
0.7071067811865561
 10
936.2841756811746
 20
410.2350862051562
 30
0.0
 41
1.0
  0
SPLINE
  5
67
330
1F
100
AcDbEntity
  8
3D_WOOD - NASCOSTA
100
AcDbSpline
210
0.0
220
0.0
230
1.0
 70
    28
 71
     2
 72
    10
 73
     7
 74
     0
 42
0.0000000001
 43
0.0000000001
 40
1.521708941582556
 40
1.521708941582556
 40
1.521708941582556
 40
1.570796326794897
 40
1.570796326794897
 40
3.141592653589793
 40
3.141592653589793
 40
4.663301595172349
 40
4.663301595172349
 40
4.663301595172349
 10
941.7822596471277
 20
439.7366408531766
 30
0.0
 41
0.9822662308921541
 10
941.7877312451645
 20
439.7366408531767
 30
0.0
 41
0.9908470869120796
 10
941.7877312451644
 20
439.7366408531766
 30
0.0
 41
1.0
 10
941.7877312451644
 20
439.7366408531766
 30
0.0
 41
0.7071067811865476
 10
936.2841756811746
 20
439.7366408531766
 30
0.0
 41
1.0
 10
931.0207370925631
 20
439.7366408531766
 30
0.0
 41
0.7162596942744679
 10
930.7860917152215
 20
439.7366408531766
 30
0.0
 41
0.9822662308921544
  0
SPLINE
  5
68
330
1F
100
AcDbEntity
  8
3D_WOOD - VISIBILE
100
AcDbSpline
210
0.0
220
0.0
230
1.0
 70
    24
 71
     2
 72
     6
 73
     3
 74
     0
 42
0.0000000001
 43
0.0000000001
 40
0.0
 40
0.0
 40
0.0
 40
113.2593362101527
 40
113.2593362101527
 40
113.2593362101527
 10
992.9138437862509
 20
391.346145937746
 30
0.0
 10
936.2841756811746
 20
391.346145937746
 30
0.0
 10
879.6545075760982
 20
391.346145937746
 30
0.0
  0
SPLINE
  5
69
330
1F
100
AcDbEntity
  8
3D_WOOD - VISIBILE
100
AcDbSpline
210
0.0
220
0.0
230
1.0
 70
    28
 71
     2
 72
    10
 73
     7
 74
     0
 42
0.0000000001
 43
0.0000000001
 40
1.558524480491811
 40
1.558524480491811
 40
1.558524480491811
 40
1.570796326794897
 40
1.570796326794897
 40
3.141592653589793
 40
3.141592653589793
 40
4.700117134081605
 40
4.700117134081605
 40
4.700117134081605
 10
1032.803604830149
 20
327.4496771339689
 30
0.0
 41
0.9954592970227896
 10
1032.809523143115
 20
327.4496771339689
 30
0.0
 41
0.99771177172802
 10
1032.809523143115
 20
327.4496771339689
 30
0.0
 41
1.0
 10
1032.809523143115
 20
327.4496771339689
 30
0.0
 41
0.7071067811865476
 10
936.2841756811746
 20
327.4496771339689
 30
0.0
 41
1.0
 10
840.8218527217917
 20
327.4496771339689
 30
0.0
 41
0.7093950094585276
 10
839.7647465322
 20
327.4496771339689
 30
0.0
 41
0.9954592970227897
  0
SPLINE
  5
6A
330
1F
100
AcDbEntity
  8
3D_WOOD - VISIBILE
100
AcDbSpline
210
0.0
220
0.0
230
1.0
 70
    28
 71
     2
 72
    10
 73
     7
 74
     0
 42
0.0000000001
 43
0.0000000001
 40
1.558524480491811
 40
1.558524480491811
 40
1.558524480491811
 40
1.570796326794897
 40
1.570796326794897
 40
3.141592653589793
 40
3.141592653589793
 40
4.700117134081605
 40
4.700117134081605
 40
4.700117134081605
 10
1031.200856199777
 20
323.0003434762332
 30
0.0
 41
0.9954592970227896
 10
1031.206676236488
 20
323.0003434762332
 30
0.0
 41
0.99771177172802
 10
1031.206676236488
 20
323.0003434762332
 30
0.0
 41
1.0
 10
1031.206676236488
 20
323.0003434762332
 30
0.0
 41
0.7071067811865476
 10
936.2841756811746
 20
323.0003434762332
 30
0.0
 41
1.0
 10
842.4070476273596
 20
323.0003434762332
 30
0.0
 41
0.7093950094585276
 10
841.3674951625717
 20
323.0003434762331
 30
0.0
 41
0.9954592970227897
  0
SPLINE
  5
6B
330
1F
100
AcDbEntity
  8
3D_WOOD - VISIBILE
100
AcDbSpline
210
0.0
220
0.0
230
1.0
 70
    12
 71
     2
 72
    10
 73
     7
 74
     0
 42
0.0000000001
 43
0.0000000001
 40
0.0
 40
0.0
 40
0.0
 40
0.0089296075976506
 40
0.0089296075976506
 40
1.579725934392547
 40
1.579725934392547
 40
3.125978568581274
 40
3.125978568581274
 40
3.125978568581274
 10
972.521375683015
 20
314.8184873461723
 30
0.0
 41
1.0
 10
972.5258404868139
 20
314.8184873461723
 30
0.0
 41
1.0
 10
972.5303052906127
 20
314.8184873461722
 30
0.0
 41
1.0
 10
972.5303052906127
 20
314.8184873591896
 30
0.0
 41
0.7071067811865476
 10
936.2841756811746
 20
314.8184873591896
 30
0.0
 41
1.0
 10
900.8338295679918
 20
314.8184873591895
 30
0.0
 41
0.7116832377305078
 10
900.0469756793342
 20
314.8184873591896
 30
0.0
 41
0.9909901011790784
  0
SPLINE
  5
6C
330
1F
100
AcDbEntity
  8
3D_WOOD - NASCOSTA
100
AcDbSpline
210
0.0
220
0.0
230
1.0
 70
    28
 71
     2
 72
    10
 73
     7
 74
     0
 42
0.0000000001
 43
0.0000000001
 40
1.546252634188726
 40
1.546252634188726
 40
1.546252634188726
 40
1.570796326794897
 40
1.570796326794897
 40
3.141592653589793
 40
3.141592653589793
 40
4.687845287778519
 40
4.687845287778519
 40
4.687845287778519
 10
971.273851026295
 20
364.7354205831215
 30
0.0
 41
0.9909901011790784
 10
971.2824732176008
 20
364.7354205831215
 30
0.0
 41
0.9954235434560398
 10
971.2824732176007
 20
364.7354205831215
 30
0.0
 41
1.0
 10
971.2824732176007
 20
364.7354205831215
 30
0.0
 41
0.7071067811865476
 10
936.2841756811746
 20
364.7354205831215
 30
0.0
 41
1.0
 10
902.0542654974569
 20
364.7354205831214
 30
0.0
 41
0.7116832377305078
 10
901.2945003360543
 20
364.7354205831215
 30
0.0
 41
0.9909901011790784
  0
SPLINE
  5
6D
330
1F
100
AcDbEntity
  8
3D_WOOD - NASCOSTA
100
AcDbSpline
210
0.0
220
0.0
230
1.0
 70
    12
 71
     2
 72
    10
 73
     7
 74
     0
 42
0.0000000001
 43
0.0000000001
 40
0.0
 40
0.0
 40
0.0
 40
0.0052955518839468
 40
0.0052955518839468
 40
1.576091878678843
 40
1.576091878678843
 40
3.12234451286757
 40
3.12234451286757
 40
3.12234451286757
 10
957.7740307101354
 20
409.7359577715397
 30
0.0
 41
1.0
 10
957.7766784860773
 20
409.7359577715396
 30
0.0
 41
1.0
 10
957.7793262620194
 20
409.7359577715396
 30
0.0
 41
1.0
 10
957.7793262620194
 20
409.7359577655872
 30
0.0
 41
0.7071067811865476
 10
936.2841756811746
 20
409.7359577655873
 30
0.0
 41
1.0
 10
915.2609509656863
 20
409.7359577655872
 30
0.0
 41
0.7116832377305078
 10
914.7943206522139
 20
409.7359577655873
 30
0.0
 41
0.9909901011790784
  0
SPLINE
  5
6E
330
1F
100
AcDbEntity
  8
3D_WOOD - NASCOSTA
100
AcDbSpline
210
0.0
220
0.0
230
1.0
 70
    24
 71
     2
 72
     6
 73
     3
 74
     0
 42
0.0000000001
 43
0.0000000001
 40
0.0
 40
0.0
 40
0.0
 40
27.00711114025341
 40
27.00711114025341
 40
27.00711114025341
 10
949.7877312513014
 20
428.0952954781146
 30
0.0
 10
936.2841756811747
 20
428.0952954781146
 30
0.0
 10
922.7806201110479
 20
428.0952954781146
 30
0.0
  0
SPLINE
  5
6F
330
1F
100
AcDbEntity
  8
3D_PORTALAMPADE - NASCOSTA
100
AcDbSpline
210
0.0
220
0.0
230
1.0
 70
    24
 71
     2
 72
     6
 73
     3
 74
     0
 42
0.0000000001
 43
0.0000000001
 40
0.0
 40
0.0
 40
0.0
 40
38.0
 40
38.0
 40
38.0
 10
955.2841756811746
 20
346.7350864295011
 30
0.0
 10
936.2841756811746
 20
346.7350864295011
 30
0.0
 10
917.2841756811746
 20
346.7350864295011
 30
0.0
  0
SPLINE
  5
70
330
1F
100
AcDbEntity
  8
3D_PORTALAMPADE - NASCOSTA
100
AcDbSpline
210
0.0
220
0.0
230
1.0
 70
    12
 71
     2
 72
    10
 73
     7
 74
     0
 42
0.0000000001
 43
0.0000000001
 40
0.0
 40
0.0
 40
0.0
 40
0.0074564497073055
 40
0.0074564497073055
 40
7.507456449536036
 40
7.507456449536036
 40
14.99999999965746
 40
14.99999999965746
 40
14.99999999965746
 10
943.776719231296
 20
418.7350862054154
 30
0.0
 41
1.0
 10
943.7804474561497
 20
418.7350862054161
 30
0.0
 41
1.0
 10
943.7841756810034
 20
418.7350862054166
 30
0.0
 41
1.0
 10
940.034175681089
 20
418.7350769041954
 30
0.0
 41
1.0
 10
936.2841756811746
 20
418.7350769040938
 30
0.0
 41
1.0
 10
932.5379039061139
 20
418.7350769042686
 30
0.0
 41
1.0
 10
928.7916321310531
 20
418.7350769042403
 30
0.0
 41
1.0
  0
SPLINE
  5
71
330
1F
100
AcDbEntity
  8
3D_PORTALAMPADE - NASCOSTA
100
AcDbSpline
210
0.0
220
0.0
230
1.0
 70
    12
 71
     2
 72
    10
 73
     7
 74
     0
 42
0.0000000001
 43
0.0000000001
 40
0.0
 40
0.0
 40
0.0
 40
0.0054680631187978
 40
0.0054680631187978
 40
5.505468063118798
 40
5.505468063118798
 40
10.99999999999999
 40
10.99999999999999
 40
10.99999999999999
 10
941.7787076180558
 20
437.7350862054154
 30
0.0
 41
1.0
 10
941.7814416496152
 20
437.7350862054159
 30
0.0
 41
1.0
 10
941.7841756811746
 20
437.7350862054163
 30
0.0
 41
1.0
 10
939.0341756811746
 20
437.7350769042224
 30
0.0
 41
1.0
 10
936.2841756811746
 20
437.7350769041478
 30
0.0
 41
1.0
 10
933.536909712734
 20
437.7350769042761
 30
0.0
 41
1.0
 10
930.7896437442935
 20
437.7350769042554
 30
0.0
 41
1.0
  0
SPLINE
  5
72
330
1F
100
AcDbEntity
  8
3D_PORTALAMPADE - NASCOSTA
100
AcDbSpline
210
0.0
220
0.0
230
1.0
 70
    24
 71
     2
 72
     6
 73
     3
 74
     0
 42
0.0000000001
 43
0.0000000001
 40
0.0
 40
0.0
 40
0.0
 40
90.99999977565511
 40
90.99999977565511
 40
90.99999977565511
 10
936.2841756811746
 20
437.7350862051562
 30
0.0
 10
936.2841756811746
 20
392.2350863173286
 30
0.0
 10
936.2841756811746
 20
346.7350864295011
 30
0.0
  0
SPLINE
  5
73
330
1F
100
AcDbEntity
  8
3D_BLOCCACAVI - NASCOSTA
100
AcDbSpline
210
0.0
220
0.0
230
1.0
 70
    24
 71
     2
 72
     6
 73
     3
 74
     0
 42
0.0000000001
 43
0.0000000001
 40
0.0
 40
0.0
 40
0.0
 40
5.0
 40
5.0
 40
5.0
 10
1238.599199410018
 20
417.2350862051562
 30
0.0
 10
1241.099199410018
 20
417.2350862051562
 30
0.0
 10
1243.599199410018
 20
417.2350862051562
 30
0.0
  0
SPLINE
  5
74
330
1F
100
AcDbEntity
  8
3D_WOOD - NASCOSTA
100
AcDbSpline
210
0.0
220
0.0
230
1.0
 70
    24
 71
     2
 72
     6
 73
     3
 74
     0
 42
0.0000000001
 43
0.0000000001
 40
0.0
 40
0.0
 40
0.0
 40
14.12518751166393
 40
14.12518751166393
 40
14.12518751166393
 10
1256.606310544134
 20
439.7366408531766
 30
0.0
 10
1260.606310547203
 20
433.9159681656456
 30
0.0
 10
1264.606310550271
 20
428.0952954781146
 30
0.0
  0
SPLINE
  5
75
330
1F
100
AcDbEntity
  8
3D_WOOD - NASCOSTA
100
AcDbSpline
210
0.0
220
0.0
230
1.0
 70
    12
 71
     3
 72
    12
 73
     8
 74
     0
 42
0.0000000001
 43
0.0000000001
 40
0.0603165893584648
 40
0.0603165893584648
 40
0.0603165893584648
 40
0.0603165893584648
 40
0.2666198164959406
 40
0.5196156935649628
 40
0.6563702217103802
 40
0.7110720329685469
 40
1.367493768066548
 40
1.367493768066548
 40
1.367493768066548
 40
1.367493768066548
 10
1257.637195825358
 20
440.4972489162513
 30
0.0
 41
1.0
 10
1257.569340378255
 20
440.4864389946533
 30
0.0
 41
1.0
 10
1257.421002084663
 20
440.4450048217954
 30
0.0
 41
1.0
 10
1257.241854181482
 20
440.3549495675433
 30
0.0
 41
1.0
 10
1257.130297642565
 20
440.2570312332499
 30
0.0
 41
1.0
 10
1256.924036752625
 20
440.0637487993441
 30
0.0
 41
1.0
 10
1256.764498346009
 20
439.8878136821054
 30
0.0
 41
1.0
 10
1256.60631054164
 20
439.73664083723
 30
0.0
 41
1.0
  0
SPLINE
  5
76
330
1F
100
AcDbEntity
  8
3D_WOOD - VISIBILE
100
AcDbSpline
210
0.0
220
0.0
230
1.0
 70
    24
 71
     2
 72
     6
 73
     3
 74
     0
 42
0.0000000001
 43
0.0000000001
 40
0.0
 40
0.0
 40
0.0
 40
13.39656709588303
 40
13.39656709588303
 40
13.39656709588303
 10
1244.404498709774
 20
440.5096676416156
 30
0.0
 10
1251.102782257715
 20
440.5096676416156
 30
0.0
 10
1257.801065805657
 20
440.5096676416156
 30
0.0
  0
SPLINE
  5
77
330
1F
100
AcDbEntity
  8
3D_WOOD - VISIBILE
100
AcDbSpline
210
0.0
220
0.0
230
1.0
 70
     8
 71
     3
 72
    16
 73
    12
 74
     0
 42
0.0000000001
 43
0.0000000001
 40
0.0
 40
0.0
 40
0.0
 40
0.0
 40
0.2049080145323297
 40
0.7578505724604723
 40
2.215498606585339
 40
4.578075932467423
 40
9.403580343364645
 40
19.05453570380631
 40
38.15547943440443
 40
56.75366349813915
 40
75.35159833740465
 40
75.35159833740465
 40
75.35159833740465
 40
75.35159833740465
 10
1257.80106580564
 20
440.5096676416157
 30
0.0
 10
1257.86939930931
 20
440.5080037054086
 30
0.0
 10
1258.119993599649
 20
440.4747581021945
 30
0.0
 10
1258.849706362077
 20
440.3622777419227
 30
0.0
 10
1260.287849259856
 20
440.1220542886651
 30
0.0
 10
1263.114613913852
 20
439.5605381394373
 30
0.0
 10
1268.551560079904
 20
438.1450473290677
 30
0.0
 10
1279.00898461534
 20
434.0647575457124
 30
0.0
 10
1292.112738782595
 20
424.8978137465302
 30
0.0
 10
1303.353532794017
 20
409.5463284124474
 30
0.0
 10
1306.994967713147
 20
397.5016952346072
 30
0.0
 10
1307.732423085221
 20
391.3461459377459
 30
0.0
  0
SPLINE
  5
78
330
1F
100
AcDbEntity
  8
3D_WOOD - VISIBILE
100
AcDbSpline
210
0.0
220
0.0
230
1.0
 70
     8
 71
     3
 72
    19
 73
    15
 74
     0
 42
0.0000000001
 43
0.0000000001
 40
0.0
 40
0.0
 40
0.0
 40
0.0
 40
26.66583814142219
 40
27.14336065644798
 40
27.83451498892209
 40
29.1162808605384
 40
30.22211080059635
 40
31.02633597207931
 40
32.39608700601507
 40
33.46424239277211
 40
33.5522084729821
 40
42.6302045298747
 40
60.78690555105571
 40
78.94320175514125
 40
78.94320175514125
 40
78.94320175514125
 40
78.94320175514125
 10
1307.732423085221
 20
391.346145937746
 30
0.0
 10
1309.124099279812
 20
382.5671330214648
 30
0.0
 10
1310.540930975104
 20
373.6310287005361
 30
0.0
 10
1311.99341341064
 20
364.4671978426741
 30
0.0
 10
1312.171563463919
 20
363.6694400542229
 30
0.0
 10
1312.487132669751
 20
362.6908795080136
 30
0.0
 10
1312.929773630623
 20
361.7218873616947
 30
0.0
 10
1313.471750197153
 20
360.7711413482166
 30
0.0
 10
1314.105701135451
 20
359.8934558995658
 30
0.0
 10
1314.67224164956
 20
359.2688918108879
 30
0.0
 10
1317.125377734057
 20
356.8983321201844
 30
0.0
 10
1323.678478737437
 20
350.5734154730515
 30
0.0
 10
1334.562681333667
 20
340.0633794858763
 30
0.0
 10
1343.271262305531
 20
331.6565025692379
 30
0.0
 10
1347.625039541277
 20
327.4526343560196
 30
0.0
  0
SPLINE
  5
79
330
1F
100
AcDbEntity
  8
3D_WOOD - VISIBILE
100
AcDbSpline
210
0.0
220
0.0
230
1.0
 70
    12
 71
     2
 72
     8
 73
     5
 74
     0
 42
0.0000000001
 43
0.0000000001
 40
0.0
 40
0.0
 40
0.0
 40
2.950692503601129
 40
2.950692503601129
 40
5.901385007202258
 40
5.901385007202258
 40
5.901385007202258
 10
1347.628102442085
 20
327.4496771339689
 30
0.0
 41
1.0
 10
1348.792860915854
 20
326.2750099399137
 30
0.0
 41
0.8454082794048984
 10
1348.23220157951
 20
324.7186788608764
 30
0.0
 41
1.0
 10
1347.671542243165
 20
323.162347781839
 30
0.0
 41
0.8454082794048984
 10
1346.025255535458
 20
323.0003434762332
 30
0.0
 41
1.0
  0
SPLINE
  5
7A
330
1F
100
AcDbEntity
  8
3D_WOOD - VISIBILE
100
AcDbSpline
210
0.0
220
0.0
230
1.0
 70
    12
 71
     2
 72
     6
 73
     3
 74
     0
 42
0.0000000001
 43
0.0000000001
 40
0.0
 40
0.0
 40
0.0
 40
59.1917203498199
 40
59.1917203498199
 40
59.1917203498199
 10
1345.973411775209
 20
322.9931168671465
 30
0.0
 41
1.0
 10
1316.660953820044
 20
318.9071959868027
 30
0.0
 41
0.9999999988693762
 10
1287.348884589582
 20
314.8184873592018
 30
0.0
 41
1.0
  0
SPLINE
  5
7B
330
1F
100
AcDbEntity
  8
3D_WOOD - VISIBILE
100
AcDbSpline
210
0.0
220
0.0
230
1.0
 70
    24
 71
     2
 72
     6
 73
     3
 74
     0
 42
0.0000000001
 43
0.0000000001
 40
0.0
 40
0.0
 40
0.0
 40
0.002896075474439
 40
0.002896075474439
 40
0.002896075474439
 10
1346.019546427291
 20
322.9995476720397
 30
0.0
 10
1346.018112255602
 20
322.9993477599224
 30
0.0
 10
1346.016678083913
 20
322.9991478478051
 30
0.0
  0
SPLINE
  5
7C
330
1F
100
AcDbEntity
  8
3D_WOOD - NASCOSTA
100
AcDbSpline
210
0.0
220
0.0
230
1.0
 70
     8
 71
     3
 72
    13
 73
     9
 74
     0
 42
0.0000000001
 43
0.0000000001
 40
0.0
 40
0.0
 40
0.0
 40
0.0
 40
0.3531205662192802
 40
0.714688148846686
 40
1.42350149555977
 40
1.444387723507239
 40
3.891499848558342
 40
50.35652860188832
 40
50.35652860188832
 40
50.35652860188832
 40
50.35652860188832
 10
1286.973273425008
 20
314.8270811459897
 30
0.0
 10
1286.856440030473
 20
314.8423355810111
 30
0.0
 10
1286.62630687565
 20
314.9160138390706
 30
0.0
 10
1286.245696729571
 20
315.2128591761596
 30
0.0
 10
1286.104261331362
 20
315.5729547119442
 30
0.0
 10
1286.103907815996
 20
316.6322513096455
 30
0.0
 10
1286.103137565842
 20
332.9427316896669
 30
0.0
 10
1286.101939186799
 20
349.2472260382731
 30
0.0
 10
1286.101052516571
 20
364.7354205831215
 30
0.0
  0
SPLINE
  5
7D
330
1F
100
AcDbEntity
  8
3D_WOOD - VISIBILE
100
AcDbSpline
210
0.0
220
0.0
230
1.0
 70
    12
 71
     2
 72
     6
 73
     3
 74
     0
 42
0.0000000001
 43
0.0000000001
 40
0.0
 40
0.0
 40
0.0
 40
0.0050100295826388
 40
0.0050100295826388
 40
0.0050100295826388
 10
1287.339954982373
 20
314.8184886594398
 30
0.0
 41
1.0
 10
1287.337449967697
 20
314.818489435897
 30
0.0
 41
0.9999999965317502
 10
1287.334944953184
 20
314.8184906296179
 30
0.0
 41
1.0
  0
SPLINE
  5
7E
330
1F
100
AcDbEntity
  8
3D_WOOD - NASCOSTA
100
AcDbSpline
210
0.0
220
0.0
230
1.0
 70
    24
 71
     2
 72
     6
 73
     3
 74
     0
 42
0.0000000001
 43
0.0000000001
 40
0.0
 40
0.0
 40
0.0
 40
0.0043667873174196
 40
0.0043667873174196
 40
0.0043667873174196
 10
1286.088063537966
 20
364.735421119258
 30
0.0
 10
1286.090246931623
 20
364.7354210291357
 30
0.0
 10
1286.09243032528
 20
364.7354209390134
 30
0.0
  0
SPLINE
  5
7F
330
1F
100
AcDbEntity
  8
3D_WOOD - NASCOSTA
100
AcDbSpline
210
0.0
220
0.0
230
1.0
 70
    24
 71
     2
 72
     6
 73
     3
 74
     0
 42
0.0000000001
 43
0.0000000001
 40
0.0
 40
0.0
 40
0.0
 40
44.99997972969477
 40
44.99997972969477
 40
44.99997972969477
 10
1272.597905560989
 20
409.7359577655873
 30
0.0
 10
1272.600553551278
 20
387.2359680565589
 30
0.0
 10
1272.603201541568
 20
364.7359783475305
 30
0.0
  0
SPLINE
  5
80
330
1F
100
AcDbEntity
  8
3D_WOOD - NASCOSTA
100
AcDbSpline
210
0.0
220
0.0
230
1.0
 70
    24
 71
     2
 72
     6
 73
     3
 74
     0
 42
0.0000000001
 43
0.0000000001
 40
0.0
 40
0.0
 40
0.0
 40
0.002676950701014
 40
0.002676950701014
 40
0.002676950701014
 10
1272.592610009148
 20
409.7359572899378
 30
0.0
 10
1272.591271533803
 20
409.7359571697152
 30
0.0
 10
1272.589933058458
 20
409.7359570494927
 30
0.0
  0
SPLINE
  5
81
330
1F
100
AcDbEntity
  8
3D_WOOD - NASCOSTA
100
AcDbSpline
210
0.0
220
0.0
230
1.0
 70
    24
 71
     2
 72
     6
 73
     3
 74
     0
 42
0.0000000001
 43
0.0000000001
 40
0.0
 40
0.0
 40
0.0
 40
18.36005552200032
 40
18.36005552200032
 40
18.36005552200032
 10
1264.606310550271
 20
428.0952954781146
 30
0.0
 10
1264.606310550271
 20
418.9152677171145
 30
0.0
 10
1264.606310550271
 20
409.7352399561143
 30
0.0
  0
SPLINE
  5
82
330
1F
100
AcDbEntity
  8
3D_PORTALAMPADE - NASCOSTA
100
AcDbSpline
210
0.0
220
0.0
230
1.0
 70
    24
 71
     2
 72
     6
 73
     3
 74
     0
 42
0.0000000001
 43
0.0000000001
 40
0.0
 40
0.0
 40
0.0
 40
9.937677762250132
 40
9.937677762250132
 40
9.937677762250132
 10
1246.135129959039
 20
407.7350864295012
 30
0.0
 10
1251.103968840164
 20
407.7350864295011
 30
0.0
 10
1256.072807721289
 20
407.7350864295011
 30
0.0
  0
SPLINE
  5
83
330
1F
100
AcDbEntity
  8
3D_PORTALAMPADE - NASCOSTA
100
AcDbSpline
210
0.0
220
0.0
230
1.0
 70
    24
 71
     2
 72
     6
 73
     3
 74
     0
 42
0.0000000001
 43
0.0000000001
 40
0.0
 40
0.0
 40
0.0
 40
16.99999999999994
 40
16.99999999999994
 40
16.99999999999994
 10
1270.099199409197
 20
363.735086429501
 30
0.0
 10
1270.099199409197
 20
355.2350864295011
 30
0.0
 10
1270.099199409197
 20
346.7350864295011
 30
0.0
  0
SPLINE
  5
84
330
1F
100
AcDbEntity
  8
3D_PORTALAMPADE - NASCOSTA
100
AcDbSpline
210
0.0
220
0.0
230
1.0
 70
    12
 71
     2
 72
     6
 73
     3
 74
     0
 42
0.0000000001
 43
0.0000000001
 40
0.0
 40
0.0
 40
0.0
 40
15.69084951699704
 40
15.69084951699704
 40
15.69084951699704
 10
1260.099200080981
 20
407.7350864295011
 30
0.0
 41
1.0
 10
1270.082167166234
 20
407.7351675147685
 30
0.0
 41
0.7077051250670946
 10
1270.099150294085
 20
397.7522148751337
 30
0.0
 41
1.0
  0
SPLINE
  5
85
330
1F
100
AcDbEntity
  8
3D_PORTALAMPADE - NASCOSTA
100
AcDbSpline
210
0.0
220
0.0
230
1.0
 70
    24
 71
     2
 72
     6
 73
     3
 74
     0
 42
0.0000000001
 43
0.0000000001
 40
0.0
 40
0.0
 40
0.0
 40
10.0
 40
10.0
 40
10.0
 10
1258.599199409675
 20
418.7350862050209
 30
0.0
 10
1258.599199409585
 20
413.7350862050209
 30
0.0
 10
1258.599199409495
 20
408.7350862050209
 30
0.0
  0
SPLINE
  5
86
330
1F
100
AcDbEntity
  8
3D_PORTALAMPADE - NASCOSTA
100
AcDbSpline
210
0.0
220
0.0
230
1.0
 70
    24
 71
     2
 72
     6
 73
     3
 74
     0
 42
0.0000000001
 43
0.0000000001
 40
0.0
 40
0.0
 40
0.0
 40
19.10419259771214
 40
19.10419259771214
 40
19.10419259771214
 10
1256.599199410018
 20
437.735086205057
 30
0.0
 10
1257.599158552588
 20
428.2354743489962
 30
0.0
 10
1258.599117695158
 20
418.7358624929354
 30
0.0
  0
SPLINE
  5
87
330
1F
100
AcDbEntity
  8
3D_U METALLICA - NASCOSTA
100
AcDbSpline
210
0.0
220
0.0
230
1.0
 70
    24
 71
     2
 72
     6
 73
     3
 74
     0
 42
0.0000000001
 43
0.0000000001
 40
0.0
 40
0.0
 40
0.0
 40
43.99910870534967
 40
43.99910870534967
 40
43.99910870534967
 10
1271.099199409197
 20
364.7359777241514
 30
0.0
 10
1271.099199409197
 20
386.7355320768262
 30
0.0
 10
1271.099199409197
 20
408.7350864295011
 30
0.0
  0
SPLINE
  5
88
330
1F
100
AcDbEntity
  8
3D_U METALLICA - NASCOSTA
100
AcDbSpline
210
0.0
220
0.0
230
1.0
 70
    24
 71
     2
 72
     6
 73
     3
 74
     0
 42
0.0000000001
 43
0.0000000001
 40
0.0
 40
0.0
 40
0.0
 40
1.0
 40
1.0
 40
1.0
 10
1280.099199409197
 20
363.7350864295011
 30
0.0
 10
1280.099199409197
 20
364.2350864295011
 30
0.0
 10
1280.099199409197
 20
364.7350864295011
 30
0.0
  0
SPLINE
  5
89
330
1F
100
AcDbEntity
  8
3D_U METALLICA - NASCOSTA
100
AcDbSpline
210
0.0
220
0.0
230
1.0
 70
    24
 71
     2
 72
     6
 73
     3
 74
     0
 42
0.0000000001
 43
0.0000000001
 40
0.0
 40
0.0
 40
0.0
 40
10.0
 40
10.0
 40
10.0
 10
1270.099199409197
 20
363.7350864295011
 30
0.0
 10
1275.099199409197
 20
363.7350864295011
 30
0.0
 10
1280.099199409197
 20
363.7350864295011
 30
0.0
  0
SPLINE
  5
8A
330
1F
100
AcDbEntity
  8
3D_U METALLICA - NASCOSTA
100
AcDbSpline
210
0.0
220
0.0
230
1.0
 70
    24
 71
     2
 72
     6
 73
     3
 74
     0
 42
0.0000000001
 43
0.0000000001
 40
0.0
 40
0.0
 40
0.0
 40
44.0
 40
44.0
 40
44.0
 10
1270.099199409197
 20
407.7350864295011
 30
0.0
 10
1270.099199409197
 20
385.7350864295011
 30
0.0
 10
1270.099199409197
 20
363.7350864295011
 30
0.0
  0
SPLINE
  5
8B
330
1F
100
AcDbEntity
  8
3D_U METALLICA - NASCOSTA
100
AcDbSpline
210
0.0
220
0.0
230
1.0
 70
    24
 71
     2
 72
     6
 73
     3
 74
     0
 42
0.0000000001
 43
0.0000000001
 40
0.0
 40
0.0
 40
0.0
 40
14.02639168788312
 40
14.02639168788312
 40
14.02639168788312
 10
1256.072807721314
 20
407.7350864295011
 30
0.0
 10
1263.086003565256
 20
407.7350864295011
 30
0.0
 10
1270.099199409197
 20
407.7350864295011
 30
0.0
  0
SPLINE
  5
8C
330
1F
100
AcDbEntity
  8
3D_U METALLICA - NASCOSTA
100
AcDbSpline
210
0.0
220
0.0
230
1.0
 70
    24
 71
     2
 72
     6
 73
     3
 74
     0
 42
0.0000000001
 43
0.0000000001
 40
0.0
 40
0.0
 40
0.0
 40
14.03593054984958
 40
14.03593054984958
 40
14.03593054984958
 10
1232.099199409197
 20
407.7350864295011
 30
0.0
 10
1239.117164684122
 20
407.7350864295011
 30
0.0
 10
1246.135129959047
 20
407.7350864295011
 30
0.0
  0
SPLINE
  5
8D
330
1F
100
AcDbEntity
  8
3D_U METALLICA - NASCOSTA
100
AcDbSpline
210
0.0
220
0.0
230
1.0
 70
    24
 71
     2
 72
     6
 73
     3
 74
     0
 42
0.0000000001
 43
0.0000000001
 40
0.0
 40
0.0
 40
0.0
 40
44.0
 40
44.0
 40
44.0
 10
1232.099199409197
 20
363.7350864295011
 30
0.0
 10
1232.099199409197
 20
385.7350864295011
 30
0.0
 10
1232.099199409197
 20
407.7350864295011
 30
0.0
  0
SPLINE
  5
8E
330
1F
100
AcDbEntity
  8
3D_U METALLICA - NASCOSTA
100
AcDbSpline
210
0.0
220
0.0
230
1.0
 70
    24
 71
     2
 72
     6
 73
     3
 74
     0
 42
0.0000000001
 43
0.0000000001
 40
0.0
 40
0.0
 40
0.0
 40
10.0
 40
10.0
 40
10.0
 10
1222.099199409197
 20
363.7350864295011
 30
0.0
 10
1227.099199409197
 20
363.7350864295011
 30
0.0
 10
1232.099199409197
 20
363.7350864295011
 30
0.0
  0
SPLINE
  5
8F
330
1F
100
AcDbEntity
  8
3D_U METALLICA - NASCOSTA
100
AcDbSpline
210
0.0
220
0.0
230
1.0
 70
    24
 71
     2
 72
     6
 73
     3
 74
     0
 42
0.0000000001
 43
0.0000000001
 40
0.0
 40
0.0
 40
0.0
 40
1.0
 40
1.0
 40
1.0
 10
1222.099199409197
 20
364.7350864295011
 30
0.0
 10
1222.099199409197
 20
364.2350864295011
 30
0.0
 10
1222.099199409197
 20
363.7350864295011
 30
0.0
  0
SPLINE
  5
90
330
1F
100
AcDbEntity
  8
3D_U METALLICA - NASCOSTA
100
AcDbSpline
210
0.0
220
0.0
230
1.0
 70
    24
 71
     2
 72
     6
 73
     3
 74
     0
 42
0.0000000001
 43
0.0000000001
 40
0.0
 40
0.0
 40
0.0
 40
43.99955435267486
 40
43.99955435267486
 40
43.99955435267486
 10
1231.099199409197
 20
408.7350864295011
 30
0.0
 10
1231.099199409197
 20
386.7353092531636
 30
0.0
 10
1231.099199409197
 20
364.7355320768262
 30
0.0
  0
SPLINE
  5
91
330
1F
100
AcDbEntity
  8
3D_U METALLICA - NASCOSTA
100
AcDbSpline
210
0.0
220
0.0
230
1.0
 70
    24
 71
     2
 72
     6
 73
     3
 74
     0
 42
0.0000000001
 43
0.0000000001
 40
0.0
 40
0.0
 40
0.0
 40
40.0
 40
40.0
 40
40.0
 10
1271.099199409197
 20
408.7350864295011
 30
0.0
 10
1251.099199409197
 20
408.7350864295011
 30
0.0
 10
1231.099199409197
 20
408.7350864295011
 30
0.0
  0
SPLINE
  5
92
330
1F
100
AcDbEntity
  8
3D_BLOCCACAVI - NASCOSTA
100
AcDbSpline
210
0.0
220
0.0
230
1.0
 70
    24
 71
     2
 72
     6
 73
     3
 74
     0
 42
0.0000000001
 43
0.0000000001
 40
0.0
 40
0.0
 40
0.0
 40
7.0
 40
7.0
 40
7.0
 10
1238.599199410018
 20
417.2350862051562
 30
0.0
 10
1238.599199410018
 20
413.7350862051562
 30
0.0
 10
1238.599199410018
 20
410.2350862051562
 30
0.0
  0
SPLINE
  5
93
330
1F
100
AcDbEntity
  8
3D_BLOCCACAVI - NASCOSTA
100
AcDbSpline
210
0.0
220
0.0
230
1.0
 70
    24
 71
     2
 72
     6
 73
     3
 74
     0
 42
0.0000000001
 43
0.0000000001
 40
0.0
 40
0.0
 40
0.0
 40
7.0
 40
7.0
 40
7.0
 10
1243.599199410018
 20
417.2350862051562
 30
0.0
 10
1243.599199410018
 20
413.7350862051562
 30
0.0
 10
1243.599199410018
 20
410.2350862051562
 30
0.0
  0
SPLINE
  5
94
330
1F
100
AcDbEntity
  8
3D_WOOD - NASCOSTA
100
AcDbSpline
210
0.0
220
0.0
230
1.0
 70
    24
 71
     2
 72
     6
 73
     3
 74
     0
 42
0.0000000001
 43
0.0000000001
 40
0.0
 40
0.0
 40
0.0
 40
14.12518751166393
 40
14.12518751166393
 40
14.12518751166393
 10
1245.599199416155
 20
439.7366408531766
 30
0.0
 10
1241.599199413086
 20
433.9159681656456
 30
0.0
 10
1237.599199410018
 20
428.0952954781146
 30
0.0
  0
SPLINE
  5
95
330
1F
100
AcDbEntity
  8
3D_WOOD - NASCOSTA
100
AcDbSpline
210
0.0
220
0.0
230
1.0
 70
    12
 71
     2
 72
    10
 73
     7
 74
     0
 42
0.0000000001
 43
0.0000000001
 40
0.0
 40
0.0
 40
0.0
 40
0.0054715980367632
 40
0.0054715980367632
 40
1.57626792483166
 40
1.57626792483166
 40
3.147030803806018
 40
3.147030803806018
 40
3.147030803806018
 10
1256.600838946098
 20
439.73664085567
 30
0.0
 41
1.0
 10
1256.603574745116
 20
439.7366408556699
 30
0.0
 41
1.0
 10
1256.606310544134
 20
439.7366408556698
 30
0.0
 41
1.0
 10
1256.606310544134
 20
439.7366408531766
 30
0.0
 41
0.7071067811865476
 10
1251.102754980144
 20
439.7366408531766
 30
0.0
 41
1.0
 10
1245.599365146666
 20
439.7366408531767
 30
0.0
 41
0.7071130179211595
 10
1245.59919941865
 20
439.7366408531766
 30
0.0
 41
0.9999875267963804
  0
SPLINE
  5
96
330
1F
100
AcDbEntity
  8
3D_WOOD - NASCOSTA
100
AcDbSpline
210
0.0
220
0.0
230
1.0
 70
    12
 71
     3
 72
    11
 73
     7
 74
     0
 42
0.0000000001
 43
0.0000000001
 40
359.1365260316546
 40
359.1365260316546
 40
359.1365260316546
 40
359.1365260316546
 40
359.3342558746679
 40
359.5928531861633
 40
359.7498650916309
 40
360.4439376115439
 40
360.4439376115439
 40
360.4439376115439
 40
360.4439376115439
 10
1244.568321466781
 20
440.4972703162159
 30
0.0
 41
1.0
 10
1244.633378429393
 20
440.4869406758984
 30
0.0
 41
1.0
 10
1244.779723339061
 20
440.4467293797472
 30
0.0
 41
1.0
 10
1244.965965474471
 20
440.3547193095722
 30
0.0
 41
1.0
 10
1245.241839739131
 20
440.107853087672
 30
0.0
 41
1.0
 10
1245.431944256629
 20
439.8964789408286
 30
0.0
 41
1.0
 10
1245.599199418649
 20
439.73664083723
 30
0.0
 41
1.0
  0
SPLINE
  5
97
330
1F
100
AcDbEntity
  8
3D_WOOD - VISIBILE
100
AcDbSpline
210
0.0
220
0.0
230
1.0
 70
     8
 71
     3
 72
    17
 73
    13
 74
     0
 42
0.0000000001
 43
0.0000000001
 40
0.0
 40
0.0
 40
0.0
 40
0.0
 40
9.240879489051308
 40
18.47991768873679
 40
37.16756974012558
 40
56.17210819648378
 40
65.7860892624724
 40
70.67177763454472
 40
73.06478558216541
 40
74.66425046051808
 40
75.13313052239593
 40
75.35133040320954
 40
75.35133040320954
 40
75.35133040320954
 40
75.35133040320954
 10
1194.473086875068
 20
391.346145937746
 30
0.0
 10
1194.840273337593
 20
394.4050148979659
 30
0.0
 10
1196.106596088808
 20
400.4551288338337
 30
0.0
 10
1200.672694696966
 20
412.0226816605555
 30
0.0
 10
1210.02773118995
 20
424.8342096682242
 30
0.0
 10
1223.106117573339
 20
434.0083543732986
 30
0.0
 10
1233.53091206655
 20
438.1044324137004
 30
0.0
 10
1238.982215731637
 20
439.5359164686835
 30
0.0
 10
1241.884126127493
 20
440.1170519149833
 30
0.0
 10
1243.351395303339
 20
440.3614840389965
 30
0.0
 10
1244.104504061249
 20
440.4775854629804
 30
0.0
 10
1244.331780894068
 20
440.5074143050402
 30
0.0
 10
1244.404498792338
 20
440.5096676387658
 30
0.0
  0
SPLINE
  5
98
330
1F
100
AcDbEntity
  8
3D_WOOD - VISIBILE
100
AcDbSpline
210
0.0
220
0.0
230
1.0
 70
    24
 71
     2
 72
     6
 73
     3
 74
     0
 42
0.0000000001
 43
0.0000000001
 40
0.0
 40
0.0
 40
0.0
 40
113.2593362101527
 40
113.2593362101527
 40
113.2593362101527
 10
1307.732423085221
 20
391.346145937746
 30
0.0
 10
1251.102754980144
 20
391.346145937746
 30
0.0
 10
1194.473086875068
 20
391.346145937746
 30
0.0
  0
SPLINE
  5
99
330
1F
100
AcDbEntity
  8
3D_WOOD - VISIBILE
100
AcDbSpline
210
0.0
220
0.0
230
1.0
 70
     8
 71
     3
 72
    17
 73
    13
 74
     0
 42
0.0000000001
 43
0.0000000001
 40
0.0
 40
0.0
 40
0.0
 40
0.0
 40
45.39987770789335
 40
45.46964491538572
 40
46.11211178920805
 40
46.69104749617235
 40
47.2639107164898
 40
47.93213800907305
 40
50.59406067930124
 40
51.81367648480162
 40
52.09056889691096
 40
78.94743725180616
 40
78.94743725180616
 40
78.94743725180616
 40
78.94743725180616
 10
1154.577407518204
 20
327.4496771339689
 30
0.0
 10
1165.464416874926
 20
337.9611072176846
 30
0.0
 10
1176.368548473614
 20
348.4881779174547
 30
0.0
 10
1187.426143773966
 20
359.164780673769
 30
0.0
 10
1187.721537257351
 20
359.477830148608
 30
0.0
 10
1188.110784424668
 20
359.9328085942184
 30
0.0
 10
1188.475004082077
 20
360.4173464283852
 30
0.0
 10
1189.203071541805
 20
361.4986169754325
 30
0.0
 10
1189.828785557982
 20
362.8909141428783
 30
0.0
 10
1190.174057406522
 20
364.2368997057091
 30
0.0
 10
1191.658521056288
 20
373.5707240217611
 30
0.0
 10
1193.069314243304
 20
382.5045981058042
 30
0.0
 10
1194.473086875068
 20
391.346145937746
 30
0.0
  0
SPLINE
  5
9A
330
1F
100
AcDbEntity
  8
3D_WOOD - VISIBILE
100
AcDbSpline
210
0.0
220
0.0
230
1.0
 70
    28
 71
     2
 72
    10
 73
     7
 74
     0
 42
0.0000000001
 43
0.0000000001
 40
3.129320807286708
 40
3.129320807286708
 40
3.129320807286708
 40
3.141592653589793
 40
3.141592653589793
 40
4.71238898038469
 40
4.71238898038469
 40
6.283185307179586
 40
6.283185307179586
 40
6.283185307179586
 10
1347.622184129119
 20
327.4496771339689
 30
0.0
 41
0.9954592970227896
 10
1347.628102442085
 20
327.4496771339689
 30
0.0
 41
0.99771177172802
 10
1347.628102442085
 20
327.4496771339689
 30
0.0
 41
1.0
 10
1347.628102442085
 20
327.4496771339689
 30
0.0
 41
0.7071067811865476
 10
1251.102754980144
 20
327.4496771339689
 30
0.0
 41
1.0
 10
1154.577407518204
 20
327.4496771339689
 30
0.0
 41
0.7071067811865476
 10
1154.577407518204
 20
327.4496771339689
 30
0.0
 41
1.0
  0
SPLINE
  5
9B
330
1F
100
AcDbEntity
  8
3D_WOOD - VISIBILE
100
AcDbSpline
210
0.0
220
0.0
230
1.0
 70
    12
 71
     2
 72
     8
 73
     5
 74
     0
 42
0.0000000001
 43
0.0000000001
 40
0.0
 40
0.0
 40
0.0
 40
2.949642701864013
 40
2.949642701864013
 40
5.901152769180483
 40
5.901152769180483
 40
5.901152769180483
 10
1156.180254424831
 20
323.0003434762332
 30
0.0
 41
1.0
 10
1154.534707284679
 20
323.1622950446835
 30
0.0
 41
0.8455203697221242
 10
1153.973664922992
 20
324.7177001910604
 30
0.0
 41
1.0
 10
1153.412887058769
 20
326.274326451414
 30
0.0
 41
0.8455113704173337
 10
1154.577407518204
 20
327.4496771339689
 30
0.0
 41
1.0
  0
SPLINE
  5
9C
330
1F
100
AcDbEntity
  8
3D_WOOD - VISIBILE
100
AcDbSpline
210
0.0
220
0.0
230
1.0
 70
    28
 71
     2
 72
    10
 73
     7
 74
     0
 42
0.0000000001
 43
0.0000000001
 40
3.129320807286708
 40
3.129320807286708
 40
3.129320807286708
 40
3.141592653589793
 40
3.141592653589793
 40
4.71238898038469
 40
4.71238898038469
 40
6.283185307179586
 40
6.283185307179586
 40
6.283185307179586
 10
1346.019435498747
 20
323.0003434762332
 30
0.0
 41
0.9954592970227896
 10
1346.025255535458
 20
323.0003434762332
 30
0.0
 41
0.99771177172802
 10
1346.025255535458
 20
323.0003434762332
 30
0.0
 41
1.0
 10
1346.025255535458
 20
323.0003434762332
 30
0.0
 41
0.7071067811865476
 10
1251.102754980144
 20
323.0003434762332
 30
0.0
 41
1.0
 10
1156.180254424831
 20
323.0003434762332
 30
0.0
 41
0.7071067811865476
 10
1156.180254424831
 20
323.0003434762332
 30
0.0
 41
1.0
  0
SPLINE
  5
9D
330
1F
100
AcDbEntity
  8
3D_WOOD - VISIBILE
100
AcDbSpline
210
0.0
220
0.0
230
1.0
 70
    12
 71
     2
 72
     6
 73
     3
 74
     0
 42
0.0000000001
 43
0.0000000001
 40
0.0
 40
0.0
 40
0.0
 40
59.15059824262139
 40
59.15059824262139
 40
59.15059824262139
 10
1214.85662537071
 20
314.8184873592108
 30
0.0
 41
1.0
 10
1185.564919722881
 20
318.9043531998231
 30
0.0
 41
0.9999999988745875
 10
1156.272826516573
 20
322.9874396575468
 30
0.0
 41
1.0
  0
SPLINE
  5
9E
330
1F
100
AcDbEntity
  8
3D_WOOD - VISIBILE
100
AcDbSpline
210
0.0
220
0.0
230
1.0
 70
    12
 71
     2
 72
    10
 73
     7
 74
     0
 42
0.0000000001
 43
0.0000000001
 40
0.0
 40
0.0
 40
0.0
 40
0.0089296075976222
 40
0.0089296075976222
 40
1.579725934392519
 40
1.579725934392519
 40
3.150522261187415
 40
3.150522261187415
 40
3.150522261187415
 10
1287.339954981985
 20
314.8184873461723
 30
0.0
 41
1.0
 10
1287.344419785784
 20
314.8184873461723
 30
0.0
 41
1.0
 10
1287.348884589583
 20
314.8184873461722
 30
0.0
 41
1.0
 10
1287.348884589582
 20
314.8184873591896
 30
0.0
 41
0.7071067811865476
 10
1251.102754980144
 20
314.8184873591896
 30
0.0
 41
1.0
 10
1214.856625370707
 20
314.8184873591896
 30
0.0
 41
0.7071067811865476
 10
1214.856625370706
 20
314.8184873591896
 30
0.0
 41
1.0
  0
SPLINE
  5
9F
330
1F
100
AcDbEntity
  8
3D_WOOD - NASCOSTA
100
AcDbSpline
210
0.0
220
0.0
230
1.0
 70
    12
 71
     2
 72
     8
 73
     5
 74
     0
 42
0.0000000001
 43
0.0000000001
 40
87.91492923457197
 40
87.91492923457197
 40
87.91492923457197
 40
137.8118887351267
 40
137.8118887351267
 40
139.292445773738
 40
139.292445773738
 40
139.292445773738
 10
1216.104457443718
 20
364.7354205831215
 30
0.0
 41
1.0
 10
1216.102954399373
 20
340.2769248067669
 30
0.0
 41
1.0
 10
1216.101451355027
 20
315.8184290304124
 30
0.0
 41
1.0
 10
1216.101395211677
 20
314.9048286390303
 30
0.0
 41
0.7382807278885417
 10
1215.191507020275
 20
314.8225537495834
 30
0.0
 41
1.0
  0
SPLINE
  5
A0
330
1F
100
AcDbEntity
  8
3D_WOOD - NASCOSTA
100
AcDbSpline
210
0.0
220
0.0
230
1.0
 70
    28
 71
     2
 72
    10
 73
     7
 74
     0
 42
0.0000000001
 43
0.0000000001
 40
3.117048960983623
 40
3.117048960983623
 40
3.117048960983623
 40
3.141592653589793
 40
3.141592653589793
 40
4.71238898038469
 40
4.71238898038469
 40
6.283185307179586
 40
6.283185307179586
 40
6.283185307179586
 10
1286.092430325265
 20
364.7354205831215
 30
0.0
 41
0.9909901011790784
 10
1286.101052516571
 20
364.7354205831215
 30
0.0
 41
0.9954235434560398
 10
1286.101052516571
 20
364.7354205831215
 30
0.0
 41
1.0
 10
1286.101052516571
 20
364.7354205831215
 30
0.0
 41
0.7071067811865476
 10
1251.102754980144
 20
364.7354205831215
 30
0.0
 41
1.0
 10
1216.104457443718
 20
364.7354205831215
 30
0.0
 41
0.7071067811865476
 10
1216.104457443718
 20
364.7354205831215
 30
0.0
 41
1.0
  0
SPLINE
  5
A1
330
1F
100
AcDbEntity
  8
3D_WOOD - NASCOSTA
100
AcDbSpline
210
0.0
220
0.0
230
1.0
 70
    24
 71
     2
 72
     6
 73
     3
 74
     0
 42
0.0000000001
 43
0.0000000001
 40
0.0
 40
0.0
 40
0.0
 40
44.99998035307393
 40
44.99998035307393
 40
44.99998035307393
 10
1229.6076043993
 20
409.7359577655873
 30
0.0
 10
1229.604956408974
 20
387.2359677448693
 30
0.0
 10
1229.602308418648
 20
364.7359777241514
 30
0.0
  0
SPLINE
  5
A2
330
1F
100
AcDbEntity
  8
3D_WOOD - NASCOSTA
100
AcDbSpline
210
0.0
220
0.0
230
1.0
 70
    12
 71
     2
 72
    10
 73
     7
 74
     0
 42
0.0000000001
 43
0.0000000001
 40
0.0
 40
0.0
 40
0.0
 40
0.0052955518839326
 40
0.0052955518839326
 40
1.576091878678829
 40
1.576091878678829
 40
3.146888205473726
 40
3.146888205473726
 40
3.146888205473726
 10
1272.592610009105
 20
409.7359577715397
 30
0.0
 41
1.0
 10
1272.595257785047
 20
409.7359577715396
 30
0.0
 41
1.0
 10
1272.597905560989
 20
409.7359577715396
 30
0.0
 41
1.0
 10
1272.597905560989
 20
409.7359577655872
 30
0.0
 41
0.7071067811865476
 10
1251.102754980144
 20
409.7359577655873
 30
0.0
 41
1.0
 10
1229.6076043993
 20
409.7359577655872
 30
0.0
 41
0.7071067811865476
 10
1229.6076043993
 20
409.7359577655873
 30
0.0
 41
1.0
  0
SPLINE
  5
A3
330
1F
100
AcDbEntity
  8
3D_WOOD - NASCOSTA
100
AcDbSpline
210
0.0
220
0.0
230
1.0
 70
    24
 71
     2
 72
     6
 73
     3
 74
     0
 42
0.0000000001
 43
0.0000000001
 40
0.0
 40
0.0
 40
0.0
 40
18.36005552200032
 40
18.36005552200032
 40
18.36005552200032
 10
1237.599199410018
 20
428.0952954781146
 30
0.0
 10
1237.599199410018
 20
418.9152677171145
 30
0.0
 10
1237.599199410018
 20
409.7352399561143
 30
0.0
  0
SPLINE
  5
A4
330
1F
100
AcDbEntity
  8
3D_WOOD - NASCOSTA
100
AcDbSpline
210
0.0
220
0.0
230
1.0
 70
    24
 71
     2
 72
     6
 73
     3
 74
     0
 42
0.0000000001
 43
0.0000000001
 40
0.0
 40
0.0
 40
0.0
 40
27.00711114025341
 40
27.00711114025341
 40
27.00711114025341
 10
1264.606310550271
 20
428.0952954781146
 30
0.0
 10
1251.102754980144
 20
428.0952954781146
 30
0.0
 10
1237.599199410018
 20
428.0952954781146
 30
0.0
  0
SPLINE
  5
A5
330
1F
100
AcDbEntity
  8
3D_PORTALAMPADE - NASCOSTA
100
AcDbSpline
210
0.0
220
0.0
230
1.0
 70
    24
 71
     2
 72
     6
 73
     3
 74
     0
 42
0.0000000001
 43
0.0000000001
 40
0.0
 40
0.0
 40
0.0
 40
38.0
 40
38.0
 40
38.0
 10
1270.099199409197
 20
346.7350864295011
 30
0.0
 10
1251.099199409197
 20
346.7350864295011
 30
0.0
 10
1232.099199409197
 20
346.7350864295011
 30
0.0
  0
SPLINE
  5
A6
330
1F
100
AcDbEntity
  8
3D_PORTALAMPADE - NASCOSTA
100
AcDbSpline
210
0.0
220
0.0
230
1.0
 70
    12
 71
     2
 72
    10
 73
     7
 74
     0
 42
0.0000000001
 43
0.0000000001
 40
0.0
 40
0.0
 40
0.0
 40
0.0074564497073197
 40
0.0074564497073197
 40
1.578252776502216
 40
1.578252776502216
 40
3.149049103297113
 40
3.149049103297113
 40
3.149049103297113
 10
1258.591742959968
 20
418.7350862026215
 30
0.0
 41
1.0
 10
1258.595471184821
 20
418.7350862026213
 30
0.0
 41
1.0
 10
1258.599199409675
 20
418.7350862026212
 30
0.0
 41
1.0
 10
1258.599199409675
 20
418.7350862050208
 30
0.0
 41
0.7071067811865476
 10
1251.099199409847
 20
418.7350862050886
 30
0.0
 41
1.0
 10
1243.599199410018
 20
418.7350862051563
 30
0.0
 41
0.7071067811865476
 10
1243.599199410018
 20
418.7350862051563
 30
0.0
 41
1.0
  0
SPLINE
  5
A7
330
1F
100
AcDbEntity
  8
3D_PORTALAMPADE - NASCOSTA
100
AcDbSpline
210
0.0
220
0.0
230
1.0
 70
    12
 71
     2
 72
    10
 73
     7
 74
     0
 42
0.0000000001
 43
0.0000000001
 40
0.0
 40
0.0
 40
0.0
 40
0.0054680631188262
 40
0.0054680631188262
 40
1.576264389913723
 40
1.576264389913723
 40
3.147060716708619
 40
3.147060716708619
 40
3.147060716708619
 10
1256.593731346899
 20
437.7350862026215
 30
0.0
 41
1.0
 10
1256.596465378458
 20
437.7350862026214
 30
0.0
 41
1.0
 10
1256.599199410018
 20
437.7350862026213
 30
0.0
 41
1.0
 10
1256.599199410018
 20
437.7350862050569
 30
0.0
 41
0.7071067811865476
 10
1251.099199410018
 20
437.7350862051066
 30
0.0
 41
1.0
 10
1245.599199410018
 20
437.7350862051563
 30
0.0
 41
0.7071067811865476
 10
1245.599199410018
 20
437.7350862051563
 30
0.0
 41
1.0
  0
SPLINE
  5
A8
330
1F
100
AcDbEntity
  8
3D_BLOCCACAVI - NASCOSTA
100
AcDbSpline
210
0.0
220
0.0
230
1.0
 70
    24
 71
     2
 72
     6
 73
     3
 74
     0
 42
0.0000000001
 43
0.0000000001
 40
0.0
 40
0.0
 40
0.0
 40
5.0
 40
5.0
 40
5.0
 10
1238.599199410018
 20
410.2350862051562
 30
0.0
 10
1241.099199410018
 20
410.2350862051562
 30
0.0
 10
1243.599199410018
 20
410.2350862051562
 30
0.0
  0
SPLINE
  5
A9
330
1F
100
AcDbEntity
  8
3D_PORTALAMPADE - NASCOSTA
100
AcDbSpline
210
0.0
220
0.0
230
1.0
 70
    24
 71
     2
 72
     6
 73
     3
 74
     0
 42
0.0000000001
 43
0.0000000001
 40
0.0
 40
0.0
 40
0.0
 40
90.99999977565511
 40
90.99999977565511
 40
90.99999977565511
 10
1251.099199410018
 20
437.7350862051562
 30
0.0
 10
1251.099199409608
 20
392.2350863173286
 30
0.0
 10
1251.099199409197
 20
346.7350864295011
 30
0.0
  0
SPLINE
  5
AA
330
1F
100
AcDbEntity
  8
3D_PORTALAMPADE - NASCOSTA
100
AcDbSpline
210
0.0
220
0.0
230
1.0
 70
    24
 71
     2
 72
     6
 73
     3
 74
     0
 42
0.0000000001
 43
0.0000000001
 40
0.0
 40
0.0
 40
0.0
 40
17.0
 40
17.0
 40
17.0
 10
1232.099199409197
 20
363.7350864295011
 30
0.0
 10
1232.099199409197
 20
355.2350864295011
 30
0.0
 10
1232.099199409197
 20
346.7350864295011
 30
0.0
  0
SPLINE
  5
AB
330
1F
100
AcDbEntity
  8
3D_PORTALAMPADE - NASCOSTA
100
AcDbSpline
210
0.0
220
0.0
230
1.0
 70
    12
 71
     2
 72
     6
 73
     3
 74
     0
 42
0.0000000001
 43
0.0000000001
 40
0.4908738521234052
 40
0.4908738521234052
 40
0.4908738521234052
 40
15.21708941582556
 40
15.21708941582556
 40
15.21708941582556
 10
1241.653396967711
 20
407.7251444965577
 30
0.0
 41
0.9822662308921543
 10
1232.516855919829
 20
407.3174299188697
 30
0.0
 41
0.7248405502943933
 10
1232.109141342141
 20
398.1808888709876
 30
0.0
 41
0.9822662308921543
  0
SPLINE
  5
AC
330
1F
100
AcDbEntity
  8
3D_BLOCCACAVI - NASCOSTA
100
AcDbSpline
210
0.0
220
0.0
230
1.0
 70
    24
 71
     2
 72
     6
 73
     3
 74
     0
 42
0.0000000001
 43
0.0000000001
 40
0.0
 40
0.0
 40
0.0
 40
1.5
 40
1.5
 40
1.5
 10
1243.599199410018
 20
410.2350862051562
 30
0.0
 10
1243.599199410018
 20
409.4850862051562
 30
0.0
 10
1243.599199410018
 20
408.7350862051562
 30
0.0
  0
SPLINE
  5
AD
330
1F
100
AcDbEntity
  8
3D_BLOCCACAVI - NASCOSTA
100
AcDbSpline
210
0.0
220
0.0
230
1.0
 70
    12
 71
     2
 72
     8
 73
     5
 74
     0
 42
0.0000000001
 43
0.0000000001
 40
5.5
 40
5.5
 40
5.5
 40
24.6049731745428
 40
24.6049731745428
 40
26.1049731745428
 40
26.1049731745428
 40
26.1049731745428
 10
1245.599199410018
 20
437.7350862051562
 30
0.0
 41
1.0
 10
1244.599199410018
 20
428.2350862051562
 30
0.0
 41
1.0
 10
1243.599199410018
 20
418.7350862051562
 30
0.0
 41
1.0
 10
1243.599199410018
 20
417.9850862051562
 30
0.0
 41
1.0
 10
1243.599199410018
 20
417.2350862051562
 30
0.0
 41
1.0
  0
SPLINE
  5
AE
330
1F
100
AcDbEntity
  8
3D_BLOCCACAVI - NASCOSTA
100
AcDbSpline
210
0.0
220
0.0
230
1.0
 70
    24
 71
     2
 72
     6
 73
     3
 74
     0
 42
0.0000000001
 43
0.0000000001
 40
0.0
 40
0.0
 40
0.0
 40
5.0
 40
5.0
 40
5.0
 10
1238.59919941002
 20
100.7842610081338
 30
0.0
 10
1241.09919941002
 20
100.7842610081338
 30
0.0
 10
1243.59919941002
 20
100.7842610081338
 30
0.0
  0
SPLINE
  5
AF
330
1F
100
AcDbEntity
  8
3D_BLOCCACAVI - NASCOSTA
100
AcDbSpline
210
0.0
220
0.0
230
1.0
 70
    24
 71
     2
 72
     6
 73
     3
 74
     0
 42
0.0000000001
 43
0.0000000001
 40
0.0
 40
0.0
 40
0.0
 40
5.0
 40
5.0
 40
5.0
 10
1243.59919941002
 20
93.78426100813383
 30
0.0
 10
1241.09919941002
 20
93.78426100813383
 30
0.0
 10
1238.59919941002
 20
93.78426100813383
 30
0.0
  0
SPLINE
  5
B0
330
1F
100
AcDbEntity
  8
3D_WOOD - VISIBILE
100
AcDbSpline
210
0.0
220
0.0
230
1.0
 70
    15
 71
     2
 72
    12
 73
     9
 74
     0
 42
0.0000000001
 43
0.0000000001
 40
0.0
 40
0.0
 40
0.0
 40
152.8137645548666
 40
152.8137645548666
 40
305.6275291097332
 40
305.6275291097332
 40
458.4412936645999
 40
458.4412936645999
 40
611.2550582194665
 40
611.2550582194665
 40
611.2550582194665
 10
1153.818489917467
 20
97.28426100813383
 30
0.0
 41
1.0
 10
1153.818489467841
 20
194.5685250136862
 30
0.0
 41
0.7071067811865476
 10
1251.102753473393
 20
194.5685254633123
 30
0.0
 41
1.0
 10
1348.387017478946
 20
194.5685259129384
 30
0.0
 41
0.7071067811865476
 10
1348.387017928572
 20
97.28426190738604
 30
0.0
 41
1.0
 10
1348.387018378198
 20
-0.0000020981663082
 30
0.0
 41
0.7071067811865476
 10
1251.102754372646
 20
-0.0000025477924339
 30
0.0
 41
1.0
 10
1153.818490367093
 20
-0.0000029974185609
 30
0.0
 41
0.7071067811865476
 10
1153.818489917467
 20
97.2842610081338
 30
0.0
 41
1.0
  0
SPLINE
  5
B1
330
1F
100
AcDbEntity
  8
3D_PORTALAMPADE - NASCOSTA
100
AcDbSpline
210
0.0
220
0.0
230
1.0
 70
    12
 71
     2
 72
     6
 73
     3
 74
     0
 42
0.0000000001
 43
0.0000000001
 40
0.0
 40
0.0
 40
0.0
 40
0.4980090466248396
 40
0.4980090466248396
 40
0.4980090466248396
 10
1232.118092007382
 20
96.43723649984652
 30
0.0
 41
1.0
 10
1232.106986301249
 20
96.68600753694845
 30
0.0
 41
0.9999139700301811
 10
1232.102410054832
 20
96.93498429003643
 30
0.0
 41
1.0
  0
SPLINE
  5
B2
330
1F
100
AcDbEntity
  8
3D_PORTALAMPADE - NASCOSTA
100
AcDbSpline
210
0.0
220
0.0
230
1.0
 70
    12
 71
     2
 72
     8
 73
     5
 74
     0
 42
0.0000000001
 43
0.0000000001
 40
0.0
 40
0.0
 40
0.0
 40
25.66860185903623
 40
25.66860185903623
 40
51.33720371807246
 40
51.33720371807246
 40
51.33720371807246
 10
1270.099148429503
 20
97.24116248070901
 30
0.0
 41
1.0
 10
1270.06461373585
 20
82.01786243729141
 30
0.0
 41
0.7804009946032101
 10
1255.200097346687
 20
78.73210386836425
 30
0.0
 41
1.0
 10
1240.335580957523
 20
75.44634529943708
 30
0.0
 41
0.7804009946032101
 10
1233.887657697263
 20
89.23671666814124
 30
0.0
 41
1.0
  0
SPLINE
  5
B3
330
1F
100
AcDbEntity
  8
3D_PORTALAMPADE - NASCOSTA
100
AcDbSpline
210
0.0
220
0.0
230
1.0
 70
    12
 71
     2
 72
     6
 73
     3
 74
     0
 42
0.0000000001
 43
0.0000000001
 40
0.0
 40
0.0
 40
0.0
 40
4.638775057875668
 40
4.638775057875668
 40
4.638775057875668
 10
1269.535743393192
 20
101.8770909390339
 30
0.0
 41
1.0
 10
1270.0991921326
 20
99.61523794199525
 30
0.0
 41
0.9925587959214703
 10
1270.0991961669
 20
97.28426100900384
 30
0.0
 41
1.0
  0
SPLINE
  5
B4
330
1F
100
AcDbEntity
  8
3D_PORTALAMPADE - NASCOSTA
100
AcDbSpline
210
0.0
220
0.0
230
1.0
 70
    12
 71
     2
 72
     6
 73
     3
 74
     0
 42
0.0000000001
 43
0.0000000001
 40
0.0
 40
0.0
 40
0.0
 40
0.0867718677794015
 40
0.0867718677794015
 40
0.0867718677794015
 10
1232.110985759974
 20
97.95339657839635
 30
0.0
 41
1.0
 10
1232.112513773802
 20
97.99675567218178
 30
0.0
 41
0.9999973780046625
 10
1232.114240353532
 20
98.04010731301098
 30
0.0
 41
1.0
  0
SPLINE
  5
B5
330
1F
100
AcDbEntity
  8
3D_PORTALAMPADE - NASCOSTA
100
AcDbSpline
210
0.0
220
0.0
230
1.0
 70
    12
 71
     2
 72
     8
 73
     5
 74
     0
 42
0.0000000001
 43
0.0000000001
 40
0.0
 40
0.0
 40
0.0
 40
27.52574443970524
 40
27.52574443970524
 40
55.05148887941047
 40
55.05148887941047
 40
55.05148887941047
 10
1232.0991994092
 20
97.28426100813383
 30
0.0
 41
1.0
 10
1232.099197333971
 20
114.0957367323971
 30
0.0
 41
0.7489225443371208
 10
1248.785567686747
 20
116.1428714317984
 30
0.0
 41
1.0
 10
1265.471938039523
 20
118.1900061311998
 30
0.0
 41
0.7489225443371208
 10
1269.535737243113
 20
101.8770894067019
 30
0.0
 41
1.0
  0
SPLINE
  5
B6
330
1F
100
AcDbEntity
  8
3D_PORTALAMPADE - NASCOSTA
100
AcDbSpline
210
0.0
220
0.0
230
1.0
 70
    12
 71
     2
 72
     6
 73
     3
 74
     0
 42
0.0000000001
 43
0.0000000001
 40
0.0
 40
0.0
 40
0.0
 40
8.057427935991551
 40
8.057427935991551
 40
8.057427935991551
 10
1233.887660991668
 20
89.2367181967024
 30
0.0
 41
1.0
 10
1232.155243782043
 20
92.94190831310951
 30
0.0
 41
0.9776044281521153
 10
1232.100877474089
 20
97.03174296642779
 30
0.0
 41
1.0
  0
SPLINE
  5
B7
330
1F
100
AcDbEntity
  8
3D_U METALLICA - NASCOSTA
100
AcDbSpline
210
0.0
220
0.0
230
1.0
 70
    24
 71
     2
 72
     6
 73
     3
 74
     0
 42
0.0000000001
 43
0.0000000001
 40
0.0
 40
0.0
 40
0.0
 40
15.0
 40
15.0
 40
15.0
 10
1231.0991994092
 20
104.7842610081338
 30
0.0
 10
1231.0991994092
 20
97.28426100813383
 30
0.0
 10
1231.0991994092
 20
89.78426100813383
 30
0.0
  0
SPLINE
  5
B8
330
1F
100
AcDbEntity
  8
3D_U METALLICA - NASCOSTA
100
AcDbSpline
210
0.0
220
0.0
230
1.0
 70
    24
 71
     2
 72
     6
 73
     3
 74
     0
 42
0.0000000001
 43
0.0000000001
 40
0.0
 40
0.0
 40
0.0
 40
15.0
 40
15.0
 40
15.0
 10
1222.0991994092
 20
104.7842610081338
 30
0.0
 10
1222.0991994092
 20
97.28426100813383
 30
0.0
 10
1222.0991994092
 20
89.78426100813383
 30
0.0
  0
SPLINE
  5
B9
330
1F
100
AcDbEntity
  8
3D_U METALLICA - NASCOSTA
100
AcDbSpline
210
0.0
220
0.0
230
1.0
 70
    24
 71
     2
 72
     6
 73
     3
 74
     0
 42
0.0000000001
 43
0.0000000001
 40
0.0
 40
0.0
 40
0.0
 40
15.0
 40
15.0
 40
15.0
 10
1232.0991994092
 20
104.7842610081338
 30
0.0
 10
1232.0991994092
 20
97.28426100813383
 30
0.0
 10
1232.0991994092
 20
89.78426100813383
 30
0.0
  0
SPLINE
  5
BA
330
1F
100
AcDbEntity
  8
3D_U METALLICA - NASCOSTA
100
AcDbSpline
210
0.0
220
0.0
230
1.0
 70
    24
 71
     2
 72
     6
 73
     3
 74
     0
 42
0.0000000001
 43
0.0000000001
 40
0.0
 40
0.0
 40
0.0
 40
15.0
 40
15.0
 40
15.0
 10
1270.0991994092
 20
104.7842610081338
 30
0.0
 10
1270.0991994092
 20
97.28426100813383
 30
0.0
 10
1270.0991994092
 20
89.78426100813383
 30
0.0
  0
SPLINE
  5
BB
330
1F
100
AcDbEntity
  8
3D_U METALLICA - NASCOSTA
100
AcDbSpline
210
0.0
220
0.0
230
1.0
 70
    24
 71
     2
 72
     6
 73
     3
 74
     0
 42
0.0000000001
 43
0.0000000001
 40
0.0
 40
0.0
 40
0.0
 40
15.0
 40
15.0
 40
15.0
 10
1280.0991994092
 20
104.7842610081338
 30
0.0
 10
1280.0991994092
 20
97.28426100813383
 30
0.0
 10
1280.0991994092
 20
89.78426100813383
 30
0.0
  0
SPLINE
  5
BC
330
1F
100
AcDbEntity
  8
3D_U METALLICA - NASCOSTA
100
AcDbSpline
210
0.0
220
0.0
230
1.0
 70
    24
 71
     2
 72
     6
 73
     3
 74
     0
 42
0.0000000001
 43
0.0000000001
 40
0.0
 40
0.0
 40
0.0
 40
15.0
 40
15.0
 40
15.0
 10
1271.0991994092
 20
104.7842610081338
 30
0.0
 10
1271.0991994092
 20
97.28426100813383
 30
0.0
 10
1271.0991994092
 20
89.78426100813383
 30
0.0
  0
SPLINE
  5
BD
330
1F
100
AcDbEntity
  8
3D_U METALLICA - NASCOSTA
100
AcDbSpline
210
0.0
220
0.0
230
1.0
 70
    24
 71
     2
 72
     6
 73
     3
 74
     0
 42
0.0000000001
 43
0.0000000001
 40
0.0
 40
0.0
 40
0.0
 40
9.0
 40
9.0
 40
9.0
 10
1280.0991994092
 20
89.78426100813383
 30
0.0
 10
1275.5991994092
 20
89.78426100813383
 30
0.0
 10
1271.0991994092
 20
89.78426100813383
 30
0.0
  0
SPLINE
  5
BE
330
1F
100
AcDbEntity
  8
3D_U METALLICA - NASCOSTA
100
AcDbSpline
210
0.0
220
0.0
230
1.0
 70
    24
 71
     2
 72
     6
 73
     3
 74
     0
 42
0.0000000001
 43
0.0000000001
 40
0.0
 40
0.0
 40
0.0
 40
9.0
 40
9.0
 40
9.0
 10
1231.0991994092
 20
89.78426100813383
 30
0.0
 10
1226.5991994092
 20
89.78426100813383
 30
0.0
 10
1222.0991994092
 20
89.78426100813383
 30
0.0
  0
SPLINE
  5
BF
330
1F
100
AcDbEntity
  8
3D_U METALLICA - NASCOSTA
100
AcDbSpline
210
0.0
220
0.0
230
1.0
 70
    24
 71
     2
 72
     6
 73
     3
 74
     0
 42
0.0000000001
 43
0.0000000001
 40
0.0
 40
0.0
 40
0.0
 40
19.66564816945561
 40
19.66564816945561
 40
19.66564816945561
 10
1250.764847578655
 20
89.78426100813383
 30
0.0
 10
1240.932023493928
 20
89.78426100813383
 30
0.0
 10
1231.0991994092
 20
89.78426100813383
 30
0.0
  0
SPLINE
  5
C0
330
1F
100
AcDbEntity
  8
3D_U METALLICA - NASCOSTA
100
AcDbSpline
210
0.0
220
0.0
230
1.0
 70
    24
 71
     2
 72
     6
 73
     3
 74
     0
 42
0.0000000001
 43
0.0000000001
 40
0.0
 40
0.0
 40
0.0
 40
19.66564816833784
 40
19.66564816833784
 40
19.66564816833784
 10
1271.0991994092
 20
89.78426100813383
 30
0.0
 10
1261.266375325031
 20
89.78426100813383
 30
0.0
 10
1251.433551240862
 20
89.78426100813383
 30
0.0
  0
SPLINE
  5
C1
330
1F
100
AcDbEntity
  8
3D_U METALLICA - NASCOSTA
100
AcDbSpline
210
0.0
220
0.0
230
1.0
 70
    24
 71
     2
 72
     6
 73
     3
 74
     0
 42
0.0000000001
 43
0.0000000001
 40
0.0
 40
0.0
 40
0.0
 40
9.0
 40
9.0
 40
9.0
 10
1222.0991994092
 20
104.7842610081338
 30
0.0
 10
1226.5991994092
 20
104.7842610081338
 30
0.0
 10
1231.0991994092
 20
104.7842610081338
 30
0.0
  0
SPLINE
  5
C2
330
1F
100
AcDbEntity
  8
3D_U METALLICA - NASCOSTA
100
AcDbSpline
210
0.0
220
0.0
230
1.0
 70
    24
 71
     2
 72
     6
 73
     3
 74
     0
 42
0.0000000001
 43
0.0000000001
 40
0.0
 40
0.0
 40
0.0
 40
9.0
 40
9.0
 40
9.0
 10
1271.0991994092
 20
104.7842610081338
 30
0.0
 10
1275.5991994092
 20
104.7842610081338
 30
0.0
 10
1280.0991994092
 20
104.7842610081338
 30
0.0
  0
SPLINE
  5
C3
330
1F
100
AcDbEntity
  8
3D_U METALLICA - NASCOSTA
100
AcDbSpline
210
0.0
220
0.0
230
1.0
 70
    24
 71
     2
 72
     6
 73
     3
 74
     0
 42
0.0000000001
 43
0.0000000001
 40
0.0
 40
0.0
 40
0.0
 40
19.66564816833784
 40
19.66564816833784
 40
19.66564816833784
 10
1251.433551240862
 20
104.7842610081338
 30
0.0
 10
1261.266375325031
 20
104.7842610081338
 30
0.0
 10
1271.0991994092
 20
104.7842610081338
 30
0.0
  0
SPLINE
  5
C4
330
1F
100
AcDbEntity
  8
3D_U METALLICA - NASCOSTA
100
AcDbSpline
210
0.0
220
0.0
230
1.0
 70
    24
 71
     2
 72
     6
 73
     3
 74
     0
 42
0.0000000001
 43
0.0000000001
 40
0.0
 40
0.0
 40
0.0
 40
19.66564816945561
 40
19.66564816945561
 40
19.66564816945561
 10
1231.0991994092
 20
104.7842610081338
 30
0.0
 10
1240.932023493928
 20
104.7842610081338
 30
0.0
 10
1250.764847578655
 20
104.7842610081338
 30
0.0
  0
SPLINE
  5
C5
330
1F
100
AcDbEntity
  8
3D_BLOCCACAVI - NASCOSTA
100
AcDbSpline
210
0.0
220
0.0
230
1.0
 70
    24
 71
     2
 72
     6
 73
     3
 74
     0
 42
0.0000000001
 43
0.0000000001
 40
0.0
 40
0.0
 40
0.0
 40
7.0
 40
7.0
 40
7.0
 10
1238.59919941002
 20
100.7842610081338
 30
0.0
 10
1238.59919941002
 20
97.28426100813383
 30
0.0
 10
1238.59919941002
 20
93.78426100813383
 30
0.0
  0
SPLINE
  5
C6
330
1F
100
AcDbEntity
  8
3D_BLOCCACAVI - NASCOSTA
100
AcDbSpline
210
0.0
220
0.0
230
1.0
 70
    24
 71
     2
 72
     6
 73
     3
 74
     0
 42
0.0000000001
 43
0.0000000001
 40
0.0
 40
0.0
 40
0.0
 40
3.165648167288268
 40
3.165648167288268
 40
3.165648167288268
 10
1243.59919941002
 20
96.94990917542209
 30
0.0
 10
1243.59919941002
 20
95.36708509177797
 30
0.0
 10
1243.59919941002
 20
93.78426100813383
 30
0.0
  0
SPLINE
  5
C7
330
1F
100
AcDbEntity
  8
3D_BLOCCACAVI - NASCOSTA
100
AcDbSpline
210
0.0
220
0.0
230
1.0
 70
    24
 71
     2
 72
     6
 73
     3
 74
     0
 42
0.0000000001
 43
0.0000000001
 40
0.0
 40
0.0
 40
0.0
 40
3.165648167288282
 40
3.165648167288282
 40
3.165648167288282
 10
1243.59919941002
 20
100.7842610081338
 30
0.0
 10
1243.59919941002
 20
99.20143692448968
 30
0.0
 10
1243.59919941002
 20
97.61861284084554
 30
0.0
  0
SPLINE
  5
C8
330
1F
100
AcDbEntity
  8
3D_WOOD - VISIBILE
100
AcDbSpline
210
0.0
220
0.0
230
1.0
 70
    15
 71
     2
 72
    12
 73
     9
 74
     0
 42
0.0000000001
 43
0.0000000001
 40
0.0
 40
0.0
 40
0.0
 40
8.644964864226859
 40
8.644964864226859
 40
17.28992972845373
 40
17.28992972845373
 40
25.9348945926806
 40
25.9348945926806
 40
34.57985945690751
 40
34.57985945690751
 40
34.57985945690751
 10
1245.599199416157
 20
97.28426100813383
 30
0.0
 41
1.0
 10
1245.599199416157
 20
102.7878165721237
 30
0.0
 41
0.7071067811865411
 10
1251.102754980147
 20
102.7878165721236
 30
0.0
 41
1.0
 10
1256.606310544137
 20
102.7878165721237
 30
0.0
 41
0.7071067811865402
 10
1256.606310544137
 20
97.28426100813383
 30
0.0
 41
1.0
 10
1256.606310544137
 20
91.7807054441439
 30
0.0
 41
0.7071067811865348
 10
1251.102754980147
 20
91.78070544414402
 30
0.0
 41
1.0
 10
1245.599199416157
 20
91.78070544414386
 30
0.0
 41
0.7071067811865348
 10
1245.599199416157
 20
97.28426100813383
 30
0.0
 41
1.0
  0
SPLINE
  5
C9
330
1F
100
AcDbEntity
  8
3D_WOOD - VISIBILE
100
AcDbSpline
210
0.0
220
0.0
230
1.0
 70
    15
 71
     2
 72
    12
 73
     9
 74
     0
 42
0.0000000001
 43
0.0000000001
 40
0.0
 40
0.0
 40
0.0
 40
10.35822446059067
 40
10.35822446059067
 40
20.71644892118135
 40
20.71644892118135
 40
31.07467338177202
 40
31.07467338177202
 40
41.43289784236273
 40
41.43289784236273
 40
41.43289784236273
 10
1244.508504481913
 20
97.28426100813383
 30
0.0
 41
1.0
 10
1244.508504481913
 20
103.8785115063673
 30
0.0
 41
0.7071067811865551
 10
1251.102754980147
 20
103.8785115063674
 30
0.0
 41
1.0
 10
1257.69700547838
 20
103.8785115063673
 30
0.0
 41
0.7071067811865605
 10
1257.697005478381
 20
97.28426100813383
 30
0.0
 41
1.0
 10
1257.69700547838
 20
90.69001050990036
 30
0.0
 41
0.7071067811865597
 10
1251.102754980147
 20
90.69001050990025
 30
0.0
 41
1.0
 10
1244.508504481913
 20
90.6900105099003
 30
0.0
 41
0.7071067811865551
 10
1244.508504481913
 20
97.28426100813383
 30
0.0
 41
1.0
  0
SPLINE
  5
CA
330
1F
100
AcDbEntity
  8
3D_WOOD - VISIBILE
100
AcDbSpline
210
0.0
220
0.0
230
1.0
 70
    15
 71
     2
 72
    12
 73
     9
 74
     0
 42
0.0000000001
 43
0.0000000001
 40
0.0
 40
0.0
 40
0.0
 40
88.95367464706797
 40
88.95367464706797
 40
177.907349294136
 40
177.907349294136
 40
266.8610239412041
 40
266.8610239412041
 40
355.8146985882722
 40
355.8146985882722
 40
355.8146985882722
 10
1194.473086875071
 20
97.28426100813383
 30
0.0
 41
1.0
 10
1194.473086875071
 20
153.91392911321
 30
0.0
 41
0.7071067811865491
 10
1251.102754980147
 20
153.9139291132101
 30
0.0
 41
1.0
 10
1307.732423085223
 20
153.9139291132102
 30
0.0
 41
0.7071067811865476
 10
1307.732423085223
 20
97.28426100813383
 30
0.0
 41
1.0
 10
1307.732423085223
 20
40.65459290305748
 30
0.0
 41
0.7071067811865476
 10
1251.102754980147
 20
40.65459290305748
 30
0.0
 41
1.0
 10
1194.473086875071
 20
40.65459290305742
 30
0.0
 41
0.7071067811865471
 10
1194.473086875071
 20
97.28426100813383
 30
0.0
 41
1.0
  0
SPLINE
  5
CB
330
1F
100
AcDbEntity
  8
3D_WOOD - VISIBILE
100
AcDbSpline
210
0.0
220
0.0
230
1.0
 70
    15
 71
     2
 72
    12
 73
     9
 74
     0
 42
0.0000000001
 43
0.0000000001
 40
0.0
 40
0.0
 40
0.0
 40
151.621661235817
 40
151.621661235817
 40
303.243322471634
 40
303.243322471634
 40
454.864983707451
 40
454.864983707451
 40
606.486644943268
 40
606.486644943268
 40
606.486644943268
 10
1154.577407518207
 20
97.28426100813383
 30
0.0
 41
1.0
 10
1154.577407518206
 20
193.8096084700741
 30
0.0
 41
0.7071067811865479
 10
1251.102754980147
 20
193.8096084700742
 30
0.0
 41
1.0
 10
1347.628102442087
 20
193.8096084700742
 30
0.0
 41
0.7071067811865471
 10
1347.628102442087
 20
97.28426100813383
 30
0.0
 41
1.0
 10
1347.628102442087
 20
0.7589135461934527
 30
0.0
 41
0.7071067811865471
 10
1251.102754980147
 20
0.7589135461935115
 30
0.0
 41
1.0
 10
1154.577407518207
 20
0.7589135461935446
 30
0.0
 41
0.7071067811865479
 10
1154.577407518207
 20
97.28426100813383
 30
0.0
 41
1.0
  0
SPLINE
  5
CC
330
1F
100
AcDbEntity
  8
3D_WOOD - NASCOSTA
100
AcDbSpline
210
0.0
220
0.0
230
1.0
 70
    15
 71
     2
 72
    12
 73
     9
 74
     0
 42
0.0000000001
 43
0.0000000001
 40
0.0
 40
0.0
 40
0.0
 40
149.1039152024735
 40
149.1039152024735
 40
298.207830404947
 40
298.207830404947
 40
447.3117456074206
 40
447.3117456074206
 40
596.4156608098941
 40
596.4156608098941
 40
596.4156608098941
 10
1156.180254424833
 20
97.28426100813383
 30
0.0
 41
1.0
 10
1156.180254424833
 20
192.2067615634477
 30
0.0
 41
0.7071067811865471
 10
1251.102754980147
 20
192.2067615634477
 30
0.0
 41
1.0
 10
1346.025255535461
 20
192.2067615634476
 30
0.0
 41
0.7071067811865477
 10
1346.025255535461
 20
97.28426100813383
 30
0.0
 41
1.0
 10
1346.025255535461
 20
2.361760452819973
 30
0.0
 41
0.7071067811865477
 10
1251.102754980147
 20
2.361760452819937
 30
0.0
 41
1.0
 10
1156.180254424833
 20
2.361760452819992
 30
0.0
 41
0.7071067811865476
 10
1156.180254424833
 20
97.28426100813384
 30
0.0
 41
1.0
  0
SPLINE
  5
CD
330
1F
100
AcDbEntity
  8
3D_WOOD - NASCOSTA
100
AcDbSpline
210
0.0
220
0.0
230
1.0
 70
    15
 71
     2
 72
    12
 73
     9
 74
     0
 42
0.0000000001
 43
0.0000000001
 40
0.0
 40
0.0
 40
0.0
 40
56.93528725103702
 40
56.93528725103702
 40
113.8705745020741
 40
113.8705745020741
 40
170.8058617531112
 40
170.8058617531112
 40
227.7411490041483
 40
227.7411490041483
 40
227.7411490041483
 10
1214.856625370709
 20
97.28426100813383
 30
0.0
 41
1.0
 10
1214.856625370709
 20
133.5303906175719
 30
0.0
 41
0.7071067811865479
 10
1251.102754980147
 20
133.5303906175719
 30
0.0
 41
1.0
 10
1287.348884589585
 20
133.530390617572
 30
0.0
 41
0.7071067811865456
 10
1287.348884589585
 20
97.28426100813383
 30
0.0
 41
1.0
 10
1287.348884589585
 20
61.0381313986957
 30
0.0
 41
0.7071067811865466
 10
1251.102754980147
 20
61.03813139869577
 30
0.0
 41
1.0
 10
1214.856625370709
 20
61.03813139869575
 30
0.0
 41
0.7071067811865479
 10
1214.856625370709
 20
97.28426100813383
 30
0.0
 41
1.0
  0
SPLINE
  5
CE
330
1F
100
AcDbEntity
  8
3D_WOOD - NASCOSTA
100
AcDbSpline
210
0.0
220
0.0
230
1.0
 70
    15
 71
     2
 72
    12
 73
     9
 74
     0
 42
0.0000000001
 43
0.0000000001
 40
0.0
 40
0.0
 40
0.0
 40
54.97519721429309
 40
54.97519721429309
 40
109.9503944285862
 40
109.9503944285862
 40
164.9255916428793
 40
164.9255916428793
 40
219.9007888571724
 40
219.9007888571724
 40
219.9007888571724
 10
1216.104457443721
 20
97.28426100813383
 30
0.0
 41
1.0
 10
1216.104457443721
 20
132.28255854456
 30
0.0
 41
0.7071067811865474
 10
1251.102754980147
 20
132.28255854456
 30
0.0
 41
1.0
 10
1286.101052516573
 20
132.28255854456
 30
0.0
 41
0.7071067811865468
 10
1286.101052516573
 20
97.28426100813383
 30
0.0
 41
1.0
 10
1286.101052516573
 20
62.2859634717076
 30
0.0
 41
0.7071067811865469
 10
1251.102754980147
 20
62.28596347170767
 30
0.0
 41
1.0
 10
1216.104457443721
 20
62.28596347170772
 30
0.0
 41
0.7071067811865482
 10
1216.104457443721
 20
97.28426100813383
 30
0.0
 41
1.0
  0
SPLINE
  5
CF
330
1F
100
AcDbEntity
  8
3D_WOOD - NASCOSTA
100
AcDbSpline
210
0.0
220
0.0
230
1.0
 70
    15
 71
     2
 72
    12
 73
     9
 74
     0
 42
0.0000000001
 43
0.0000000001
 40
0.0
 40
0.0
 40
0.0
 40
33.76450357629417
 40
33.76450357629417
 40
67.52900715258829
 40
67.52900715258829
 40
101.2935107288824
 40
101.2935107288824
 40
135.0580143051765
 40
135.0580143051765
 40
135.0580143051765
 10
1229.607604399302
 20
97.28426100813383
 30
0.0
 41
1.0
 10
1229.607604399302
 20
118.7794115889786
 30
0.0
 41
0.7071067811865476
 10
1251.102754980147
 20
118.7794115889787
 30
0.0
 41
1.0
 10
1272.597905560991
 20
118.7794115889785
 30
0.0
 41
0.7071067811865492
 10
1272.597905560992
 20
97.28426100813383
 30
0.0
 41
1.0
 10
1272.597905560992
 20
75.7891104272891
 30
0.0
 41
0.7071067811865495
 10
1251.102754980147
 20
75.78911042728905
 30
0.0
 41
1.0
 10
1229.607604399302
 20
75.7891104272891
 30
0.0
 41
0.7071067811865482
 10
1229.607604399302
 20
97.28426100813383
 30
0.0
 41
1.0
  0
SPLINE
  5
D0
330
1F
100
AcDbEntity
  8
3D_WOOD - NASCOSTA
100
AcDbSpline
210
0.0
220
0.0
230
1.0
 70
    15
 71
     2
 72
    12
 73
     9
 74
     0
 42
0.0000000001
 43
0.0000000001
 40
0.0
 40
0.0
 40
0.0
 40
21.21133548822576
 40
21.21133548822576
 40
42.42267097645154
 40
42.42267097645154
 40
63.63400646467736
 40
63.63400646467736
 40
84.8453419529031
 40
84.8453419529031
 40
84.8453419529031
 10
1237.59919941002
 20
97.28426100813383
 30
0.0
 41
1.0
 10
1237.59919941002
 20
110.7878165782604
 30
0.0
 41
0.7071067811865531
 10
1251.102754980147
 20
110.7878165782605
 30
0.0
 41
1.0
 10
1264.606310550274
 20
110.7878165782605
 30
0.0
 41
0.7071067811865468
 10
1264.606310550274
 20
97.28426100813383
 30
0.0
 41
1.0
 10
1264.606310550274
 20
83.78070543800712
 30
0.0
 41
0.7071067811865471
 10
1251.102754980147
 20
83.7807054380071
 30
0.0
 41
1.0
 10
1237.59919941002
 20
83.78070543800723
 30
0.0
 41
0.7071067811865535
 10
1237.59919941002
 20
97.28426100813383
 30
0.0
 41
1.0
  0
SPLINE
  5
D1
330
1F
100
AcDbEntity
  8
3D_PORTALAMPADE - NASCOSTA
100
AcDbSpline
210
0.0
220
0.0
230
1.0
 70
    12
 71
     2
 72
     6
 73
     3
 74
     0
 42
0.0000000001
 43
0.0000000001
 40
0.0
 40
0.0
 40
0.0
 40
0.8473054525729579
 40
0.8473054525729579
 40
0.8473054525729579
 10
1232.118089081792
 20
96.43723636930932
 30
0.0
 41
1.0
 10
1232.0991994092
 20
96.86053805746347
 30
0.0
 41
0.9997514207805994
 10
1232.0991994092
 20
97.28426100813383
 30
0.0
 41
1.0
  0
SPLINE
  5
D2
330
1F
100
AcDbEntity
  8
3D_PORTALAMPADE - NASCOSTA
100
AcDbSpline
210
0.0
220
0.0
230
1.0
 70
    12
 71
     2
 72
     6
 73
     3
 74
     0
 42
0.0000000001
 43
0.0000000001
 40
0.0
 40
0.0
 40
0.0
 40
0.7948852337144123
 40
0.7948852337144123
 40
0.7948852337144123
 10
1270.0991994092
 20
97.28426100813383
 30
0.0
 41
1.0
 10
1270.0991994092
 20
96.88676041225747
 30
0.0
 41
0.9997812259363479
 10
1270.082574399122
 20
96.48960762961337
 30
0.0
 41
1.0
  0
SPLINE
  5
D3
330
1F
100
AcDbEntity
  8
3D_PORTALAMPADE - NASCOSTA
100
AcDbSpline
210
0.0
220
0.0
230
1.0
 70
    15
 71
     2
 72
    12
 73
     9
 74
     0
 42
0.0000000001
 43
0.0000000001
 40
0.0
 40
0.0
 40
0.0
 40
11.78097245069268
 40
11.78097245069268
 40
23.56194490138544
 40
23.56194490138544
 40
35.34291735207816
 40
35.34291735207816
 40
47.12388980277084
 40
47.12388980277084
 40
47.12388980277084
 10
1243.59919941002
 20
97.28426100813383
 30
0.0
 41
1.0
 10
1243.59919941002
 20
104.7842610079625
 30
0.0
 41
0.7071067811865569
 10
1251.099199409849
 20
104.7842610079626
 30
0.0
 41
1.0
 10
1258.599199409678
 20
104.7842610079628
 30
0.0
 41
0.7071067811865235
 10
1258.599199409678
 20
97.28426100813383
 30
0.0
 41
1.0
 10
1258.599199409678
 20
89.7842610083049
 30
0.0
 41
0.7071067811865254
 10
1251.099199409849
 20
89.78426100830514
 30
0.0
 41
1.0
 10
1243.59919941002
 20
89.78426100830514
 30
0.0
 41
0.7071067811865536
 10
1243.59919941002
 20
97.28426100813383
 30
0.0
 41
1.0
  0
SPLINE
  5
D4
330
1F
100
AcDbEntity
  8
3D_BLOCCACAVI - NASCOSTA
100
AcDbSpline
210
0.0
220
0.0
230
1.0
 70
    24
 71
     2
 72
     6
 73
     3
 74
     0
 42
0.0000000001
 43
0.0000000001
 40
0.0
 40
0.0
 40
0.0
 40
5.0
 40
5.0
 40
5.0
 10
1238.59919941002
 20
97.28426100813383
 30
0.0
 10
1241.09919941002
 20
97.28426100813383
 30
0.0
 10
1243.59919941002
 20
97.28426100813383
 30
0.0
  0
SPLINE
  5
D5
330
1F
100
AcDbEntity
  8
3D_PORTALAMPADE - NASCOSTA
100
AcDbSpline
210
0.0
220
0.0
230
1.0
 70
    24
 71
     2
 72
     6
 73
     3
 74
     0
 42
0.0000000001
 43
0.0000000001
 40
0.0
 40
0.0
 40
0.0
 40
6.490058063502829
 40
6.490058063502829
 40
6.490058063502829
 10
1238.599199405646
 20
97.28426100813381
 30
0.0
 10
1235.354170373895
 20
97.28426100813383
 30
0.0
 10
1232.109141342143
 20
97.28426100813383
 30
0.0
  0
SPLINE
  5
D6
330
1F
100
AcDbEntity
  8
3D_BLOCCACAVI - NASCOSTA
100
AcDbSpline
210
0.0
220
0.0
230
1.0
 70
    24
 71
     2
 72
     6
 73
     3
 74
     0
 42
0.0000000001
 43
0.0000000001
 40
0.0
 40
0.0
 40
0.0
 40
2.0
 40
2.0
 40
2.0
 10
1245.59919941002
 20
97.28426100813383
 30
0.0
 10
1244.59919941002
 20
97.28426100813383
 30
0.0
 10
1243.59919941002
 20
97.28426100813383
 30
0.0
  0
SPLINE
  5
D8
330
1F
100
AcDbEntity
  8
3D_BLOCCACAVI - VISIBILE
100
AcDbSpline
210
0.0
220
0.0
230
1.0
 70
    24
 71
     2
 72
     6
 73
     3
 74
     0
 42
0.0000000001
 43
0.0000000001
 40
0.0
 40
0.0
 40
0.0
 40
5.5
 40
5.5
 40
5.5
 10
1251.09919941002
 20
97.28426100813383
 30
0.0
 10
1248.34919941002
 20
97.28426100813383
 30
0.0
 10
1245.59919941002
 20
97.28426100813383
 30
0.0
  0
SPLINE
  5
D9
330
1F
100
AcDbEntity
  8
3D_BLOCCACAVI - NASCOSTA
100
AcDbSpline
210
0.0
220
0.0
230
1.0
 70
    24
 71
     2
 72
     6
 73
     3
 74
     0
 42
0.0000000001
 43
0.0000000001
 40
0.0
 40
0.0
 40
0.0
 40
3.715211422191073
 40
3.715211422191073
 40
3.715211422191073
 10
926.8301626503701
 20
120.4715640193664
 30
0.0
 10
928.6799263687537
 20
120.3010554739907
 30
0.0
 10
930.5296900871374
 20
120.1305469286151
 30
0.0
  0
SPLINE
  5
DA
330
1F
100
AcDbEntity
  8
3D_BLOCCACAVI - NASCOSTA
100
AcDbSpline
210
0.0
220
0.0
230
1.0
 70
    24
 71
     2
 72
     6
 73
     3
 74
     0
 42
0.0000000001
 43
0.0000000001
 40
0.0
 40
0.0
 40
0.0
 40
3.693859033713185
 40
3.693859033713185
 40
3.693859033713185
 10
929.7846874819489
 20
113.2139209592209
 30
0.0
 10
927.9475642497425
 20
113.4039916563937
 30
0.0
 10
926.1104410175362
 20
113.5940623535665
 30
0.0
  0
SPLINE
  5
DB
330
1F
100
AcDbEntity
  8
3D_WOOD - NASCOSTA
100
AcDbSpline
210
0.0
220
0.0
230
1.0
 70
    24
 71
     2
 72
     6
 73
     3
 74
     0
 42
0.0000000001
 43
0.0000000001
 40
0.0
 40
0.0
 40
0.0
 40
14.16838664767852
 40
14.16838664767852
 40
14.16838664767852
 10
942.1400974583216
 20
142.1550191729669
 30
0.0
 10
946.0729846447595
 20
136.2628045274977
 30
0.0
 10
950.0058718311973
 20
130.3705898820285
 30
0.0
  0
SPLINE
  5
DC
330
1F
100
AcDbEntity
  8
3D_WOOD - NASCOSTA
100
AcDbSpline
210
0.0
220
0.0
230
1.0
 70
    24
 71
     2
 72
     6
 73
     3
 74
     0
 42
0.0000000001
 43
0.0000000001
 40
0.0
 40
0.0
 40
0.0
 40
14.24686125543025
 40
14.24686125543025
 40
14.24686125543025
 10
922.6720039189954
 20
130.6417256498289
 30
0.0
 10
926.8076970701115
 20
136.4416658277688
 30
0.0
 10
930.9433902212276
 20
142.2416060057087
 30
0.0
  0
SPLINE
  5
DD
330
1F
100
AcDbEntity
  8
3D_WOOD - NASCOSTA
100
AcDbSpline
210
0.0
220
0.0
230
1.0
 70
     8
 71
     3
 72
    11
 73
     7
 74
     0
 42
0.0000000001
 43
0.0000000001
 40
0.0
 40
0.0
 40
0.0
 40
0.0
 40
0.5658515938548977
 40
0.7764331898650138
 40
0.920619710019855
 40
1.065872144653832
 40
1.065872144653832
 40
1.065872144653832
 40
1.065872144653832
 10
930.956414935792
 20
142.2197474536305
 30
0.0
 10
930.8221761736331
 20
142.3524521346097
 30
0.0
 10
930.6455028474282
 20
142.5411333585065
 30
0.0
 10
930.4282034668114
 20
142.7584552993149
 30
0.0
 10
930.2951332094865
 20
142.8595641819919
 30
0.0
 10
930.2053548851211
 20
142.8978550475592
 30
0.0
 10
930.1596184279989
 20
142.9130806439683
 30
0.0
  0
SPLINE
  5
DE
330
1F
100
AcDbEntity
  8
3D_WOOD - NASCOSTA
100
AcDbSpline
210
0.0
220
0.0
230
1.0
 70
     8
 71
     3
 72
    11
 73
     7
 74
     0
 42
0.0000000001
 43
0.0000000001
 40
0.0
 40
0.0
 40
0.0
 40
0.0
 40
0.1454719612017783
 40
0.2901815510829371
 40
0.5047844583774118
 40
1.070196318209866
 40
1.070196318209866
 40
1.070196318209866
 40
1.070196318209866
 10
942.9439179044745
 20
142.8140309171339
 30
0.0
 10
942.8981384455783
 20
142.7986708617852
 30
0.0
 10
942.8078780276103
 20
142.7611064466
 30
0.0
 10
942.6720416841918
 20
142.6609986377318
 30
0.0
 10
942.4477973051008
 20
142.4491025014146
 30
0.0
 10
942.2650689551065
 20
142.2643365182361
 30
0.0
 10
942.1271327959605
 20
142.1357800980289
 30
0.0
  0
SPLINE
  5
DF
330
1F
100
AcDbEntity
  8
3D_WOOD - VISIBILE
100
AcDbSpline
210
0.0
220
0.0
230
1.0
 70
     8
 71
     3
 72
    18
 73
    14
 74
     0
 42
0.0000000001
 43
0.0000000001
 40
0.0
 40
0.0
 40
0.0
 40
0.0
 40
1.556422457131679
 40
2.534102391373208
 40
4.005521398860458
 40
4.271315100094017
 40
4.723650853365298
 40
9.604398823265479
 40
13.61352037229184
 40
20.44623227309389
 40
41.16550733194519
 40
61.53949949531847
 40
81.56469818022968
 40
81.56469818022968
 40
81.56469818022968
 40
81.56469818022968
 10
938.6617889677908
 20
143.3288240383114
 30
0.0
 10
939.1803852024832
 20
143.3153339275867
 30
0.0
 10
940.0247679573405
 20
143.2880086808254
 30
0.0
 10
941.3581900072661
 20
143.221297798691
 30
0.0
 10
942.2611057609371
 20
143.1559835646451
 30
0.0
 10
942.9859531769467
 20
143.0701133120708
 30
0.0
 10
944.8329196943348
 20
142.8008540689487
 30
0.0
 10
947.8950854850029
 20
142.2252160722938
 30
0.0
 10
952.9658675057652
 20
140.8846878273049
 30
0.0
 10
962.8770151065552
 20
137.3198578443501
 30
0.0
 10
976.5341270720401
 20
128.572518719503
 30
0.0
 10
989.0134943714575
 20
112.0452833986331
 30
0.0
 10
992.7761458423653
 20
98.86826444673981
 30
0.0
 10
993.3651677771965
 20
92.21940406529558
 30
0.0
  0
SPLINE
  5
E0
330
1F
100
AcDbEntity
  8
3D_WOOD - VISIBILE
100
AcDbSpline
210
0.0
220
0.0
230
1.0
 70
    12
 71
     2
 72
     6
 73
     3
 74
     0
 42
0.0000000001
 43
0.0000000001
 40
0.0
 40
0.0
 40
0.0
 40
6.026933154606106
 40
6.026933154606106
 40
6.026933154606106
 10
931.326473906546
 20
143.2645789844373
 30
0.0
 41
1.0
 10
934.3375742560168
 20
143.4089167105523
 30
0.0
 41
0.9994571148865239
 10
937.351643352587
 20
143.3546380327459
 30
0.0
 41
1.0
  0
SPLINE
  5
E1
330
1F
100
AcDbEntity
  8
3D_WOOD - VISIBILE
100
AcDbSpline
210
0.0
220
0.0
230
1.0
 70
     8
 71
     3
 72
    19
 73
    15
 74
     0
 42
0.0000000001
 43
0.0000000001
 40
0.0
 40
0.0
 40
0.0
 40
0.0
 40
3.390566453031119
 40
9.223030478484398
 40
13.95714158425695
 40
18.78875624350192
 40
25.75745936198185
 40
29.98492373529512
 40
34.90508691649462
 40
37.93561204525427
 40
62.21681621305963
 40
74.01466730897262
 40
76.07172014773253
 40
77.17381628398434
 40
77.17381628398434
 40
77.17381628398434
 40
77.17381628398434
 10
879.1699381613545
 20
94.31147175253831
 30
0.0
 10
879.3120884139105
 20
95.43272411610285
 30
0.0
 10
879.7966363060117
 20
98.47011528233897
 30
0.0
 10
880.9262221485043
 20
102.9906605209324
 30
0.0
 10
882.6521028252512
 20
107.8292443408254
 30
0.0
 10
884.9561712187169
 20
112.842945771576
 30
0.0
 10
887.7054841429804
 20
117.4348513712923
 30
0.0
 10
890.9143085815014
 20
121.7505630723175
 30
0.0
 10
893.5925068152372
 20
124.8021181685584
 30
0.0
 10
901.2297683047634
 20
132.3748055319591
 30
0.0
 10
912.6086330490575
 20
139.2639832172582
 30
0.0
 10
924.9750086421022
 20
142.4363889840185
 30
0.0
 10
929.910816424686
 20
143.1480229395232
 30
0.0
 10
930.9590313695982
 20
143.249938304209
 30
0.0
 10
931.326473906546
 20
143.2645789844373
 30
0.0
  0
SPLINE
  5
E2
330
1F
100
AcDbEntity
  8
3D_WOOD - VISIBILE
100
AcDbSpline
210
0.0
220
0.0
230
1.0
 70
     8
 71
     3
 72
    19
 73
    15
 74
     0
 42
0.0000000001
 43
0.0000000001
 40
0.0
 40
0.0
 40
0.0
 40
0.0
 40
18.02199730773472
 40
25.28932768435455
 40
26.70771782477171
 40
26.86038056464541
 40
27.60346329814198
 40
28.30656640926386
 40
29.05989621444391
 40
29.71559690244396
 40
30.61594890539554
 40
30.95315019086775
 40
30.96723768783403
 40
74.8687516771775
 40
74.8687516771775
 40
74.8687516771775
 40
74.8687516771775
 10
993.3783634161196
 20
92.12346006101986
 30
0.0
 10
994.1451221059247
 20
86.16526003476262
 30
0.0
 10
995.2185723876123
 20
77.80411593869181
 30
0.0
 10
996.356159927922
 20
68.97451643770907
 30
0.0
 10
996.7295865826027
 20
66.05215779323784
 30
0.0
 10
996.831163822754
 20
65.28748098125162
 30
0.0
 10
996.9362370700301
 20
64.76427288450228
 30
0.0
 10
997.1447011663985
 20
64.06062472941987
 30
0.0
 10
997.411167616061
 20
63.40792281996652
 30
0.0
 10
997.7713684056566
 20
62.72654647741717
 30
0.0
 10
998.1329519703341
 20
62.20728612833149
 30
0.0
 10
998.4095732899802
 20
61.8942420467768
 30
0.0
 10
1008.935657610541
 20
51.56026915877084
 30
0.0
 10
1019.384658410757
 20
41.30815738268348
 30
0.0
 10
1029.828024428499
 20
31.05705815806138
 30
0.0
  0
SPLINE
  5
E3
330
1F
100
AcDbEntity
  8
3D_WOOD - VISIBILE
100
AcDbSpline
210
0.0
220
0.0
230
1.0
 70
     8
 71
     3
 72
    17
 73
    13
 74
     0
 42
0.0000000001
 43
0.0000000001
 40
0.0
 40
0.0
 40
0.0
 40
0.0
 40
41.33775541195862
 40
41.35783578228651
 40
41.45043824020746
 40
41.92720457621945
 40
42.14460686018925
 40
42.55883306175076
 40
43.67572059899221
 40
45.30590915103399
 40
45.45550464979335
 40
71.4740954320195
 40
71.4740954320195
 40
71.4740954320195
 40
71.4740954320195
 10
842.7334632817802
 20
36.90366590670901
 30
0.0
 10
852.8658254098399
 20
46.24193458243607
 30
0.0
 10
863.0033004742529
 20
55.58448007666328
 30
0.0
 10
873.1631880929266
 20
64.9483359361629
 30
0.0
 10
873.3023948055753
 20
65.08689780116225
 30
0.0
 10
873.4768126460979
 20
65.2836044834751
 30
0.0
 10
873.7005943693564
 20
65.57709624137843
 30
0.0
 10
874.0313758997246
 20
66.05843379888704
 30
0.0
 10
874.5128445458055
 20
66.9984017550631
 30
0.0
 10
874.7951926824642
 20
67.92845953888816
 30
0.0
 10
876.316564475829
 20
77.0687953230766
 30
0.0
 10
877.7347992635308
 20
85.67551142133007
 30
0.0
 10
879.1558070731841
 20
94.23114952086812
 30
0.0
  0
SPLINE
  5
E4
330
1F
100
AcDbEntity
  8
3D_WOOD - VISIBILE
100
AcDbSpline
210
0.0
220
0.0
230
1.0
 70
     8
 71
     3
 72
    33
 73
    29
 74
     0
 42
0.0000000001
 43
0.0000000001
 40
0.0
 40
0.0
 40
0.0
 40
0.0
 40
3.576568470216519
 40
6.805444121872791
 40
10.00078721359448
 40
13.44862079695008
 40
17.35684892987077
 40
22.01509880918463
 40
27.52538246626675
 40
33.94491491083721
 40
41.38416174342783
 40
49.69322030590828
 40
68.53776786681627
 40
89.6720233862369
 40
111.9849488589418
 40
134.3971004460295
 40
155.6599257407107
 40
174.7210715115713
 40
183.2153364672252
 40
190.779018325568
 40
197.3031426350827
 40
202.9887092090072
 40
207.7811277207428
 40
211.7996368583952
 40
215.3159666286068
 40
218.52987877274
 40
221.7322027027518
 40
225.2275376781294
 40
225.2275376781294
 40
225.2275376781294
 40
225.2275376781294
 10
1031.029155832778
 20
29.7447993071046
 30
0.0
 10
1031.782054469336
 20
28.82310109260298
 30
0.0
 10
1033.021965994768
 20
26.88876881989236
 30
0.0
 10
1033.779136864944
 20
23.58347321465135
 30
0.0
 10
1033.215082644685
 20
20.2751939208184
 30
0.0
 10
1031.395377089361
 20
17.21147172815067
 30
0.0
 10
1028.474735685048
 20
14.43570479071944
 30
0.0
 10
1024.506969721166
 20
11.90292721514932
 30
0.0
 10
1019.483292250118
 20
9.573408161203014
 30
0.0
 10
1013.384474726374
 20
7.436900013918993
 30
0.0
 10
1006.244902000441
 20
5.517579967985283
 30
0.0
 10
994.9462365740264
 20
3.190635301320361
 30
0.0
 10
978.9695213095351
 20
1.120124724513107
 30
0.0
 10
958.2313852731977
 20
-0.0879622229056902
 30
0.0
 10
936.2678729375073
 20
-0.0213025576630993
 30
0.0
 10
914.3038301580926
 20
1.312634688726013
 30
0.0
 10
893.5343780151879
 20
3.843690100092574
 30
0.0
 10
877.545830635534
 20
6.936898449420795
 30
0.0
 10
866.2357443759925
 20
9.978952489988751
 30
0.0
 10
859.0904620367895
 20
12.35654500237615
 30
0.0
 10
852.9933807483997
 20
14.87427334485373
 30
0.0
 10
847.971724207961
 20
17.51858967864695
 30
0.0
 10
844.0056952238054
 20
20.30198221262633
 30
0.0
 10
841.1085452743652
 20
23.24944447010865
 30
0.0
 10
839.3260177435443
 20
26.40626346076186
 30
0.0
 10
838.7911340234622
 20
29.73840135758437
 30
0.0
 10
839.5797896949945
 20
33.00810850645531
 30
0.0
 10
840.8501363568457
 20
34.88291440839879
 30
0.0
 10
841.6154529870792
 20
35.75829250731394
 30
0.0
  0
SPLINE
  5
E5
330
1F
100
AcDbEntity
  8
3D_WOOD - NASCOSTA
100
AcDbSpline
210
0.0
220
0.0
230
1.0
 70
     8
 71
     3
 72
    20
 73
    16
 74
     0
 42
0.0000000001
 43
0.0000000001
 40
0.0
 40
0.0
 40
0.0
 40
0.0
 40
0.5940850043472868
 40
1.296711333058443
 40
2.157462183545422
 40
3.173496811126739
 40
5.664514056280458
 40
8.766689321352848
 40
12.37589015994564
 40
16.42620106449818
 40
25.68421950331655
 40
35.69197922721217
 40
45.76474319270866
 40
55.13155671653871
 40
63.10080718742654
 40
63.10080718742654
 40
63.10080718742654
 40
63.10080718742654
 10
968.8725625343502
 20
19.1404941599522
 30
0.0
 10
968.87928205855
 20
19.33875743110703
 30
0.0
 10
968.792535186821
 20
19.7701358227996
 30
0.0
 10
968.427425371753
 20
20.39682565877159
 30
0.0
 10
967.8488501372648
 20
21.03650821905118
 30
0.0
 10
966.7156241713786
 20
21.95705340002429
 30
0.0
 10
964.7965879977851
 20
23.05371083554972
 30
0.0
 10
961.9606327665422
 20
24.23160469964692
 30
0.0
 10
958.5383719658346
 20
25.31543333550261
 30
0.0
 10
953.0570024737824
 20
26.65319234334123
 30
0.0
 10
945.3737119188262
 20
27.87831432902222
 30
0.0
 10
935.6186119440599
 20
28.65021788609415
 30
0.0
 10
925.7960534840099
 20
28.70878149533473
 30
0.0
 10
916.6751090671889
 20
28.06145223564828
 30
0.0
 10
910.9672323910263
 20
27.10436250854255
 30
0.0
 10
908.3892378540602
 20
26.45922473949525
 30
0.0
  0
SPLINE
  5
E6
330
1F
100
AcDbEntity
  8
3D_WOOD - NASCOSTA
100
AcDbSpline
210
0.0
220
0.0
230
1.0
 70
    24
 71
     2
 72
     6
 73
     3
 74
     0
 42
0.0000000001
 43
0.0000000001
 40
0.0
 40
0.0
 40
0.0
 40
47.46867797293018
 40
47.46867797293018
 40
47.46867797293018
 10
970.2548715181445
 20
66.5890411384537
 30
0.0
 10
969.5637170262478
 20
42.8647676492029
 30
0.0
 10
968.872562534351
 20
19.14049415995211
 30
0.0
  0
SPLINE
  5
E7
330
1F
100
AcDbEntity
  8
3D_WOOD - NASCOSTA
100
AcDbSpline
210
0.0
220
0.0
230
1.0
 70
    24
 71
     2
 72
     6
 73
     3
 74
     0
 42
0.0000000001
 43
0.0000000001
 40
0.0
 40
0.0
 40
0.0
 40
46.77400586075418
 40
46.77400586075418
 40
46.77400586075418
 10
899.8435978425424
 20
21.50421529197817
 30
0.0
 10
900.1006999012072
 20
44.88980497017309
 30
0.0
 10
900.3578019598722
 20
68.275394648368
 30
0.0
  0
SPLINE
  5
E8
330
1F
100
AcDbEntity
  8
3D_WOOD - NASCOSTA
100
AcDbSpline
210
0.0
220
0.0
230
1.0
 70
     8
 71
     3
 72
    14
 73
    10
 74
     0
 42
0.0000000001
 43
0.0000000001
 40
0.0
 40
0.0
 40
0.0
 40
0.0
 40
1.92609797078511
 40
3.683521634347833
 40
6.641476948353622
 40
7.838065873230106
 40
8.838191638130402
 40
9.650358048622744
 40
10.31643357291534
 40
10.31643357291534
 40
10.31643357291534
 40
10.31643357291534
 10
908.3892378540602
 20
26.45922473949524
 30
0.0
 10
907.7679622658783
 20
26.30091501735733
 30
0.0
 10
906.5801164767485
 20
25.97900815216558
 30
0.0
 10
904.4837324564758
 20
25.2747530089769
 30
0.0
 10
902.6672580827676
 20
24.49072019752272
 30
0.0
 10
901.2199234946559
 20
23.5565591682376
 30
0.0
 10
900.4683371458425
 20
22.88741537893955
 30
0.0
 10
899.9788725034618
 20
22.21203148523675
 30
0.0
 10
899.8445015568219
 20
21.72693782413346
 30
0.0
 10
899.8435978425425
 20
21.50421529197814
 30
0.0
  0
SPLINE
  5
E9
330
1F
100
AcDbEntity
  8
3D_WOOD - NASCOSTA
100
AcDbSpline
210
0.0
220
0.0
230
1.0
 70
    24
 71
     2
 72
     6
 73
     3
 74
     0
 42
0.0000000001
 43
0.0000000001
 40
0.0
 40
0.0
 40
0.0
 40
44.47421367607683
 40
44.47421367607683
 40
44.47421367607683
 10
957.7266643137268
 20
111.6510691659856
 30
0.0
 10
957.1597599241704
 20
89.42118972547948
 30
0.0
 10
956.592855534614
 20
67.19131028497337
 30
0.0
  0
SPLINE
  5
EA
330
1F
100
AcDbEntity
  8
3D_WOOD - NASCOSTA
100
AcDbSpline
210
0.0
220
0.0
230
1.0
 70
    24
 71
     2
 72
     6
 73
     3
 74
     0
 42
0.0000000001
 43
0.0000000001
 40
0.0
 40
0.0
 40
0.0
 40
44.06161013411885
 40
44.06161013411885
 40
44.06161013411885
 10
913.6984505750181
 20
68.21651791768089
 30
0.0
 10
914.0186444253511
 20
90.24499602673282
 30
0.0
 10
914.3388382756842
 20
112.2734741357848
 30
0.0
  0
SPLINE
  5
EB
330
1F
100
AcDbEntity
  8
3D_WOOD - NASCOSTA
100
AcDbSpline
210
0.0
220
0.0
230
1.0
 70
    24
 71
     2
 72
     6
 73
     3
 74
     0
 42
0.0000000001
 43
0.0000000001
 40
0.0
 40
0.0
 40
0.0
 40
18.42477395368363
 40
18.42477395368363
 40
18.42477395368363
 10
950.0293990268674
 20
130.3059530250689
 30
0.0
 10
949.8127731765953
 20
121.096113338512
 30
0.0
 10
949.5961473263231
 20
111.8862736519551
 30
0.0
  0
SPLINE
  5
EC
330
1F
100
AcDbEntity
  8
3D_WOOD - NASCOSTA
100
AcDbSpline
210
0.0
220
0.0
230
1.0
 70
    24
 71
     2
 72
     6
 73
     3
 74
     0
 42
0.0000000001
 43
0.0000000001
 40
0.0
 40
0.0
 40
0.0
 40
18.29882818209232
 40
18.29882818209232
 40
18.29882818209232
 10
922.3497159333502
 20
112.2734629910027
 30
0.0
 10
922.5005211988246
 20
121.4216341733396
 30
0.0
 10
922.651326464299
 20
130.5698053556765
 30
0.0
  0
SPLINE
  5
ED
330
1F
100
AcDbEntity
  8
3D_PORTALAMPADE - NASCOSTA
100
AcDbSpline
210
0.0
220
0.0
230
1.0
 70
     8
 71
     3
 72
    17
 73
    13
 74
     0
 42
0.0000000001
 43
0.0000000001
 40
0.0
 40
0.0
 40
0.0
 40
0.0
 40
2.655645449133305
 40
5.750551835503184
 40
12.24504526170442
 40
14.90091110259486
 40
17.11171649290571
 40
20.53653038091052
 40
23.71124489320639
 40
26.82518792165713
 40
29.92971365426625
 40
33.02297166243245
 40
33.02297166243245
 40
33.02297166243245
 40
33.02297166243245
 10
927.9913131855851
 20
110.8865681979694
 30
0.0
 10
928.8716332832962
 20
110.9800371278042
 30
0.0
 10
930.7840199203556
 20
111.1192389883494
 30
0.0
 10
934.865256947404
 20
111.2259677628229
 30
0.0
 10
938.947709755306
 20
111.127348798042
 30
0.0
 10
942.724156108415
 20
110.8141923777724
 30
0.0
 10
945.4610708626377
 20
110.4450329028916
 30
0.0
 10
948.3285559035899
 20
109.7284392481898
 30
0.0
 10
951.1634281581696
 20
108.0867826640975
 30
0.0
 10
953.3075747793737
 20
105.7571951725772
 30
0.0
 10
954.6407694939695
 20
102.9125069297644
 30
0.0
 10
954.9095106490985
 20
100.8392597137521
 30
0.0
 10
954.8836910857495
 20
99.80852949701688
 30
0.0
  0
SPLINE
  5
EE
330
1F
100
AcDbEntity
  8
3D_PORTALAMPADE - NASCOSTA
100
AcDbSpline
210
0.0
220
0.0
230
1.0
 70
     8
 71
     3
 72
    13
 73
     9
 74
     0
 42
0.0000000001
 43
0.0000000001
 40
0.0
 40
0.0
 40
0.0
 40
0.0
 40
2.0255928155037
 40
4.050634365367697
 40
8.127400651969683
 40
12.15131638672459
 40
14.26542609312364
 40
16.78261116644474
 40
16.78261116644474
 40
16.78261116644474
 40
16.78261116644474
 10
916.6573026684068
 20
100.4516640235033
 30
0.0
 10
916.6671254283399
 20
101.1265627988485
 30
0.0
 10
916.8250273380426
 20
102.4751561780763
 30
0.0
 10
917.6723566307661
 20
105.0612272220651
 30
0.0
 10
919.6697277954559
 20
107.8700226110731
 30
0.0
 10
922.6094460378293
 20
109.7040316830366
 30
0.0
 10
925.3821624102522
 20
110.532443717663
 30
0.0
 10
926.9114441303013
 20
110.7632838844563
 30
0.0
 10
927.7447923698655
 20
110.8591899310011
 30
0.0
  0
SPLINE
  5
EF
330
1F
100
AcDbEntity
  8
3D_PORTALAMPADE - NASCOSTA
100
AcDbSpline
210
0.0
220
0.0
230
1.0
 70
    24
 71
     2
 72
     6
 73
     3
 74
     0
 42
0.0000000001
 43
0.0000000001
 40
0.0
 40
0.0
 40
0.0
 40
50.0537613191586
 40
50.0537613191586
 40
50.0537613191586
 10
954.8836910451207
 20
99.80852786953072
 30
0.0
 10
954.2591104347285
 20
74.78944206269225
 30
0.0
 10
953.6345298243364
 20
49.77035625585377
 30
0.0
  0
SPLINE
  5
F0
330
1F
100
AcDbEntity
  8
3D_PORTALAMPADE - NASCOSTA
100
AcDbSpline
210
0.0
220
0.0
230
1.0
 70
    24
 71
     2
 72
     6
 73
     3
 74
     0
 42
0.0000000001
 43
0.0000000001
 40
0.0
 40
0.0
 40
0.0
 40
49.64195464279398
 40
49.64195464279398
 40
49.64195464279398
 10
915.909723148059
 20
50.81533664352484
 30
0.0
 10
916.2835128922948
 20
75.63349927528321
 30
0.0
 10
916.6573026365305
 20
100.4516619070416
 30
0.0
  0
SPLINE
  5
F1
330
1F
100
AcDbEntity
  8
3D_PORTALAMPADE - NASCOSTA
100
AcDbSpline
210
0.0
220
0.0
230
1.0
 70
    24
 71
     2
 72
     6
 73
     3
 74
     0
 42
0.0000000001
 43
0.0000000001
 40
0.0
 40
0.0
 40
0.0
 40
9.990681766854152
 40
9.990681766854152
 40
9.990681766854152
 10
943.705053784914
 20
120.9876151063178
 30
0.0
 10
943.5954397572788
 20
115.9934770118531
 30
0.0
 10
943.4858257296436
 20
110.9993389173884
 30
0.0
  0
SPLINE
  5
F2
330
1F
100
AcDbEntity
  8
3D_PORTALAMPADE - NASCOSTA
100
AcDbSpline
210
0.0
220
0.0
230
1.0
 70
    24
 71
     2
 72
     6
 73
     3
 74
     0
 42
0.0000000001
 43
0.0000000001
 40
0.0
 40
0.0
 40
0.0
 40
9.940761289645197
 40
9.940761289645197
 40
9.940761289645197
 10
928.3596697018637
 20
111.217601341688
 30
0.0
 10
928.4493268100439
 20
116.1871732907979
 30
0.0
 10
928.538983918224
 20
121.1567452399078
 30
0.0
  0
SPLINE
  5
F3
330
1F
100
AcDbEntity
  8
3D_PORTALAMPADE - NASCOSTA
100
AcDbSpline
210
0.0
220
0.0
230
1.0
 70
    24
 71
     2
 72
     6
 73
     3
 74
     0
 42
0.0000000001
 43
0.0000000001
 40
0.0
 40
0.0
 40
0.0
 40
19.20108960965178
 40
19.20108960965178
 40
19.20108960965178
 10
942.0867971516136
 20
140.1282346048517
 30
0.0
 10
942.8958260832679
 20
130.5618385887327
 30
0.0
 10
943.7048550149223
 20
120.9954425726138
 30
0.0
  0
SPLINE
  5
F4
330
1F
100
AcDbEntity
  8
3D_PORTALAMPADE - NASCOSTA
100
AcDbSpline
210
0.0
220
0.0
230
1.0
 70
    24
 71
     2
 72
     6
 73
     3
 74
     0
 42
0.0000000001
 43
0.0000000001
 40
0.0
 40
0.0
 40
0.0
 40
19.17637680499844
 40
19.17637680499844
 40
19.17637680499844
 10
928.5398074310743
 20
121.1813572461747
 30
0.0
 10
929.7241575816633
 20
130.6961179663725
 30
0.0
 10
930.9085077322525
 20
140.2108786865704
 30
0.0
  0
SPLINE
  5
F5
330
1F
100
AcDbEntity
  8
3D_U METALLICA - NASCOSTA
100
AcDbSpline
210
0.0
220
0.0
230
1.0
 70
    24
 71
     2
 72
     6
 73
     3
 74
     0
 42
0.0000000001
 43
0.0000000001
 40
0.0
 40
0.0
 40
0.0
 40
9.797247473189996
 40
9.797247473189996
 40
9.797247473189996
 10
925.662106620154
 20
113.2466098589865
 30
0.0
 10
920.7929868253481
 20
112.7097794047821
 30
0.0
 10
915.9238670305422
 20
112.1729489505778
 30
0.0
  0
SPLINE
  5
F6
330
1F
100
AcDbEntity
  8
3D_U METALLICA - NASCOSTA
100
AcDbSpline
210
0.0
220
0.0
230
1.0
 70
    24
 71
     2
 72
     6
 73
     3
 74
     0
 42
0.0000000001
 43
0.0000000001
 40
0.0
 40
0.0
 40
0.0
 40
9.80195896960419
 40
9.80195896960419
 40
9.80195896960419
 10
924.9354247819267
 20
71.32796507977376
 30
0.0
 10
920.1138322411705
 20
70.44941782357435
 30
0.0
 10
915.2922397004144
 20
69.57087056737493
 30
0.0
  0
SPLINE
  5
F7
330
1F
100
AcDbEntity
  8
3D_U METALLICA - NASCOSTA
100
AcDbSpline
210
0.0
220
0.0
230
1.0
 70
    24
 71
     2
 72
     6
 73
     3
 74
     0
 42
0.0000000001
 43
0.0000000001
 40
0.0
 40
0.0
 40
0.0
 40
9.79825173838907
 40
9.79825173838907
 40
9.79825173838907
 10
918.4652283485959
 20
72.443848168269
 30
0.0
 10
913.6421736470983
 20
71.58386117501126
 30
0.0
 10
908.8191189456006
 20
70.72387418175353
 30
0.0
  0
SPLINE
  5
F8
330
1F
100
AcDbEntity
  8
3D_U METALLICA - NASCOSTA
100
AcDbSpline
210
0.0
220
0.0
230
1.0
 70
    24
 71
     2
 72
     6
 73
     3
 74
     0
 42
0.0000000001
 43
0.0000000001
 40
0.0
 40
0.0
 40
0.0
 40
9.798761560853059
 40
9.798761560853059
 40
9.798761560853059
 10
918.4506413580965
 20
71.51134064086244
 30
0.0
 10
913.6286594220052
 20
70.64391788371239
 30
0.0
 10
908.8066774859138
 20
69.77649512656232
 30
0.0
  0
SPLINE
  5
F9
330
1F
100
AcDbEntity
  8
3D_U METALLICA - NASCOSTA
100
AcDbSpline
210
0.0
220
0.0
230
1.0
 70
    24
 71
     2
 72
     6
 73
     3
 74
     0
 42
0.0000000001
 43
0.0000000001
 40
0.0
 40
0.0
 40
0.0
 40
9.802892991721404
 40
9.802892991721404
 40
9.802892991721404
 10
925.6463176249051
 20
70.25926783767333
 30
0.0
 10
920.8260293000797
 20
69.3710121214873
 30
0.0
 10
916.0057409752543
 20
68.48275640530126
 30
0.0
  0
SPLINE
  5
FA
330
1F
100
AcDbEntity
  8
3D_U METALLICA - NASCOSTA
100
AcDbSpline
210
0.0
220
0.0
230
1.0
 70
    24
 71
     2
 72
     6
 73
     3
 74
     0
 42
0.0000000001
 43
0.0000000001
 40
0.0
 40
0.0
 40
0.0
 40
9.796621207695196
 40
9.796621207695196
 40
9.796621207695196
 10
926.3814711424668
 20
112.2059535888493
 30
0.0
 10
921.5136953704816
 20
111.659871355628
 30
0.0
 10
916.6459195984964
 20
111.1137891224068
 30
0.0
  0
SPLINE
  5
FB
330
1F
100
AcDbEntity
  8
3D_U METALLICA - NASCOSTA
100
AcDbSpline
210
0.0
220
0.0
230
1.0
 70
    24
 71
     2
 72
     6
 73
     3
 74
     0
 42
0.0000000001
 43
0.0000000001
 40
0.0
 40
0.0
 40
0.0
 40
9.765217826094206
 40
9.765217826094206
 40
9.765217826094206
 10
955.7194079600101
 20
109.1058155307848
 30
0.0
 10
950.8737851456658
 20
108.5059744360995
 30
0.0
 10
946.0281623313216
 20
107.9061333414143
 30
0.0
  0
SPLINE
  5
FC
330
1F
100
AcDbEntity
  8
3D_U METALLICA - NASCOSTA
100
AcDbSpline
210
0.0
220
0.0
230
1.0
 70
    24
 71
     2
 72
     6
 73
     3
 74
     0
 42
0.0000000001
 43
0.0000000001
 40
0.0
 40
0.0
 40
0.0
 40
9.794563892243596
 40
9.794563892243596
 40
9.794563892243596
 10
954.6169474791609
 20
65.21827705559913
 30
0.0
 10
949.817637459275
 20
64.2436008053328
 30
0.0
 10
945.0183274393892
 20
63.26892455506648
 30
0.0
  0
SPLINE
  5
FD
330
1F
100
AcDbEntity
  8
3D_U METALLICA - NASCOSTA
100
AcDbSpline
210
0.0
220
0.0
230
1.0
 70
    24
 71
     2
 72
     6
 73
     3
 74
     0
 42
0.0000000001
 43
0.0000000001
 40
0.0
 40
0.0
 40
0.0
 40
9.785178088249753
 40
9.785178088249753
 40
9.785178088249753
 10
962.7001437039853
 20
63.81177267982176
 30
0.0
 10
957.9107394317616
 20
62.8122556605091
 30
0.0
 10
953.1213351595378
 20
61.81273864119644
 30
0.0
  0
SPLINE
  5
FE
330
1F
100
AcDbEntity
  8
3D_U METALLICA - NASCOSTA
100
AcDbSpline
210
0.0
220
0.0
230
1.0
 70
    24
 71
     2
 72
     6
 73
     3
 74
     0
 42
0.0000000001
 43
0.0000000001
 40
0.0
 40
0.0
 40
0.0
 40
9.783728272061447
 40
9.783728272061447
 40
9.783728272061447
 10
962.7273428506367
 20
64.81017807141822
 30
0.0
 10
957.9369061054547
 20
63.81919345206524
 30
0.0
 10
953.1464693602727
 20
62.82820883271225
 30
0.0
  0
SPLINE
  5
FF
330
1F
100
AcDbEntity
  8
3D_U METALLICA - NASCOSTA
100
AcDbSpline
210
0.0
220
0.0
230
1.0
 70
    24
 71
     2
 72
     6
 73
     3
 74
     0
 42
0.0000000001
 43
0.0000000001
 40
0.0
 40
0.0
 40
0.0
 40
9.792497657856794
 40
9.792497657856794
 40
9.792497657856794
 10
955.4412526860992
 20
66.06677435557049
 30
0.0
 10
950.6418012133422
 20
65.09800288848811
 30
0.0
 10
945.8423497405852
 20
64.12923142140572
 30
0.0
  0
SPLINE
  5
100
330
1F
100
AcDbEntity
  8
3D_U METALLICA - NASCOSTA
100
AcDbSpline
210
0.0
220
0.0
230
1.0
 70
    24
 71
     2
 72
     6
 73
     3
 74
     0
 42
0.0000000001
 43
0.0000000001
 40
0.0
 40
0.0
 40
0.0
 40
9.76368421279866
 40
9.76368421279866
 40
9.76368421279866
 10
956.5548541486079
 20
110.0306306382174
 30
0.0
 10
951.7091149317337
 20
109.4380145788152
 30
0.0
 10
946.8633757148596
 20
108.8453985194131
 30
0.0
  0
SPLINE
  5
101
330
1F
100
AcDbEntity
  8
3D_U METALLICA - NASCOSTA
100
AcDbSpline
210
0.0
220
0.0
230
1.0
 70
    24
 71
     2
 72
     6
 73
     3
 74
     0
 42
0.0000000001
 43
0.0000000001
 40
0.0
 40
0.0
 40
0.0
 40
44.72782237016529
 40
44.72782237016529
 40
44.72782237016529
 10
945.8423497405852
 20
64.12923142140572
 30
0.0
 10
946.3528627277224
 20
86.4873149704094
 30
0.0
 10
946.8633757148596
 20
108.8453985194131
 30
0.0
  0
SPLINE
  5
102
330
1F
100
AcDbEntity
  8
3D_U METALLICA - NASCOSTA
100
AcDbSpline
210
0.0
220
0.0
230
1.0
 70
    24
 71
     2
 72
     6
 73
     3
 74
     0
 42
0.0000000001
 43
0.0000000001
 40
0.0
 40
0.0
 40
0.0
 40
7.419085064547724
 40
7.419085064547724
 40
7.419085064547724
 10
953.1464693602727
 20
62.82820883271225
 30
0.0
 10
949.4944095504289
 20
63.47872012705898
 30
0.0
 10
945.8423497405852
 20
64.12923142140572
 30
0.0
  0
SPLINE
  5
103
330
1F
100
AcDbEntity
  8
3D_U METALLICA - NASCOSTA
100
AcDbSpline
210
0.0
220
0.0
230
1.0
 70
    24
 71
     2
 72
     6
 73
     3
 74
     0
 42
0.0000000001
 43
0.0000000001
 40
0.0
 40
0.0
 40
0.0
 40
1.015781195880165
 40
1.015781195880165
 40
1.015781195880165
 10
953.1213351595378
 20
61.81273864119644
 30
0.0
 10
953.1339022599052
 20
62.32047373695434
 30
0.0
 10
953.1464693602727
 20
62.82820883271225
 30
0.0
  0
SPLINE
  5
104
330
1F
100
AcDbEntity
  8
3D_U METALLICA - NASCOSTA
100
AcDbSpline
210
0.0
220
0.0
230
1.0
 70
    24
 71
     2
 72
     6
 73
     3
 74
     0
 42
0.0000000001
 43
0.0000000001
 40
0.0
 40
0.0
 40
0.0
 40
8.23281309933264
 40
8.23281309933264
 40
8.23281309933264
 10
945.0183274393892
 20
63.26892455506648
 30
0.0
 10
949.0698312994634
 20
62.54083159813146
 30
0.0
 10
953.1213351595378
 20
61.81273864119644
 30
0.0
  0
SPLINE
  5
105
330
1F
100
AcDbEntity
  8
3D_U METALLICA - NASCOSTA
100
AcDbSpline
210
0.0
220
0.0
230
1.0
 70
    24
 71
     2
 72
     6
 73
     3
 74
     0
 42
0.0000000001
 43
0.0000000001
 40
0.0
 40
0.0
 40
0.0
 40
44.64863015530229
 40
44.64863015530229
 40
44.64863015530229
 10
946.0281623313216
 20
107.9061333414143
 30
0.0
 10
945.5232448853553
 20
85.58752894824036
 30
0.0
 10
945.0183274393892
 20
63.26892455506648
 30
0.0
  0
SPLINE
  5
106
330
1F
100
AcDbEntity
  8
3D_U METALLICA - NASCOSTA
100
AcDbSpline
210
0.0
220
0.0
230
1.0
 70
    24
 71
     2
 72
     6
 73
     3
 74
     0
 42
0.0000000001
 43
0.0000000001
 40
0.0
 40
0.0
 40
0.0
 40
20.5414374961606
 40
20.5414374961606
 40
20.5414374961606
 10
925.6080485084826
 20
110.1353946251072
 30
0.0
 10
935.8181054199022
 20
109.0207639832607
 30
0.0
 10
946.0281623313216
 20
107.9061333414143
 30
0.0
  0
SPLINE
  5
107
330
1F
100
AcDbEntity
  8
3D_U METALLICA - NASCOSTA
100
AcDbSpline
210
0.0
220
0.0
230
1.0
 70
    24
 71
     2
 72
     6
 73
     3
 74
     0
 42
0.0000000001
 43
0.0000000001
 40
0.0
 40
0.0
 40
0.0
 40
8.954844970563508
 40
8.954844970563508
 40
8.954844970563508
 10
916.6459195984964
 20
111.1137891224068
 30
0.0
 10
921.0968971310806
 20
110.6278764593305
 30
0.0
 10
925.5478746636646
 20
110.1419637962542
 30
0.0
  0
SPLINE
  5
108
330
1F
100
AcDbEntity
  8
3D_U METALLICA - NASCOSTA
100
AcDbSpline
210
0.0
220
0.0
230
1.0
 70
    24
 71
     2
 72
     6
 73
     3
 74
     0
 42
0.0000000001
 43
0.0000000001
 40
0.0
 40
0.0
 40
0.0
 40
42.63583914028874
 40
42.63583914028874
 40
42.63583914028874
 10
916.0057409752543
 20
68.48275640530126
 30
0.0
 10
916.3258302868753
 20
89.79827276385402
 30
0.0
 10
916.6459195984964
 20
111.1137891224068
 30
0.0
  0
SPLINE
  5
109
330
1F
100
AcDbEntity
  8
3D_U METALLICA - NASCOSTA
100
AcDbSpline
210
0.0
220
0.0
230
1.0
 70
    24
 71
     2
 72
     6
 73
     3
 74
     0
 42
0.0000000001
 43
0.0000000001
 40
0.0
 40
0.0
 40
0.0
 40
7.314388217919888
 40
7.314388217919888
 40
7.314388217919888
 10
908.8066774859138
 20
69.77649512656232
 30
0.0
 10
912.4062092305841
 20
69.12962576593179
 30
0.0
 10
916.0057409752543
 20
68.48275640530126
 30
0.0
  0
SPLINE
  5
10A
330
1F
100
AcDbEntity
  8
3D_U METALLICA - NASCOSTA
100
AcDbSpline
210
0.0
220
0.0
230
1.0
 70
    24
 71
     2
 72
     6
 73
     3
 74
     0
 42
0.0000000001
 43
0.0000000001
 40
0.0
 40
0.0
 40
0.0
 40
0.9474607454317672
 40
0.9474607454317672
 40
0.9474607454317672
 10
908.8191189456006
 20
70.72387418175353
 30
0.0
 10
908.8128982157573
 20
70.25018465415792
 30
0.0
 10
908.8066774859138
 20
69.77649512656232
 30
0.0
  0
SPLINE
  5
10B
330
1F
100
AcDbEntity
  8
3D_U METALLICA - NASCOSTA
100
AcDbSpline
210
0.0
220
0.0
230
1.0
 70
    24
 71
     2
 72
     6
 73
     3
 74
     0
 42
0.0000000001
 43
0.0000000001
 40
0.0
 40
0.0
 40
0.0
 40
6.575006436587786
 40
6.575006436587786
 40
6.575006436587786
 10
915.2922397004144
 20
69.57087056737493
 30
0.0
 10
912.0556793230076
 20
70.14737237456423
 30
0.0
 10
908.8191189456006
 20
70.72387418175353
 30
0.0
  0
SPLINE
  5
10C
330
1F
100
AcDbEntity
  8
3D_U METALLICA - NASCOSTA
100
AcDbSpline
210
0.0
220
0.0
230
1.0
 70
    24
 71
     2
 72
     6
 73
     3
 74
     0
 42
0.0000000001
 43
0.0000000001
 40
0.0
 40
0.0
 40
0.0
 40
42.60676044541199
 40
42.60676044541199
 40
42.60676044541199
 10
915.9238670305422
 20
112.1729489505778
 30
0.0
 10
915.6080533654783
 20
90.87190975897636
 30
0.0
 10
915.2922397004144
 20
69.57087056737493
 30
0.0
  0
SPLINE
  5
10D
330
1F
100
AcDbEntity
  8
3D_U METALLICA - NASCOSTA
100
AcDbSpline
210
0.0
220
0.0
230
1.0
 70
    24
 71
     2
 72
     6
 73
     3
 74
     0
 42
0.0000000001
 43
0.0000000001
 40
0.0
 40
0.0
 40
0.0
 40
31.11793356730004
 40
31.11793356730004
 40
31.11793356730004
 10
946.8633757148596
 20
108.8453985194131
 30
0.0
 10
931.3936213727009
 20
110.5091737349954
 30
0.0
 10
915.9238670305422
 20
112.1729489505778
 30
0.0
  0
SPLINE
  5
10E
330
1F
100
AcDbEntity
  8
3D_U METALLICA - NASCOSTA
100
AcDbSpline
210
0.0
220
0.0
230
1.0
 70
    24
 71
     2
 72
     6
 73
     3
 74
     0
 42
0.0000000001
 43
0.0000000001
 40
0.0
 40
0.0
 40
0.0
 40
41.92494301272008
 40
41.92494301272008
 40
41.92494301272008
 10
924.9354247819267
 20
71.32796507977376
 30
0.0
 10
925.2987657010403
 20
92.28728746938012
 30
0.0
 10
925.662106620154
 20
113.2466098589865
 30
0.0
  0
SPLINE
  5
10F
330
1F
100
AcDbEntity
  8
3D_U METALLICA - NASCOSTA
100
AcDbSpline
210
0.0
220
0.0
230
1.0
 70
    24
 71
     2
 72
     6
 73
     3
 74
     0
 42
0.0000000001
 43
0.0000000001
 40
0.0
 40
0.0
 40
0.0
 40
6.565716788978646
 40
6.565716788978646
 40
6.565716788978646
 10
918.4652283485959
 20
72.443848168269
 30
0.0
 10
921.7003265652613
 20
71.88590662402137
 30
0.0
 10
924.9354247819267
 20
71.32796507977376
 30
0.0
  0
SPLINE
  5
110
330
1F
100
AcDbEntity
  8
3D_U METALLICA - NASCOSTA
100
AcDbSpline
210
0.0
220
0.0
230
1.0
 70
    24
 71
     2
 72
     6
 73
     3
 74
     0
 42
0.0000000001
 43
0.0000000001
 40
0.0
 40
0.0
 40
0.0
 40
0.9326216108163702
 40
0.9326216108163702
 40
0.9326216108163702
 10
918.4506413580965
 20
71.51134064086244
 30
0.0
 10
918.4579348533462
 20
71.97759440456572
 30
0.0
 10
918.4652283485959
 20
72.443848168269
 30
0.0
  0
SPLINE
  5
111
330
1F
100
AcDbEntity
  8
3D_U METALLICA - NASCOSTA
100
AcDbSpline
210
0.0
220
0.0
230
1.0
 70
    24
 71
     2
 72
     6
 73
     3
 74
     0
 42
0.0000000001
 43
0.0000000001
 40
0.0
 40
0.0
 40
0.0
 40
7.303796495056419
 40
7.303796495056419
 40
7.303796495056419
 10
925.6463176249051
 20
70.25926783767333
 30
0.0
 10
922.0484794915008
 20
70.8853042392679
 30
0.0
 10
918.4506413580965
 20
71.51134064086244
 30
0.0
  0
SPLINE
  5
112
330
1F
100
AcDbEntity
  8
3D_U METALLICA - NASCOSTA
100
AcDbSpline
210
0.0
220
0.0
230
1.0
 70
    24
 71
     2
 72
     6
 73
     3
 74
     0
 42
0.0000000001
 43
0.0000000001
 40
0.0
 40
0.0
 40
0.0
 40
41.95312737093971
 40
41.95312737093971
 40
41.95312737093971
 10
926.3814711424668
 20
112.2059535888493
 30
0.0
 10
926.013894383686
 20
91.23261071326131
 30
0.0
 10
925.6463176249051
 20
70.25926783767333
 30
0.0
  0
SPLINE
  5
113
330
1F
100
AcDbEntity
  8
3D_U METALLICA - NASCOSTA
100
AcDbSpline
210
0.0
220
0.0
230
1.0
 70
    24
 71
     2
 72
     6
 73
     3
 74
     0
 42
0.0000000001
 43
0.0000000001
 40
0.0
 40
0.0
 40
0.0
 40
29.50127781451557
 40
29.50127781451557
 40
29.50127781451557
 10
955.7194079600101
 20
109.1058155307848
 30
0.0
 10
941.0504395512385
 20
110.655884559817
 30
0.0
 10
926.3814711424668
 20
112.2059535888493
 30
0.0
  0
SPLINE
  5
114
330
1F
100
AcDbEntity
  8
3D_U METALLICA - NASCOSTA
100
AcDbSpline
210
0.0
220
0.0
230
1.0
 70
    24
 71
     2
 72
     6
 73
     3
 74
     0
 42
0.0000000001
 43
0.0000000001
 40
0.0
 40
0.0
 40
0.0
 40
43.901383264343
 40
43.901383264343
 40
43.901383264343
 10
954.6169474791609
 20
65.21827705559913
 30
0.0
 10
955.1681777195855
 20
87.16204629319196
 30
0.0
 10
955.7194079600101
 20
109.1058155307848
 30
0.0
  0
SPLINE
  5
115
330
1F
100
AcDbEntity
  8
3D_U METALLICA - NASCOSTA
100
AcDbSpline
210
0.0
220
0.0
230
1.0
 70
    24
 71
     2
 72
     6
 73
     3
 74
     0
 42
0.0000000001
 43
0.0000000001
 40
0.0
 40
0.0
 40
0.0
 40
8.204652080868279
 40
8.204652080868279
 40
8.204652080868279
 10
962.7001437039853
 20
63.81177267982176
 30
0.0
 10
958.6585455915731
 20
64.51502486771045
 30
0.0
 10
954.6169474791609
 20
65.21827705559913
 30
0.0
  0
SPLINE
  5
116
330
1F
100
AcDbEntity
  8
3D_U METALLICA - NASCOSTA
100
AcDbSpline
210
0.0
220
0.0
230
1.0
 70
    24
 71
     2
 72
     6
 73
     3
 74
     0
 42
0.0000000001
 43
0.0000000001
 40
0.0
 40
0.0
 40
0.0
 40
0.9987758104536933
 40
0.9987758104536933
 40
0.9987758104536933
 10
962.7273428506367
 20
64.81017807141822
 30
0.0
 10
962.713743277311
 20
64.31097537561999
 30
0.0
 10
962.7001437039853
 20
63.81177267982176
 30
0.0
  0
SPLINE
  5
117
330
1F
100
AcDbEntity
  8
3D_U METALLICA - NASCOSTA
100
AcDbSpline
210
0.0
220
0.0
230
1.0
 70
    24
 71
     2
 72
     6
 73
     3
 74
     0
 42
0.0000000001
 43
0.0000000001
 40
0.0
 40
0.0
 40
0.0
 40
7.393655665982375
 40
7.393655665982375
 40
7.393655665982375
 10
955.4412526860992
 20
66.06677435557049
 30
0.0
 10
959.084297768368
 20
65.43847621349435
 30
0.0
 10
962.7273428506367
 20
64.81017807141822
 30
0.0
  0
SPLINE
  5
118
330
1F
100
AcDbEntity
  8
3D_U METALLICA - NASCOSTA
100
AcDbSpline
210
0.0
220
0.0
230
1.0
 70
    24
 71
     2
 72
     6
 73
     3
 74
     0
 42
0.0000000001
 43
0.0000000001
 40
0.0
 40
0.0
 40
0.0
 40
43.97795774542666
 40
43.97795774542666
 40
43.97795774542666
 10
956.5548541486079
 20
110.0306306382174
 30
0.0
 10
955.9980534173535
 20
88.04870249689394
 30
0.0
 10
955.4412526860992
 20
66.06677435557049
 30
0.0
  0
SPLINE
  5
119
330
1F
100
AcDbEntity
  8
3D_U METALLICA - NASCOSTA
100
AcDbSpline
210
0.0
220
0.0
230
1.0
 70
    24
 71
     2
 72
     6
 73
     3
 74
     0
 42
0.0000000001
 43
0.0000000001
 40
0.0
 40
0.0
 40
0.0
 40
31.05969047181917
 40
31.05969047181917
 40
31.05969047181917
 10
925.662106620154
 20
113.2466098589865
 30
0.0
 10
941.108480384381
 20
111.6386202486019
 30
0.0
 10
956.5548541486079
 20
110.0306306382174
 30
0.0
  0
SPLINE
  5
11A
330
1F
100
AcDbEntity
  8
3D_BLOCCACAVI - NASCOSTA
100
AcDbSpline
210
0.0
220
0.0
230
1.0
 70
    12
 71
     2
 72
     6
 73
     3
 74
     0
 42
0.0000000001
 43
0.0000000001
 40
0.0
 40
0.0
 40
0.0
 40
0.2042953418876086
 40
0.2042953418876086
 40
0.2042953418876086
 10
926.2231795086298
 20
113.5867504438265
 30
0.0
 41
1.0
 10
926.3254498107532
 20
113.584075088322
 30
0.0
 41
0.9976906009625848
 10
926.4271390663146
 20
113.5952852411691
 30
0.0
 41
1.0
  0
SPLINE
  5
11B
330
1F
100
AcDbEntity
  8
3D_BLOCCACAVI - NASCOSTA
100
AcDbSpline
210
0.0
220
0.0
230
1.0
 70
    12
 71
     2
 72
    10
 73
     7
 74
     0
 42
0.0000000001
 43
0.0000000001
 40
0.0
 40
0.0
 40
0.0
 40
0.2828843970565413
 40
0.2828843970565413
 40
1.853680723851438
 40
1.853680723851438
 40
3.273066621962996
 40
3.273066621962996
 40
3.273066621962996
 10
926.8301312568447
 20
120.4715669128373
 30
0.0
 41
1.0
 10
926.6888556040925
 20
120.4845198446128
 30
0.0
 41
0.9955017977682289
 10
926.547672830129
 20
120.4705909954813
 30
0.0
 41
1.0
 10
924.2633608499708
 20
120.2468170067422
 30
0.0
 41
0.7043318820674066
 10
924.204835868018
 20
116.7927726959838
 30
0.0
 41
0.9969628739961942
 10
924.154067059455
 20
113.7964844694859
 30
0.0
 41
0.7336725550535115
 10
926.1104309332295
 20
113.5940633969346
 30
0.0
 41
0.9501339207529585
  0
SPLINE
  5
11C
330
1F
100
AcDbEntity
  8
3D_BLOCCACAVI - NASCOSTA
100
AcDbSpline
210
0.0
220
0.0
230
1.0
 70
    12
 71
     2
 72
     8
 73
     5
 74
     0
 42
0.0000000001
 43
0.0000000001
 40
0.0
 40
0.0
 40
0.0
 40
1.570796326794897
 40
1.570796326794897
 40
2.945243112740431
 40
2.945243112740431
 40
2.945243112740431
 10
926.4271390663146
 20
113.5952852411691
 30
0.0
 41
597.8119966366858
 10
928.6900641185941
 20
113.8437459457346
 30
0.0
 41
424.3728464837599
 10
928.7520404113745
 20
117.2651572196
 30
0.0
 41
599.6244111431315
 10
928.8036835351002
 20
120.1161242233572
 30
0.0
 41
445.6241634671243
 10
926.9603932888058
 20
120.4536699563415
 30
0.0
 41
558.9260390864828
  0
SPLINE
  5
11D
330
1F
100
AcDbEntity
  8
3D_BLOCCACAVI - NASCOSTA
100
AcDbSpline
210
0.0
220
0.0
230
1.0
 70
    15
 71
     2
 72
    12
 73
     9
 74
     0
 42
0.0000000001
 43
0.0000000001
 40
0.0
 40
0.0
 40
0.0
 40
1.570796326794897
 40
1.570796326794897
 40
3.141592653589793
 40
3.141592653589793
 40
4.71238898038469
 40
4.71238898038469
 40
6.283185307179586
 40
6.283185307179586
 40
6.283185307179586
 10
930.197461557908
 20
113.2054118317389
 30
0.0
 41
594.173903544932
 10
932.4593862110164
 20
113.4569184637667
 30
0.0
 41
421.8003261879929
 10
932.5250891741853
 20
116.8988715129233
 30
0.0
 41
595.9863180513777
 10
932.5909089710545
 20
120.3469450792052
 30
0.0
 41
421.0516077890705
 10
930.3254655593463
 20
120.1221938317782
 30
0.0
 41
593.1150558307778
 10
928.0420616100406
 20
119.8956607463197
 30
0.0
 41
417.7397482144909
 10
927.9797932765296
 20
116.420679231195
 30
0.0
 41
591.3026413243322
 10
927.917636347396
 20
112.9519148111729
 30
0.0
 41
418.4884666134133
 10
930.197461557908
 20
113.2054118317389
 30
0.0
 41
594.173903544932
  0
SPLINE
  5
11E
330
1F
100
AcDbEntity
  8
3D_WOOD - NASCOSTA
100
AcDbSpline
210
0.0
220
0.0
230
1.0
 70
    12
 71
     2
 72
     6
 73
     3
 74
     0
 42
0.0000000001
 43
0.0000000001
 40
5.546874528994479
 40
5.546874528994479
 40
5.546874528994479
 40
6.283185307179586
 40
6.283185307179586
 40
6.283185307179586
 10
930.9484943939517
 20
142.2303166801688
 30
0.0
 41
499.458683326488
 10
930.8899750602613
 20
142.354569563899
 30
0.0
 41
506.2717256573974
 10
932.2740190095637
 20
142.4385425996391
 30
0.0
 41
588.2561443461863
  0
SPLINE
  5
11F
330
1F
100
AcDbEntity
  8
3D_WOOD - NASCOSTA
100
AcDbSpline
210
0.0
220
0.0
230
1.0
 70
    12
 71
     2
 72
    10
 73
     7
 74
     0
 42
0.0000000001
 43
0.0000000001
 40
2.503456645829367
 40
2.503456645829367
 40
2.503456645829367
 40
3.141592653589793
 40
3.141592653589793
 40
4.71238898038469
 40
4.71238898038469
 40
5.497787143782138
 40
5.497787143782138
 40
5.497787143782138
 10
942.127103273802
 20
142.1358121499253
 30
0.0
 41
500.784142471833
 10
942.0217657651212
 20
142.0306999735066
 30
0.0
 41
512.2626081424547
 10
940.8540067385663
 20
141.9577816947033
 30
0.0
 41
580.2471653552125
 10
937.242242257644
 20
141.7322525886092
 30
0.0
 41
407.6928477885384
 10
932.9203598939349
 20
141.9773713380476
 30
0.0
 41
580.5692441205478
 10
931.1475903135013
 20
142.0779152737751
 30
0.0
 41
496.9626476319921
 10
930.9638869777414
 20
142.2134747199285
 30
0.0
 41
498.8843726884018
  0
SPLINE
  5
120
330
1F
100
AcDbEntity
  8
3D_WOOD - NASCOSTA
100
AcDbSpline
210
0.0
220
0.0
230
1.0
 70
    12
 71
     2
 72
     8
 73
     5
 74
     0
 42
0.0000000001
 43
0.0000000001
 40
0.0
 40
0.0
 40
0.0
 40
1.570796326794897
 40
1.570796326794897
 40
2.454369260617026
 40
2.454369260617026
 40
2.454369260617026
 10
932.2740190095637
 20
142.4385425996391
 30
0.0
 41
588.2561443461863
 10
935.8453544504727
 20
142.6552234924463
 30
0.0
 41
418.5637663402451
 10
940.1035839035538
 20
142.4194617159021
 30
0.0
 41
587.934065580851
 10
942.1518212840326
 20
142.3060586950159
 30
0.0
 41
489.47772037088
 10
942.1362533751858
 20
142.1524533353046
 30
0.0
 41
499.352580247608
  0
SPLINE
  5
121
330
1F
100
AcDbEntity
  8
3D_WOOD - VISIBILE
100
AcDbSpline
210
0.0
220
0.0
230
1.0
 70
    15
 71
     2
 72
    12
 73
     9
 74
     0
 42
0.0000000001
 43
0.0000000001
 40
0.0
 40
0.0
 40
0.0
 40
1.570796326794897
 40
1.570796326794897
 40
3.141592653589793
 40
3.141592653589793
 40
4.71238898038469
 40
4.71238898038469
 40
6.283185307179586
 40
6.283185307179586
 40
6.283185307179586
 10
931.4509214595897
 20
143.2555379453885
 30
0.0
 41
588.9335782670629
 10
935.7259964251562
 20
143.5084696558368
 30
0.0
 41
419.5588170967771
 10
940.8218296164429
 20
143.2332351473462
 30
0.0
 41
588.5476699148916
 10
946.0014326830338
 20
142.9534760872091
 30
0.0
 41
412.7732797999462
 10
941.7338019439779
 20
142.6921280017027
 30
0.0
 41
579.337379393896
 10
937.4006684136674
 20
142.4267685501394
 30
0.0
 41
406.5334993285888
 10
932.2134074267525
 20
142.7151453354987
 30
0.0
 41
579.7232877460673
 10
927.1113066908206
 20
142.998787784282
 30
0.0
 41
413.3190366254199
 10
931.4509214595897
 20
143.2555379453885
 30
0.0
 41
588.9335782670629
  0
SPLINE
  5
122
330
1F
100
AcDbEntity
  8
3D_WOOD - NASCOSTA
100
AcDbSpline
210
0.0
220
0.0
230
1.0
 70
    12
 71
     2
 72
     6
 73
     3
 74
     0
 42
0.0000000001
 43
0.0000000001
 40
5.522330836388308
 40
5.522330836388308
 40
5.522330836388308
 40
6.283185307179586
 40
6.283185307179586
 40
6.283185307179586
 10
879.1918933666757
 20
94.43181923672824
 30
0.0
 41
508.2581267200762
 10
879.904148630892
 20
97.4214458690244
 30
0.0
 41
530.026382083451
 10
894.8763342332313
 20
99.32980732148268
 30
0.0
 41
632.7761935618331
  0
SPLINE
  5
123
330
1F
100
AcDbEntity
  8
3D_WOOD - VISIBILE
100
AcDbSpline
210
0.0
220
0.0
230
1.0
 70
    12
 71
     2
 72
    10
 73
     7
 74
     0
 42
0.0000000001
 43
0.0000000001
 40
2.516446956902776
 40
2.516446956902776
 40
2.516446956902776
 40
3.141592653589793
 40
3.141592653589793
 40
4.71238898038469
 40
4.71238898038469
 40
5.507675260084455
 40
5.507675260084455
 40
5.507675260084455
 10
993.3651677783578
 20
92.21940405099046
 30
0.0
 41
498.4892669374783
 10
993.5999708042759
 20
89.58248584811209
 30
0.0
 41
496.8757344551159
 10
982.354828232353
 20
87.65944702569456
 30
0.0
 41
550.366591833279
 10
943.6118536026046
 20
81.03398684745127
 30
0.0
 41
362.3751622925462
 10
896.5075223840538
 20
88.19581145961347
 30
0.0
 41
553.6806700455473
 10
878.7372211201872
 20
90.89763903395293
 30
0.0
 41
486.3266707346353
 10
879.1699381570199
 20
94.31147171834316
 30
0.0
 41
507.4495727369518
  0
SPLINE
  5
124
330
1F
100
AcDbEntity
  8
3D_WOOD - NASCOSTA
100
AcDbSpline
210
0.0
220
0.0
230
1.0
 70
    12
 71
     2
 72
     8
 73
     5
 74
     0
 42
0.0000000001
 43
0.0000000001
 40
0.0
 40
0.0
 40
0.0
 40
1.570796326794897
 40
1.570796326794897
 40
2.503456645829367
 40
2.503456645829367
 40
2.503456645829367
 10
894.8763342332313
 20
99.32980732148268
 30
0.0
 41
632.7761935618331
 10
929.4232343293095
 20
103.7331706110068
 30
0.0
 41
474.2331243722777
 10
969.9278458344521
 20
98.91945993745976
 30
0.0
 41
629.4621153495648
 10
992.6157737381657
 20
96.22314668688317
 30
0.0
 41
502.6956714528717
 10
993.3499927983722
 20
92.32871387181896
 30
0.0
 41
498.5801179751236
  0
SPLINE
  5
125
330
1F
100
AcDbEntity
  8
3D_WOOD - NASCOSTA
100
AcDbSpline
210
0.0
220
0.0
230
1.0
 70
    12
 71
     2
 72
     6
 73
     3
 74
     0
 42
0.0000000001
 43
0.0000000001
 40
5.672168983952434
 40
5.672168983952434
 40
5.672168983952434
 40
6.283185307179586
 40
6.283185307179586
 40
6.283185307179586
 10
842.7334488795588
 20
36.90365263312486
 30
0.0
 41
535.875542038737
 10
849.4832181833798
 20
43.1244809304135
 30
0.0
 41
577.2046228099779
 10
869.0958624942707
 20
47.1297191151816
 30
0.0
 41
671.4702655015545
  0
SPLINE
  5
126
330
1F
100
AcDbEntity
  8
3D_WOOD - VISIBILE
100
AcDbSpline
210
0.0
220
0.0
230
1.0
 70
    12
 71
     2
 72
    10
 73
     7
 74
     0
 42
0.0000000001
 43
0.0000000001
 40
2.352063710315999
 40
2.352063710315999
 40
2.352063710315999
 40
3.141592653589793
 40
3.141592653589793
 40
4.71238898038469
 40
4.71238898038469
 40
5.672168983952434
 40
5.672168983952434
 40
5.672168983952434
 10
1029.828026391019
 20
31.05705623187136
 30
0.0
 41
510.1351658712895
 10
1040.438414906461
 20
20.64308442398857
 30
0.0
 41
475.7846701812226
 10
1016.820674703131
 20
12.70359143819187
 30
0.0
 41
531.0029855893886
 10
949.034657099668
 20
-10.08379662960885
 30
0.0
 41
329.8074696289244
 10
865.4878439974885
 20
14.43582831232567
 30
0.0
 41
536.6518364772604
 10
829.7390208402925
 20
24.92752396632935
 30
0.0
 41
470.9561220786148
 10
842.7334488795588
 20
36.90365263312486
 30
0.0
 41
535.875542038737
  0
SPLINE
  5
127
330
1F
100
AcDbEntity
  8
3D_WOOD - NASCOSTA
100
AcDbSpline
210
0.0
220
0.0
230
1.0
 70
    12
 71
     2
 72
     8
 73
     5
 74
     0
 42
0.0000000001
 43
0.0000000001
 40
0.0
 40
0.0
 40
0.0
 40
1.570796326794897
 40
1.570796326794897
 40
2.34392264388926
 40
2.34392264388926
 40
2.34392264388926
 10
869.0958624942707
 20
47.1297191151816
 30
0.0
 41
671.4702655015545
 10
925.0120710184651
 20
58.54876745861155
 30
0.0
 41
520.4695204129156
 10
989.8167710092292
 20
46.02560918166449
 30
0.0
 41
665.8214146136826
 10
1020.255167559411
 20
40.1435534395851
 30
0.0
 41
545.3943255295125
 10
1029.620694641567
 20
31.25711063180558
 30
0.0
 41
510.8530853193702
  0
SPLINE
  5
128
330
1F
100
AcDbEntity
  8
3D_WOOD - NASCOSTA
100
AcDbSpline
210
0.0
220
0.0
230
1.0
 70
    15
 71
     2
 72
    12
 73
     9
 74
     0
 42
0.0000000001
 43
0.0000000001
 40
0.0
 40
0.0
 40
0.0
 40
1.570796326794897
 40
1.570796326794897
 40
3.141592653589793
 40
3.141592653589793
 40
4.71238898038469
 40
4.71238898038469
 40
6.283185307179586
 40
6.283185307179586
 40
6.283185307179586
 10
870.055881862181
 20
43.0835292941989
 30
0.0
 41
670.9770280746419
 10
925.0777785310671
 20
54.68677648829737
 30
0.0
 41
519.3624054729969
 10
988.8514420013241
 20
41.96332360043306
 30
0.0
 41
665.4219789021711
 10
1067.39712119783
 20
26.29271296869263
 30
0.0
 41
421.6863817915971
 10
1015.075079102971
 20
8.29698334059731
 30
0.0
 41
532.8422706657307
 10
948.5920194037913
 20
-14.56931008552505
 30
0.0
 41
331.8663839895548
 10
866.7556827356134
 20
10.04039926829526
 30
0.0
 41
538.3973198382014
 10
803.5285632614762
 20
29.05397070718935
 30
0.0
 41
429.5424076709546
 10
870.055881862181
 20
43.0835292941989
 30
0.0
 41
670.9770280746419
  0
SPLINE
  5
129
330
1F
100
AcDbEntity
  8
3D_WOOD - NASCOSTA
100
AcDbSpline
210
0.0
220
0.0
230
1.0
 70
    15
 71
     2
 72
    12
 73
     9
 74
     0
 42
0.0000000001
 43
0.0000000001
 40
0.0
 40
0.0
 40
0.0
 40
1.570796326794897
 40
1.570796326794897
 40
3.141592653589793
 40
3.141592653589793
 40
4.71238898038469
 40
4.71238898038469
 40
6.283185307179586
 40
6.283185307179586
 40
6.283185307179586
 10
907.9714913488742
 20
26.50386019241195
 30
0.0
 41
629.5206280667493
 10
930.1690438713821
 20
32.09661721183588
 30
0.0
 41
462.2871752011655
 10
956.2108268780905
 20
25.99413213740678
 30
0.0
 41
627.3994341336539
 10
984.5380657535986
 20
19.35608617899284
 30
0.0
 41
424.9896135758532
 10
962.5966247590004
 20
12.71615101598565
 30
0.0
 41
576.7739105727863
 10
938.7290063882551
 20
5.493314625423747
 30
0.0
 41
390.6918731791479
 10
910.1152648733787
 20
13.31910912637863
 30
0.0
 41
578.8951045058817
 10
883.9950960981413
 20
20.46291704324935
 30
0.0
 41
427.9894348044602
 10
907.9714913488742
 20
26.50386019241195
 30
0.0
 41
629.5206280667493
  0
SPLINE
  5
12A
330
1F
100
AcDbEntity
  8
3D_WOOD - NASCOSTA
100
AcDbSpline
210
0.0
220
0.0
230
1.0
 70
    15
 71
     2
 72
    12
 73
     9
 74
     0
 42
0.0000000001
 43
0.0000000001
 40
0.0
 40
0.0
 40
0.0
 40
1.570796326794897
 40
1.570796326794897
 40
3.141592653589793
 40
3.141592653589793
 40
4.71238898038469
 40
4.71238898038469
 40
6.283185307179586
 40
6.283185307179586
 40
6.283185307179586
 10
909.4462252354406
 20
72.33338031967858
 30
0.0
 41
621.062049269029
 10
931.1350788951997
 20
76.14624763059099
 30
0.0
 41
455.715678974315
 10
956.6607059699224
 20
71.98617198796694
 30
0.0
 41
619.013880893457
 10
984.3766196614589
 20
67.46913124598218
 30
0.0
 41
419.7021466824156
 10
962.9370751880112
 20
62.95925485967828
 30
0.0
 41
570.1312234728634
 10
939.6609028809391
 20
58.06303796564806
 30
0.0
 41
386.5851618852737
 10
911.6664813165578
 20
63.3684387057634
 30
0.0
 41
572.1793918484354
 10
886.0577226018095
 20
68.22171731793975
 30
0.0
 41
422.5986941771732
 10
909.4462252354406
 20
72.33338031967858
 30
0.0
 41
621.062049269029
  0
SPLINE
  5
12B
330
1F
100
AcDbEntity
  8
3D_WOOD - NASCOSTA
100
AcDbSpline
210
0.0
220
0.0
230
1.0
 70
    12
 71
     2
 72
     6
 73
     3
 74
     0
 42
0.0000000001
 43
0.0000000001
 40
5.571418221600649
 40
5.571418221600649
 40
5.571418221600649
 40
6.283185307179586
 40
6.283185307179586
 40
6.283185307179586
 10
913.7061856064987
 20
68.3107808767933
 30
0.0
 41
511.3059966881639
 10
913.9162050140494
 20
69.71261771872285
 30
0.0
 41
525.5091550567416
 10
919.0674444034022
 20
70.64781770841935
 30
0.0
 41
611.2406773165884
  0
SPLINE
  5
12C
330
1F
100
AcDbEntity
  8
3D_WOOD - NASCOSTA
100
AcDbSpline
210
0.0
220
0.0
230
1.0
 70
    12
 71
     2
 72
    10
 73
     7
 74
     0
 42
0.0000000001
 43
0.0000000001
 40
2.475722819737994
 40
2.475722819737994
 40
2.475722819737994
 40
3.141592653589793
 40
3.141592653589793
 40
4.71238898038469
 40
4.71238898038469
 40
5.546874528994479
 40
5.546874528994479
 40
5.546874528994479
 10
956.5928549830144
 20
67.19128866833027
 30
0.0
 41
507.3521441942206
 10
956.5583926623418
 20
65.84156122851019
 30
0.0
 41
512.2581381171433
 10
951.890968380336
 20
64.89561329961359
 30
0.0
 41
579.952426874588
 10
937.7874338149634
 20
62.03724677748934
 30
0.0
 41
399.9159424082697
 10
920.9073256568744
 20
65.13888854262133
 30
0.0
 41
581.2106747839928
 10
913.6864259380104
 20
66.46569545286766
 30
0.0
 41
496.6512944282343
 10
913.6983930371756
 20
68.21113827453223
 30
0.0
 41
510.4115200871101
  0
SPLINE
  5
12D
330
1F
100
AcDbEntity
  8
3D_WOOD - NASCOSTA
100
AcDbSpline
210
0.0
220
0.0
230
1.0
 70
    12
 71
     2
 72
     8
 73
     5
 74
     0
 42
0.0000000001
 43
0.0000000001
 40
0.0
 40
0.0
 40
0.0
 40
1.570796326794897
 40
1.570796326794897
 40
2.454369260617026
 40
2.454369260617026
 40
2.454369260617026
 10
919.0674444034022
 20
70.64781770841935
 30
0.0
 41
611.2406773165884
 10
932.5717985698708
 20
73.09951348933052
 30
0.0
 41
442.3847792679648
 10
948.5219383330175
 20
70.4278827356935
 30
0.0
 41
609.9824294071836
 10
956.4085670320289
 20
69.10688115905045
 30
0.0
 41
503.2639257956848
 10
956.5896293063859
 20
67.27884110271965
 30
0.0
 41
507.1020582582931
  0
SPLINE
  5
12E
330
1F
100
AcDbEntity
  8
3D_WOOD - NASCOSTA
100
AcDbSpline
210
0.0
220
0.0
230
1.0
 70
    15
 71
     2
 72
    12
 73
     9
 74
     0
 42
0.0000000001
 43
0.0000000001
 40
0.0
 40
0.0
 40
0.0
 40
1.570796326794897
 40
1.570796326794897
 40
3.141592653589793
 40
3.141592653589793
 40
4.71238898038469
 40
4.71238898038469
 40
6.283185307179586
 40
6.283185307179586
 40
6.283185307179586
 10
919.7534591257142
 20
113.8004945794837
 30
0.0
 41
604.4299487190549
 10
933.3872140455745
 20
115.275630079063
 30
0.0
 41
437.5663612426523
 10
949.534617489596
 20
113.6681276408866
 30
0.0
 41
603.1720107407284
 10
966.5417184152717
 20
111.9750408050301
 30
0.0
 41
415.4476767907359
 10
952.9958426481837
 20
110.3365740413792
 30
0.0
 41
573.1494051853039
 10
938.7526412271219
 20
108.6137609477366
 30
0.0
 41
395.1079852883931
 10
921.650529529294
 20
110.4831554364642
 30
0.0
 41
574.4073431636305
 10
905.4550622037951
 20
112.2534466084311
 30
0.0
 41
417.2266697403096
 10
919.7534591257142
 20
113.8004945794837
 30
0.0
 41
604.4299487190549
  0
SPLINE
  5
12F
330
1F
100
AcDbEntity
  8
3D_WOOD - NASCOSTA
100
AcDbSpline
210
0.0
220
0.0
230
1.0
 70
    12
 71
     2
 72
     6
 73
     3
 74
     0
 42
0.0000000001
 43
0.0000000001
 40
5.59596191420682
 40
5.59596191420682
 40
5.59596191420682
 40
6.283185307179586
 40
6.283185307179586
 40
6.283185307179586
 10
922.3597598658952
 20
112.3270497673863
 30
0.0
 41
505.5652741512206
 10
922.5434302328514
 20
112.8381999270061
 30
0.0
 41
519.1130828353517
 10
925.6700890828612
 20
113.1832662910316
 30
0.0
 41
598.6152239776403
  0
SPLINE
  5
130
330
1F
100
AcDbEntity
  8
3D_WOOD - NASCOSTA
100
AcDbSpline
210
0.0
220
0.0
230
1.0
 70
    12
 71
     2
 72
    10
 73
     7
 74
     0
 42
0.0000000001
 43
0.0000000001
 40
2.462725741302898
 40
2.462725741302898
 40
2.462725741302898
 40
3.141592653589793
 40
3.141592653589793
 40
4.71238898038469
 40
4.71238898038469
 40
5.560901381063045
 40
5.560901381063045
 40
5.560901381063045
 10
949.5961472363938
 20
111.8862752994039
 30
0.0
 41
502.3953414583556
 10
949.5846177166031
 20
111.3679284360133
 30
0.0
 41
508.438652432364
 10
946.544494448404
 20
111.008089057894
 30
0.0
 41
578.964347084124
 10
937.6696836071748
 20
109.9576361215146
 30
0.0
 41
403.0007759161703
 10
927.0433436019657
 20
111.0984088939599
 30
0.0
 41
579.7546013942866
 10
922.3394711189364
 20
111.6033851746986
 30
0.0
 41
491.7817032161549
 10
922.3497129399817
 20
112.2732745721597
 30
0.0
 41
504.3545850902401
  0
SPLINE
  5
131
330
1F
100
AcDbEntity
  8
3D_WOOD - NASCOSTA
100
AcDbSpline
210
0.0
220
0.0
230
1.0
 70
    12
 71
     2
 72
     8
 73
     5
 74
     0
 42
0.0000000001
 43
0.0000000001
 40
0.0
 40
0.0
 40
0.0
 40
1.570796326794897
 40
1.570796326794897
 40
2.454369260617026
 40
2.454369260617026
 40
2.454369260617026
 10
925.6700890828612
 20
113.1832662910316
 30
0.0
 41
598.6152239776403
 10
934.3043589528695
 20
114.1361672159438
 30
0.0
 41
429.6737241683493
 10
944.5541879741702
 20
113.0985518680112
 30
0.0
 41
597.8249696674778
 10
949.5545456751065
 20
112.5923533855914
 30
0.0
 41
495.4238056511551
 10
949.5959050968606
 20
111.8991991390106
 30
0.0
 41
502.2563322889312
  0
SPLINE
  5
132
330
1F
100
AcDbEntity
  8
3D_WOOD - NASCOSTA
100
AcDbSpline
210
0.0
220
0.0
230
1.0
 70
    12
 71
     2
 72
     6
 73
     3
 74
     0
 42
0.0000000001
 43
0.0000000001
 40
5.64504929941916
 40
5.64504929941916
 40
5.64504929941916
 40
6.283185307179586
 40
6.283185307179586
 40
6.283185307179586
 10
922.7061047055531
 20
130.6779268557822
 30
0.0
 41
505.4523775464137
 10
923.0993835762039
 20
131.0133374039849
 30
0.0
 41
522.3450473746565
 10
925.9831898158978
 20
131.2420418438296
 30
0.0
 41
595.8380092888953
  0
SPLINE
  5
133
330
1F
100
AcDbEntity
  8
3D_WOOD - NASCOSTA
100
AcDbSpline
210
0.0
220
0.0
230
1.0
 70
    12
 71
     2
 72
    12
 73
     9
 74
     0
 42
0.0000000001
 43
0.0000000001
 40
0.0
 40
0.0
 40
0.0
 40
1.570796326794897
 40
1.570796326794897
 40
3.141592653589793
 40
3.141592653589793
 40
4.71238898038469
 40
4.71238898038469
 40
5.611815967608002
 40
5.611815967608002
 40
5.611815967608002
 10
925.9831898158978
 20
131.2420418438296
 30
0.0
 41
595.8380092888953
 10
934.6524261856008
 20
131.9295682180093
 30
0.0
 41
427.7099368291268
 10
944.9558406353295
 20
131.1809150319873
 30
0.0
 41
595.0477549787328
 10
955.6052280994406
 20
130.4071232085982
 30
0.0
 41
413.8146685214595
 10
946.96888785973
 20
129.6722752862531
 30
0.0
 41
576.187132395379
 10
938.0573800055146
 20
128.9140139336582
 30
0.0
 41
401.0369885769477
 10
927.3732891847351
 20
129.7374665533816
 30
0.0
 41
576.9773867055416
 10
922.3062892744409
 20
130.127994340936
 30
0.0
 41
484.1914790593003
 10
922.6719370598014
 20
130.6416318082151
 30
0.0
 41
503.8463901151388
  0
SPLINE
  5
134
330
1F
100
AcDbEntity
  8
3D_PORTALAMPADE - NASCOSTA
100
AcDbSpline
210
0.0
220
0.0
230
1.0
 70
    12
 71
     2
 72
     6
 73
     3
 74
     0
 42
0.0000000001
 43
0.0000000001
 40
5.571418221600649
 40
5.571418221600649
 40
5.571418221600649
 40
6.283185307179586
 40
6.283185307179586
 40
6.283185307179586
 10
915.9147650134413
 20
50.894975923476
 30
0.0
 41
513.3839494054588
 10
916.0748465602966
 20
52.32818671412565
 30
0.0
 41
526.8310566047425
 10
920.6037100634438
 20
53.28678174440515
 30
0.0
 41
612.1467790295981
  0
SPLINE
  5
135
330
1F
100
AcDbEntity
  8
3D_PORTALAMPADE - NASCOSTA
100
AcDbSpline
210
0.0
220
0.0
230
1.0
 70
    12
 71
     2
 72
    10
 73
     7
 74
     0
 42
0.0000000001
 43
0.0000000001
 40
2.471708105282957
 40
2.471708105282957
 40
2.471708105282957
 40
3.141592653589793
 40
3.141592653589793
 40
4.71238898038469
 40
4.71238898038469
 40
5.552184247082646
 40
5.552184247082646
 40
5.552184247082646
 10
953.634529405592
 20
49.77033948884058
 30
0.0
 41
509.9750549271993
 10
953.5999868516379
 20
48.38777697119654
 30
0.0
 41
515.3226366977008
 10
949.4570731913145
 20
47.42180958991108
 30
0.0
 41
584.4972715322696
 10
937.0751618900077
 20
44.53482631782932
 30
0.0
 41
404.3126511545011
 10
922.2870234052166
 20
47.6683559408954
 30
0.0
 41
585.6091884503816
 10
915.8828043577415
 20
49.02537664492149
 30
0.0
 41
499.1352103941944
 10
915.9097228694285
 20
50.81531812981964
 30
0.0
 41
512.7096720422835
  0
SPLINE
  5
136
330
1F
100
AcDbEntity
  8
3D_PORTALAMPADE - NASCOSTA
100
AcDbSpline
210
0.0
220
0.0
230
1.0
 70
    12
 71
     2
 72
     8
 73
     5
 74
     0
 42
0.0000000001
 43
0.0000000001
 40
0.0
 40
0.0
 40
0.0
 40
1.570796326794897
 40
1.570796326794897
 40
2.454369260617026
 40
2.454369260617026
 40
2.454369260617026
 10
920.6037100634438
 20
53.28678174440515
 30
0.0
 41
612.1467790295981
 10
932.5209344485583
 20
55.80922298432282
 30
0.0
 41
441.8424716643335
 10
946.5906860076899
 20
53.06116704498174
 30
0.0
 41
611.0348621114861
 10
953.5169614612081
 20
51.70835052099703
 30
0.0
 41
504.8666182205588
 10
953.6331748141854
 20
49.84276247162163
 30
0.0
 41
509.7409891877195
  0
SPLINE
  5
137
330
1F
100
AcDbEntity
  8
3D_PORTALAMPADE - NASCOSTA
100
AcDbSpline
210
0.0
220
0.0
230
1.0
 70
    12
 71
     2
 72
     6
 73
     3
 74
     0
 42
0.0000000001
 43
0.0000000001
 40
5.59596191420682
 40
5.59596191420682
 40
5.59596191420682
 40
6.283185307179586
 40
6.283185307179586
 40
6.283185307179586
 10
928.542316915952
 20
121.1929806499879
 30
0.0
 41
503.6668238455384
 10
928.617847623278
 20
121.4399045186428
 30
0.0
 41
515.3625725395985
 10
930.352954471981
 20
121.6075756477837
 30
0.0
 41
592.8881598920304
  0
SPLINE
  5
138
330
1F
100
AcDbEntity
  8
3D_PORTALAMPADE - NASCOSTA
100
AcDbSpline
210
0.0
220
0.0
230
1.0
 70
    12
 71
     2
 72
    10
 73
     7
 74
     0
 42
0.0000000001
 43
0.0000000001
 40
2.454369260617026
 40
2.454369260617026
 40
2.454369260617026
 40
3.141592653589793
 40
3.141592653589793
 40
4.71238898038469
 40
4.71238898038469
 40
5.580184749459985
 40
5.580184749459985
 40
5.580184749459985
 10
943.7050479270836
 20
120.9876152348865
 30
0.0
 41
501.8290068470791
 10
943.6961734937386
 20
120.736665384689
 30
0.0
 41
508.9517259104025
 10
941.9746601329869
 20
120.5636981442129
 30
0.0
 41
581.973880617039
 10
937.0657905428415
 20
120.0704846460068
 30
0.0
 41
407.9692564850758
 10
931.196418366446
 20
120.6064324198729
 30
0.0
 41
582.4127951899576
 10
928.4983604515202
 20
120.8527991674242
 30
0.0
 41
490.3040375635492
 10
928.5398077403811
 20
121.1813590011187
 30
0.0
 41
503.1645020236617
  0
SPLINE
  5
139
330
1F
100
AcDbEntity
  8
3D_PORTALAMPADE - NASCOSTA
100
AcDbSpline
210
0.0
220
0.0
230
1.0
 70
    12
 71
     2
 72
     8
 73
     5
 74
     0
 42
0.0000000001
 43
0.0000000001
 40
0.0
 40
0.0
 40
0.0
 40
1.570796326794897
 40
1.570796326794897
 40
2.405281875404685
 40
2.405281875404685
 40
2.405281875404685
 10
930.352954471981
 20
121.6075756477837
 30
0.0
 41
592.8881598920304
 10
935.187357448385
 20
122.0747456127813
 30
0.0
 41
422.7836593175516
 10
940.9399963630193
 20
121.5663386708073
 30
0.0
 41
592.4492453191118
 10
943.5333869670596
 20
121.3371398968341
 30
0.0
 41
498.2144485345056
 10
943.696175020897
 20
121.0241123993688
 30
0.0
 41
501.1476971627436
  0
SPLINE
  5
13A
330
1F
100
AcDbEntity
  8
3D_PORTALAMPADE - NASCOSTA
100
AcDbSpline
210
0.0
220
0.0
230
1.0
 70
    15
 71
     2
 72
    12
 73
     9
 74
     0
 42
0.0000000001
 43
0.0000000001
 40
0.0
 40
0.0
 40
0.0
 40
1.570796326794897
 40
1.570796326794897
 40
3.141592653589793
 40
3.141592653589793
 40
4.71238898038469
 40
4.71238898038469
 40
6.283185307179586
 40
6.283185307179586
 40
6.283185307179586
 10
932.2360664581271
 20
140.430434847024
 30
0.0
 41
588.558907431196
 10
935.8035202571524
 20
140.6593438270388
 30
0.0
 41
418.7761699523709
 10
940.0565222985468
 20
140.4102773181821
 30
0.0
 41
588.2370367443816
 10
944.3677888915922
 20
140.1577986904672
 30
0.0
 41
413.1166253016942
 10
940.8054398213385
 20
139.9225546618319
 30
0.0
 41
580.5551026293527
 10
937.1976405029594
 20
139.6843092711007
 30
0.0
 41
407.9122745416406
 10
932.8811456745581
 20
139.9432490211028
 30
0.0
 41
580.8769733161671
 10
928.6237201397646
 20
140.1986452968909
 30
0.0
 41
413.5718191923174
 10
932.2360664581271
 20
140.430434847024
 30
0.0
 41
588.558907431196
  0
SPLINE
  5
13B
330
1F
100
AcDbEntity
  8
3D_PORTALAMPADE - NASCOSTA
100
AcDbSpline
210
0.0
220
0.0
230
1.0
 70
    12
 71
     2
 72
     6
 73
     3
 74
     0
 42
0.0000000001
 43
0.0000000001
 40
5.59596191420682
 40
5.59596191420682
 40
5.59596191420682
 40
6.283185307179586
 40
6.283185307179586
 40
6.283185307179586
 10
928.3627373194196
 20
111.2395078219735
 30
0.0
 41
504.96140376246
 10
928.4388639693545
 20
111.5295180865515
 30
0.0
 41
516.6813813092463
 10
930.1700914614082
 20
111.7264503252152
 30
0.0
 41
594.4007994836794
  0
SPLINE
  5
13C
330
1F
100
AcDbEntity
  8
3D_PORTALAMPADE - NASCOSTA
100
AcDbSpline
210
0.0
220
0.0
230
1.0
 70
    12
 71
     2
 72
    10
 73
     7
 74
     0
 42
0.0000000001
 43
0.0000000001
 40
2.454369260617026
 40
2.454369260617026
 40
2.454369260617026
 40
3.141592653589793
 40
3.141592653589793
 40
4.71238898038469
 40
4.71238898038469
 40
5.570655569983872
 40
5.570655569983872
 40
5.570655569983872
 10
943.4857973588358
 20
110.998312642401
 30
0.0
 41
503.1235867640228
 10
943.4759707926469
 20
110.7035861352488
 30
0.0
 41
510.2705346801272
 10
941.7582483265525
 20
110.5004497610564
 30
0.0
 41
583.4865202088191
 10
936.8603375865794
 20
109.9212270702699
 30
0.0
 41
409.0388541979574
 10
931.0080899087066
 20
110.5506374966095
 30
0.0
 41
583.9254347817324
 10
928.3528272351058
 20
110.8362115364358
 30
0.0
 41
492.5860408868365
 10
928.3596695391791
 20
111.2175922991647
 30
0.0
 41
504.1877457469382
  0
SPLINE
  5
13D
330
1F
100
AcDbEntity
  8
3D_PORTALAMPADE - NASCOSTA
100
AcDbSpline
210
0.0
220
0.0
230
1.0
 70
    12
 71
     2
 72
     8
 73
     5
 74
     0
 42
0.0000000001
 43
0.0000000001
 40
0.0
 40
0.0
 40
0.0
 40
1.570796326794897
 40
1.570796326794897
 40
2.405281875404685
 40
2.405281875404685
 40
2.405281875404685
 10
930.1700914614082
 20
111.7264503252152
 30
0.0
 41
594.4007994836794
 10
934.9938256712674
 20
112.2751643336435
 30
0.0
 41
423.8532570302551
 10
940.7300362601122
 20
111.6780166015701
 30
0.0
 41
593.961884910766
 10
943.3159334811976
 20
111.4088209998694
 30
0.0
 41
499.4917221280166
 10
943.4770890807221
 20
111.0411770759088
 30
0.0
 41
502.4396811311741
  0
SPLINE
  5
13E
330
1F
100
AcDbEntity
  8
3D_BLOCCACAVI - NASCOSTA
100
AcDbSpline
210
0.0
220
0.0
230
1.0
 70
    12
 71
     2
 72
     8
 73
     5
 74
     0
 42
0.0000000001
 43
0.0000000001
 40
0.0
 40
0.0
 40
0.0
 40
3.5
 40
3.5
 40
8.5
 40
8.5
 40
8.5
 10
926.4873525284057
 20
117.0298910254943
 30
0.0
 41
597.2825727796087
 10
926.4572324601548
 20
115.3118273725148
 30
0.0
 41
597.5472847081472
 10
926.4271390663146
 20
113.5952852411691
 30
0.0
 41
597.8119966366858
 10
928.3065465593996
 20
113.4009435081552
 30
0.0
 41
595.9929500908089
 10
930.197461557908
 20
113.2054118317389
 30
0.0
 41
594.173903544932
  0
SPLINE
  5
13F
330
1F
100
AcDbEntity
  8
3D_PORTALAMPADE - NASCOSTA
100
AcDbSpline
210
0.0
220
0.0
230
1.0
 70
    24
 71
     2
 72
     6
 73
     3
 74
     0
 42
0.0000000001
 43
0.0000000001
 40
0.0
 40
0.0
 40
0.0
 40
89.77411428087211
 40
89.77411428087211
 40
89.77411428087211
 10
936.4914199904075
 20
140.178233239275
 30
0.0
 10
935.5942352605894
 20
95.30014328115229
 30
0.0
 10
934.6970505307712
 20
50.4220533230296
 30
0.0
  0
SPLINE
  5
140
330
1F
100
AcDbEntity
  8
3D_PORTALAMPADE - NASCOSTA
100
AcDbSpline
210
0.0
220
0.0
230
1.0
 70
    12
 71
     2
 72
     8
 73
     5
 74
     0
 42
0.0000000001
 43
0.0000000001
 40
24.70796326794897
 40
24.70796326794897
 40
24.70796326794897
 40
75.70796326794897
 40
75.70796326794897
 40
94.70796326794897
 40
94.70796326794897
 40
94.70796326794897
 10
921.3964023171369
 20
101.9721677520204
 30
0.0
 41
604.4323171121885
 10
920.9975429158873
 20
77.47511505327749
 30
0.0
 41
608.2895480708933
 10
920.6037100634438
 20
53.28678174440515
 30
0.0
 41
612.1467790295981
 10
927.5699003372922
 20
51.87077655298383
 30
0.0
 41
605.2344021552659
 10
934.6970505307712
 20
50.4220533230296
 30
0.0
 41
598.3220252809339
  0
SPLINE
  5
141
330
1F
100
AcDbEntity
  8
3D_PORTALAMPADE - NASCOSTA
100
AcDbSpline
210
0.0
220
0.0
230
1.0
 70
    24
 71
     2
 72
     6
 73
     3
 74
     0
 42
0.0000000001
 43
0.0000000001
 40
0.0
 40
0.0
 40
0.0
 40
6.913403075945281
 40
6.913403075945281
 40
6.913403075945281
 10
935.8906040600527
 20
110.1248111785802
 30
0.0
 10
932.4536646677182
 20
110.4939089109503
 30
0.0
 10
929.0167252753835
 20
110.8630066433205
 30
0.0
  0
SPLINE
  5
142
330
1F
100
AcDbEntity
  8
3D_PORTALAMPADE - NASCOSTA
100
AcDbSpline
210
0.0
220
0.0
230
1.0
 70
    12
 71
     2
 72
     6
 73
     3
 74
     0
 42
0.0000000001
 43
0.0000000001
 40
1.963495408493621
 40
1.963495408493621
 40
1.963495408493621
 40
15.70796326794897
 40
15.70796326794897
 40
15.70796326794897
 10
927.642359090502
 20
110.8464903573439
 30
0.0
 41
558.7431826160137
 10
921.5276319656335
 20
110.0319993738486
 30
0.0
 41
448.591558063906
 10
921.3964023171369
 20
101.9721677520204
 30
0.0
 41
604.4323171121885
  0
SPLINE
  5
143
330
1F
100
AcDbEntity
  8
3D_PORTALAMPADE - NASCOSTA
100
AcDbSpline
210
0.0
220
0.0
230
1.0
 70
    12
 71
     2
 72
     6
 73
     3
 74
     0
 42
0.0000000001
 43
0.0000000001
 40
0.0
 40
0.0
 40
0.0
 40
1.819973556068896
 40
1.819973556068896
 40
1.819973556068896
 10
929.0167252753834
 20
110.8630066433204
 30
0.0
 41
595.643491337032
 10
928.3767950086091
 20
110.9317296504437
 30
0.0
 41
576.0261397236068
 10
927.7447923724195
 20
110.859189931279
 30
0.0
 41
561.0726265409465
  0
SPLINE
  5
144
330
1F
100
AcDbEntity
  8
3D_BLOCCACAVI - NASCOSTA
100
AcDbSpline
210
0.0
220
0.0
230
1.0
 70
    12
 71
     2
 72
    12
 73
     9
 74
     0
 42
0.0000000001
 43
0.0000000001
 40
0.0
 40
0.0
 40
0.0
 40
5.5
 40
5.5
 40
24.6049731745428
 40
24.6049731745428
 40
34.6049731745428
 40
34.6049731745428
 40
42.10497317372248
 40
42.10497317372248
 40
42.10497317372248
 10
936.4914199904076
 20
140.178233239275
 30
0.0
 41
584.5570050302669
 10
934.3564849860418
 20
140.3047642164208
 30
0.0
 41
586.5579562307314
 10
932.2360664581273
 20
140.4304348470239
 30
0.0
 41
588.558907431196
 10
931.2910602608829
 20
130.984518340727
 30
0.0
 41
590.7235336616131
 10
930.352954471981
 20
121.6075756477835
 30
0.0
 41
592.8881598920304
 10
930.2614064803803
 20
116.6607185704454
 30
0.0
 41
593.644479687855
 10
930.1700914614082
 20
111.726450325215
 30
0.0
 41
594.4007994836794
 10
933.0270505134073
 20
111.4241906854533
 30
0.0
 41
591.6722296481948
 10
935.9104820884075
 20
111.1191303141724
 30
0.0
 41
588.9436598127104
  0
ENDSEC
  0
SECTION
  2
OBJECTS
  0
DICTIONARY
  5
C
330
0
100
AcDbDictionary
281
     1
  3
ACAD_GROUP
350
D
  3
ACAD_LAYOUT
350
1A
  3
ACAD_MLEADERSTYLE
350
146
  3
ACAD_MLINESTYLE
350
17
  3
ACAD_PLOTSETTINGS
350
19
  3
ACAD_PLOTSTYLENAME
350
E
  3
ACAD_TABLESTYLE
350
145
  3
ACAD_VISUALSTYLE
350
2A
  0
DICTIONARY
  5
D
102
{ACAD_REACTORS
330
C
102
}
330
C
100
AcDbDictionary
281
     1
  0
DICTIONARY
  5
1A
102
{ACAD_REACTORS
330
C
102
}
330
C
100
AcDbDictionary
281
     1
  3
Layout1
350
1E
  3
Layout2
350
26
  3
Model
350
22
  0
DICTIONARY
  5
146
102
{ACAD_REACTORS
330
C
102
}
330
C
100
AcDbDictionary
281
     1
  0
DICTIONARY
  5
17
102
{ACAD_REACTORS
330
C
102
}
330
C
100
AcDbDictionary
281
     1
  3
Standard
350
18
  0
DICTIONARY
  5
19
102
{ACAD_REACTORS
330
C
102
}
330
C
100
AcDbDictionary
281
     1
  0
ACDBDICTIONARYWDFLT
  5
E
102
{ACAD_REACTORS
330
C
102
}
330
C
100
AcDbDictionary
281
     1
  3
Normal
350
F
100
AcDbDictionaryWithDefault
340
F
  0
DICTIONARY
  5
145
102
{ACAD_REACTORS
330
C
102
}
330
C
100
AcDbDictionary
281
     1
  0
DICTIONARY
  5
2A
102
{ACAD_REACTORS
330
C
102
}
330
C
100
AcDbDictionary
281
     1
  3
2dWireframe
350
2F
  3
3D Hidden
350
31
  3
3dWireframe
350
30
  3
Basic
350
32
  3
Brighten
350
36
  3
ColorChange
350
3A
  3
Conceptual
350
34
  3
Dim
350
35
  3
Facepattern
350
39
  3
Flat
350
2B
  3
FlatWithEdges
350
2C
  3
Gouraud
350
2D
  3
GouraudWithEdges
350
2E
  3
Linepattern
350
38
  3
Realistic
350
33
  3
Thicken
350
37
  0
LAYOUT
  5
1E
102
{ACAD_REACTORS
330
1A
102
}
330
1A
100
AcDbPlotSettings
  1

  2
none_device
  4

  6

 40
0.0
 41
0.0
 42
0.0
 43
0.0
 44
0.0
 45
0.0
 46
0.0
 47
0.0
 48
0.0
 49
0.0
140
0.0
141
0.0
142
1.0
143
1.0
 70
   688
 72
     0
 73
     0
 74
     5
  7

 75
    16
 76
     0
 77
     2
 78
   300
147
1.0
148
0.0
149
0.0
100
AcDbLayout
  1
Layout1
 70
     1
 71
     1
 10
0.0
 20
0.0
 11
12.0
 21
9.0
 12
0.0
 22
0.0
 32
0.0
 14
1.000000000000000E+20
 24
1.000000000000000E+20
 34
1.000000000000000E+20
 15
-1.000000000000000E+20
 25
-1.000000000000000E+20
 35
-1.000000000000000E+20
146
0.0
 13
0.0
 23
0.0
 33
0.0
 16
1.0
 26
0.0
 36
0.0
 17
0.0
 27
1.0
 37
0.0
 76
     0
330
1B
  0
LAYOUT
  5
26
102
{ACAD_REACTORS
330
1A
102
}
330
1A
100
AcDbPlotSettings
  1

  2
none_device
  4

  6

 40
0.0
 41
0.0
 42
0.0
 43
0.0
 44
0.0
 45
0.0
 46
0.0
 47
0.0
 48
0.0
 49
0.0
140
0.0
141
0.0
142
1.0
143
1.0
 70
   688
 72
     0
 73
     0
 74
     5
  7

 75
    16
 76
     0
 77
     2
 78
   300
147
1.0
148
0.0
149
0.0
100
AcDbLayout
  1
Layout2
 70
     1
 71
     2
 10
0.0
 20
0.0
 11
0.0
 21
0.0
 12
0.0
 22
0.0
 32
0.0
 14
0.0
 24
0.0
 34
0.0
 15
0.0
 25
0.0
 35
0.0
146
0.0
 13
0.0
 23
0.0
 33
0.0
 16
1.0
 26
0.0
 36
0.0
 17
0.0
 27
1.0
 37
0.0
 76
     0
330
23
  0
LAYOUT
  5
22
102
{ACAD_REACTORS
330
1A
102
}
330
1A
100
AcDbPlotSettings
  1

  2
none_device
  4

  6

 40
0.0
 41
0.0
 42
0.0
 43
0.0
 44
0.0
 45
0.0
 46
0.0
 47
0.0
 48
0.0
 49
0.0
140
0.0
141
0.0
142
1.0
143
1.0
 70
  1712
 72
     0
 73
     0
 74
     0
  7

 75
     0
 76
     0
 77
     2
 78
   300
147
1.0
148
0.0
149
0.0
100
AcDbLayout
  1
Model
 70
     1
 71
     0
 10
0.0
 20
0.0
 11
12.0
 21
9.0
 12
0.0
 22
0.0
 32
0.0
 14
839.0052984165005
 24
-0.0000025477924339
 34
0.0
 15
1348.387017928572
 25
440.5096676416157
 35
0.0
146
0.0
 13
0.0
 23
0.0
 33
0.0
 16
1.0
 26
0.0
 36
0.0
 17
0.0
 27
1.0
 37
0.0
 76
     0
330
1F
331
29
  0
MLINESTYLE
  5
18
102
{ACAD_REACTORS
330
17
102
}
330
17
100
AcDbMlineStyle
  2
Standard
 70
     0
  3

 62
   256
 51
90.0
 52
90.0
 71
     2
 49
0.5
 62
   256
  6
BYLAYER
 49
-0.5
 62
   256
  6
BYLAYER
  0
ACDBPLACEHOLDER
  5
F
102
{ACAD_REACTORS
330
E
102
}
330
E
  0
VISUALSTYLE
  5
2F
102
{ACAD_REACTORS
330
2A
102
}
330
2A
100
AcDbVisualStyle
  2
2dWireframe
 70
     4
 71
     0
 72
     2
 73
     0
 90
        0
 40
-0.6
 41
-30.0
 62
     5
 63
     7
421
 16777215
 74
     1
 91
        4
 64
     7
 65
   257
 75
     1
175
     1
 42
1.0
 92
        0
 66
   257
 43
1.0
 76
     1
 77
     6
 78
     2
 67
     7
 79
     5
170
     0
171
     0
290
     0
174
     0
 93
        1
 44
0.0
173
     0
291
     0
 45
0.0
1001
ACAD
1000
AcDbSavedByObjectVersion
1070
     0
  0
VISUALSTYLE
  5
31
102
{ACAD_REACTORS
330
2A
102
}
330
2A
100
AcDbVisualStyle
  2
3D Hidden
 70
     6
 71
     1
 72
     2
 73
     2
 90
        0
 40
-0.6
 41
-30.0
 62
     5
 63
     7
421
 16777215
 74
     2
 91
        2
 64
     7
 65
   257
 75
     2
175
     1
 42
40.0
 92
        0
 66
   257
 43
1.0
 76
     1
 77
     6
 78
     2
 67
     7
 79
     3
170
     0
171
     0
290
     0
174
     0
 93
        1
 44
0.0
173
     0
291
     0
 45
0.0
1001
ACAD
1000
AcDbSavedByObjectVersion
1070
     0
  0
VISUALSTYLE
  5
30
102
{ACAD_REACTORS
330
2A
102
}
330
2A
100
AcDbVisualStyle
  2
3dWireframe
 70
     5
 71
     0
 72
     2
 73
     0
 90
        0
 40
-0.6
 41
-30.0
 62
     5
 63
     7
421
 16777215
 74
     1
 91
        4
 64
     7
 65
   257
 75
     1
175
     1
 42
1.0
 92
        0
 66
   257
 43
1.0
 76
     1
 77
     6
 78
     2
 67
     7
 79
     5
170
     0
171
     0
290
     0
174
     0
 93
        1
 44
0.0
173
     0
291
     0
 45
0.0
1001
ACAD
1000
AcDbSavedByObjectVersion
1070
     0
  0
VISUALSTYLE
  5
32
102
{ACAD_REACTORS
330
2A
102
}
330
2A
100
AcDbVisualStyle
  2
Basic
 70
     7
 71
     1
 72
     0
 73
     1
 90
        0
 40
-0.6
 41
-30.0
 62
     5
 63
     7
421
 16777215
 74
     0
 91
        4
 64
     7
 65
   257
 75
     1
175
     1
 42
1.0
 92
        8
 66
     7
 43
1.0
 76
     1
 77
     6
 78
     2
 67
     7
 79
     5
170
     0
171
     0
290
     0
174
     0
 93
        1
 44
0.0
173
     0
291
     1
 45
0.0
1001
ACAD
1000
AcDbSavedByObjectVersion
1070
     0
  0
VISUALSTYLE
  5
36
102
{ACAD_REACTORS
330
2A
102
}
330
2A
100
AcDbVisualStyle
  2
Brighten
 70
    12
 71
     2
 72
     2
 73
     0
 90
        0
 40
-0.6
 41
-30.0
 62
     5
 63
     7
421
 16777215
 74
     1
 91
        4
 64
     7
 65
   257
 75
     1
175
     1
 42
1.0
 92
        8
 66
     7
 43
1.0
 76
     1
 77
     6
 78
     2
 67
     7
 79
     5
170
     0
171
     0
290
     0
174
     0
 93
        1
 44
50.0
173
     0
291
     1
 45
0.0
1001
ACAD
1000
AcDbSavedByObjectVersion
1070
     0
  0
VISUALSTYLE
  5
3A
102
{ACAD_REACTORS
330
2A
102
}
330
2A
100
AcDbVisualStyle
  2
ColorChange
 70
    16
 71
     2
 72
     2
 73
     3
 90
        0
 40
-0.6
 41
-30.0
 62
     5
 63
     8
421
  8421504
 74
     1
 91
        4
 64
     7
 65
   257
 75
     1
175
     1
 42
1.0
 92
        8
 66
     8
424
  8421504
 43
1.0
 76
     1
 77
     6
 78
     2
 67
     7
 79
     5
170
     0
171
     0
290
     0
174
     0
 93
        1
 44
0.0
173
     0
291
     1
 45
0.0
1001
ACAD
1000
AcDbSavedByObjectVersion
1070
     0
  0
VISUALSTYLE
  5
34
102
{ACAD_REACTORS
330
2A
102
}
330
2A
100
AcDbVisualStyle
  2
Conceptual
 70
     9
 71
     3
 72
     2
 73
     0
 90
        0
 40
-0.6
 41
-30.0
 62
     5
 63
     7
421
 16777215
 74
     2
 91
        2
 64
     7
 65
   257
 75
     1
175
     1
 42
40.0
 92
        8
 66
     7
 43
1.0
 76
     1
 77
     6
 78
     2
 67
     7
 79
     3
170
     0
171
     0
290
     0
174
     0
 93
        1
 44
0.0
173
     0
291
     0
 45
0.0
1001
ACAD
1000
AcDbSavedByObjectVersion
1070
     0
  0
VISUALSTYLE
  5
35
102
{ACAD_REACTORS
330
2A
102
}
330
2A
100
AcDbVisualStyle
  2
Dim
 70
    11
 71
     2
 72
     2
 73
     0
 90
        0
 40
-0.6
 41
-30.0
 62
     5
 63
     7
421
 16777215
 74
     1
 91
        4
 64
     7
 65
   257
 75
     1
175
     1
 42
1.0
 92
        8
 66
     7
 43
1.0
 76
     1
 77
     6
 78
     2
 67
     7
 79
     5
170
     0
171
     0
290
     0
174
     0
 93
        1
 44
-50.0
173
     0
291
     1
 45
0.0
1001
ACAD
1000
AcDbSavedByObjectVersion
1070
     0
  0
VISUALSTYLE
  5
39
102
{ACAD_REACTORS
330
2A
102
}
330
2A
100
AcDbVisualStyle
  2
Facepattern
 70
    15
 71
     2
 72
     2
 73
     0
 90
        0
 40
-0.6
 41
-30.0
 62
     5
 63
     7
421
 16777215
 74
     1
 91
        4
 64
     7
 65
   257
 75
     1
175
     1
 42
1.0
 92
        8
 66
     7
 43
1.0
 76
     1
 77
     6
 78
     2
 67
     7
 79
     5
170
     0
171
     0
290
     0
174
     0
 93
        1
 44
0.0
173
     0
291
     1
 45
0.0
1001
ACAD
1000
AcDbSavedByObjectVersion
1070
     0
  0
VISUALSTYLE
  5
2B
102
{ACAD_REACTORS
330
2A
102
}
330
2A
100
AcDbVisualStyle
  2
Flat
 70
     0
 71
     2
 72
     1
 73
     1
 90
        2
 40
-0.6
 41
30.0
 62
     5
 63
     7
421
 16777215
 74
     0
 91
        4
 64
     7
 65
   257
 75
     1
175
     1
 42
1.0
 92
        8
 66
     7
 43
1.0
 76
     1
 77
     6
 78
     2
 67
     7
 79
     5
170
     0
171
     0
290
     0
174
     0
 93
       13
 44
0.0
173
     0
291
     1
 45
0.0
1001
ACAD
1000
AcDbSavedByObjectVersion
1070
     0
  0
VISUALSTYLE
  5
2C
102
{ACAD_REACTORS
330
2A
102
}
330
2A
100
AcDbVisualStyle
  2
FlatWithEdges
 70
     1
 71
     2
 72
     1
 73
     1
 90
        2
 40
-0.6
 41
30.0
 62
     5
 63
     7
421
 16777215
 74
     1
 91
        4
 64
     7
 65
   257
 75
     1
175
     1
 42
1.0
 92
        0
 66
   257
 43
1.0
 76
     1
 77
     6
 78
     2
 67
     7
 79
     5
170
     0
171
     0
290
     0
174
     0
 93
       13
 44
0.0
173
     0
291
     1
 45
0.0
1001
ACAD
1000
AcDbSavedByObjectVersion
1070
     0
  0
VISUALSTYLE
  5
2D
102
{ACAD_REACTORS
330
2A
102
}
330
2A
100
AcDbVisualStyle
  2
Gouraud
 70
     2
 71
     2
 72
     2
 73
     1
 90
        2
 40
-0.6
 41
30.0
 62
     5
 63
     7
421
 16777215
 74
     0
 91
        4
 64
     7
 65
   257
 75
     1
175
     1
 42
1.0
 92
        0
 66
     7
 43
1.0
 76
     1
 77
     6
 78
     2
 67
     7
 79
     5
170
     0
171
     0
290
     0
174
     0
 93
       13
 44
0.0
173
     0
291
     1
 45
0.0
1001
ACAD
1000
AcDbSavedByObjectVersion
1070
     0
  0
VISUALSTYLE
  5
2E
102
{ACAD_REACTORS
330
2A
102
}
330
2A
100
AcDbVisualStyle
  2
GouraudWithEdges
 70
     3
 71
     2
 72
     2
 73
     1
 90
        2
 40
-0.6
 41
30.0
 62
     5
 63
     7
421
 16777215
 74
     1
 91
        4
 64
     7
 65
   257
 75
     1
175
     1
 42
1.0
 92
        0
 66
   257
 43
1.0
 76
     1
 77
     6
 78
     2
 67
     7
 79
     5
170
     0
171
     0
290
     0
174
     0
 93
       13
 44
0.0
173
     0
291
     1
 45
0.0
1001
ACAD
1000
AcDbSavedByObjectVersion
1070
     0
  0
VISUALSTYLE
  5
38
102
{ACAD_REACTORS
330
2A
102
}
330
2A
100
AcDbVisualStyle
  2
Linepattern
 70
    14
 71
     2
 72
     2
 73
     0
 90
        0
 40
-0.6
 41
-30.0
 62
     5
 63
     7
421
 16777215
 74
     1
 91
        4
 64
     7
 65
   257
 75
     7
175
     7
 42
1.0
 92
        8
 66
     7
 43
1.0
 76
     1
 77
     6
 78
     2
 67
     7
 79
     5
170
     0
171
     0
290
     0
174
     0
 93
        1
 44
0.0
173
     0
291
     1
 45
0.0
1001
ACAD
1000
AcDbSavedByObjectVersion
1070
     0
  0
VISUALSTYLE
  5
33
102
{ACAD_REACTORS
330
2A
102
}
330
2A
100
AcDbVisualStyle
  2
Realistic
 70
     8
 71
     2
 72
     2
 73
     0
 90
        0
 40
-0.6
 41
-30.0
 62
     5
 63
     7
421
 16777215
 74
     1
 91
        0
 64
     7
 65
   257
 75
     1
175
     1
 42
1.0
 92
        8
 66
     8
424
  7895160
 43
1.0
 76
     1
 77
     6
 78
     2
 67
     7
 79
     5
170
     0
171
     0
290
     0
174
     0
 93
       13
 44
0.0
173
     0
291
     0
 45
0.0
1001
ACAD
1000
AcDbSavedByObjectVersion
1070
     0
  0
VISUALSTYLE
  5
37
102
{ACAD_REACTORS
330
2A
102
}
330
2A
100
AcDbVisualStyle
  2
Thicken
 70
    13
 71
     2
 72
     2
 73
     0
 90
        0
 40
-0.6
 41
-30.0
 62
     5
 63
     7
421
 16777215
 74
     1
 91
        4
 64
     7
 65
   257
 75
     1
175
     1
 42
1.0
 92
       12
 66
     7
 43
1.0
 76
     1
 77
     6
 78
     2
 67
     7
 79
     5
170
     0
171
     0
290
     0
174
     0
 93
        1
 44
0.0
173
     0
291
     1
 45
0.0
1001
ACAD
1000
AcDbSavedByObjectVersion
1070
     0
  0
ENDSEC
  0
EOF
