  0
SECTION
  2
HEADER
  9
$ACADVER
  1
AC1009
  9
$LUNITS
 70
2
  9
$LUPREC
 70
4
  9
$LTSCALE
 40
1.0
  9
$EXTMIN
 10
16.0764
 20
-7.7766
 30
0
  9
$EXTMAX
 10
206.0763
 20
269.2235
 30
0
  0
ENDSEC
  0
SECTION
  2
TABLES
  0
TABLE
  2
LTYPE
 70
256
  0
ENDTAB
  0
TABLE
  2
LAYER
 70
9
  0
LAYER
  2
LAYER_1
 70
64
 62
7
  6
CONTINUOUS
  0
LAYER
  2
LAYER_2
 70
64
 62
7
  6
CONTINUOUS
  0
LAYER
  2
LAYER_3
 70
64
 62
7
  6
CONTINUOUS
  0
LAYER
  2
LAYER_4
 70
64
 62
7
  6
CONTINUOUS
  0
LAYER
  2
LAYER_5
 70
64
 62
7
  6
CONTINUOUS
  0
LAYER
  2
LAYER_6
 70
64
 62
7
  6
CONTINUOUS
  0
LAYER
  2
LAYER_7
 70
64
 62
7
  6
CONTINUOUS
  0
LAYER
  2
LAYER_8
 70
64
 62
7
  6
CONTINUOUS
  0
LAYER
  2
LAYER_9
 70
64
 62
7
  6
CONTINUOUS
  0
ENDTAB
  0
TABLE
  2
STYLE
 70
6
  0
STYLE
  2
STANDARD
 70
0
 40
0
 50
0
 71
0
 41
0
 42
0
  3
TXT
  4
BIGFONT
  0
ENDTAB
  0
ENDSEC
  0
SECTION
  2
BLOCKS
  0
BLOCK
  8
LAYER_9
  2
AIGNBL09040006
 70
64
 10
0
 20
0
 30
0
  3
AIGNBL09040006
  0
POLYLINE
  8
LAYER_9
 40
0.05
 41
0.05
 66
1
 10
0
 20
0
 30
0
 70
1
  0
VERTEX
  8
LAYER_9
 10
129.456
 20
-2.0154
  0
VERTEX
  8
LAYER_9
 10
129.0416
 20
-3.02
  0
VERTEX
  8
LAYER_9
 10
128.5093
 20
-3.02
  0
VERTEX
  8
LAYER_9
 10
129.8649
 20
0.1719
  0
VERTEX
  8
LAYER_9
 10
130.4864
 20
0.1719
  0
VERTEX
  8
LAYER_9
 10
131.8483
 20
-3.02
  0
VERTEX
  8
LAYER_9
 10
131.2971
 20
-3.02
  0
VERTEX
  8
LAYER_9
 10
130.8709
 20
-2.0154
  0
SEQEND
  0
POLYLINE
  8
LAYER_9
 40
0.05
 41
0.05
 66
1
 10
0
 20
0
 30
0
 70
1
  0
VERTEX
  8
LAYER_9
 10
130.7645
 20
-1.6943
  0
VERTEX
  8
LAYER_9
 10
130.3738
 20
-0.7748
 42
-0.02216005297
  0
VERTEX
  8
LAYER_9
 10
130.1664
 20
-0.1926
  0
VERTEX
  8
LAYER_9
 10
130.1547
 20
-0.1926
  0
VERTEX
  8
LAYER_9
 10
129.9531
 20
-0.771
  0
VERTEX
  8
LAYER_9
 10
129.5628
 20
-1.6943
  0
SEQEND
  0
ENDBLK
  0
BLOCK
  8
LAYER_9
  2
AIGNBL09040007
 70
64
 10
0
 20
0
 30
0
  3
AIGNBL09040007
  0
POLYLINE
  8
LAYER_9
 40
0.05
 41
0.05
 66
1
 10
0
 20
0
 30
0
 70
1
  0
VERTEX
  8
LAYER_9
 10
135.5483
 20
-3.4888
 42
-0.01552181083
  0
VERTEX
  8
LAYER_9
 10
134.0208
 20
-3.1192
 42
0.09485548057
  0
VERTEX
  8
LAYER_9
 10
133.7779
 20
-3.0723
 42
-0.1003837549
  0
VERTEX
  8
LAYER_9
 10
132.9136
 20
-2.8753
 42
-0.1096977777
  0
VERTEX
  8
LAYER_9
 10
132.3509
 20
-2.4434
 42
-0.1713220547
  0
VERTEX
  8
LAYER_9
 10
132.0204
 20
-1.5054
 42
-0.006481895679
  0
VERTEX
  8
LAYER_9
 10
132.0198
 20
-1.4576
 42
-0.1157034776
  0
VERTEX
  8
LAYER_9
 10
132.1944
 20
-0.6874
 42
-0.1679073219
  0
VERTEX
  8
LAYER_9
 10
132.9309
 20
0.0216
 42
-0.1003512093
  0
VERTEX
  8
LAYER_9
 10
133.7293
 20
0.2196
 42
-0.01509702754
  0
VERTEX
  8
LAYER_9
 10
133.8788
 20
0.2239
 42
-0.1039813645
  0
VERTEX
  8
LAYER_9
 10
134.7542
 20
0.0481
 42
-0.1145898629
  0
VERTEX
  8
LAYER_9
 10
135.3272
 20
-0.3876
 42
-0.1701856296
  0
VERTEX
  8
LAYER_9
 10
135.666
 20
-1.3471
 42
-0.006054360336
  0
VERTEX
  8
LAYER_9
 10
135.6665
 20
-1.3911
 42
-0.1147479258
  0
VERTEX
  8
LAYER_9
 10
135.4962
 20
-2.1585
 42
-0.1768882835
  0
VERTEX
  8
LAYER_9
 10
134.7691
 20
-2.8357
 42
-0.03553098636
  0
VERTEX
  8
LAYER_9
 10
134.5299
 20
-2.9208
  0
VERTEX
  8
LAYER_9
 10
134.5299
 20
-2.9397
 42
0.015518042
  0
VERTEX
  8
LAYER_9
 10
135.6965
 20
-3.1433
  0
SEQEND
  0
POLYLINE
  8
LAYER_9
 40
0.05
 41
0.05
 66
1
 10
0
 20
0
 30
0
 70
1
  0
VERTEX
  8
LAYER_9
 10
135.1221
 20
-1.4094
 42
0.1259362341
  0
VERTEX
  8
LAYER_9
 10
134.9462
 20
-0.7184
 42
0.276679865
  0
VERTEX
  8
LAYER_9
 10
133.8606
 20
-0.1123
 42
0.1289955121
  0
VERTEX
  8
LAYER_9
 10
133.1745
 20
-0.2827
 42
0.1986420642
  0
VERTEX
  8
LAYER_9
 10
132.6285
 20
-1.0068
 42
0.0720917222
  0
VERTEX
  8
LAYER_9
 10
132.5704
 20
-1.4473
 42
0.1267003761
  0
VERTEX
  8
LAYER_9
 10
132.7336
 20
-2.1134
 42
0.2778201673
  0
VERTEX
  8
LAYER_9
 10
133.8371
 20
-2.7364
 42
0.1289462616
  0
VERTEX
  8
LAYER_9
 10
134.5134
 20
-2.5677
 42
0.1974163715
  0
VERTEX
  8
LAYER_9
 10
135.0613
 20
-1.849
 42
0.07132768739
  0
SEQEND
  0
ENDBLK
  0
BLOCK
  8
LAYER_9
  2
AIGNBL09040008
 70
64
 10
0
 20
0
 30
0
  3
AIGNBL09040008
  0
POLYLINE
  8
LAYER_9
 40
0.05
 41
0.05
 66
1
 10
0
 20
0
 30
0
 70
1
  0
VERTEX
  8
LAYER_9
 10
136.7917
 20
0.1719
  0
VERTEX
  8
LAYER_9
 10
136.7917
 20
-1.7177
 42
0.1389690947
  0
VERTEX
  8
LAYER_9
 10
136.9577
 20
-2.374
 42
0.2427126428
  0
VERTEX
  8
LAYER_9
 10
137.6108
 20
-2.7319
 42
0.02279498975
  0
VERTEX
  8
LAYER_9
 10
137.7211
 20
-2.7364
 42
0.1446729725
  0
VERTEX
  8
LAYER_9
 10
138.3259
 20
-2.5761
 42
0.1656579644
  0
VERTEX
  8
LAYER_9
 10
138.6235
 20
-2.1745
 42
0.08655069697
  0
VERTEX
  8
LAYER_9
 10
138.692
 20
-1.7177
  0
VERTEX
  8
LAYER_9
 10
138.692
 20
0.1719
  0
VERTEX
  8
LAYER_9
 10
139.2128
 20
0.1719
  0
VERTEX
  8
LAYER_9
 10
139.2128
 20
-1.6895
 42
-0.1213820876
  0
VERTEX
  8
LAYER_9
 10
139.0452
 20
-2.4294
 42
-0.2016338535
  0
VERTEX
  8
LAYER_9
 10
138.3376
 20
-2.9837
 42
-0.07892789043
  0
VERTEX
  8
LAYER_9
 10
137.7032
 20
-3.0723
 42
-0.1140673463
  0
VERTEX
  8
LAYER_9
 10
136.8908
 20
-2.9015
 42
-0.2086854916
  0
VERTEX
  8
LAYER_9
 10
136.338
 20
-2.2193
 42
-0.07376116688
  0
VERTEX
  8
LAYER_9
 10
136.2707
 20
-1.7081
  0
VERTEX
  8
LAYER_9
 10
136.2707
 20
0.1719
  0
SEQEND
  0
ENDBLK
  0
BLOCK
  8
LAYER_9
  2
AIGNBL09040009
 70
64
 10
0
 20
0
 30
0
  3
AIGNBL09040009
  0
POLYLINE
  8
LAYER_9
 40
0.05
 41
0.05
 66
1
 10
0
 20
0
 30
0
 70
1
  0
VERTEX
  8
LAYER_9
 10
140.6932
 20
-2.0154
  0
VERTEX
  8
LAYER_9
 10
140.2784
 20
-3.02
  0
VERTEX
  8
LAYER_9
 10
139.7462
 20
-3.02
  0
VERTEX
  8
LAYER_9
 10
141.1018
 20
0.1719
  0
VERTEX
  8
LAYER_9
 10
141.723
 20
0.1719
  0
VERTEX
  8
LAYER_9
 10
143.0848
 20
-3.02
  0
VERTEX
  8
LAYER_9
 10
142.5343
 20
-3.02
  0
VERTEX
  8
LAYER_9
 10
142.1081
 20
-2.0154
  0
SEQEND
  0
POLYLINE
  8
LAYER_9
 40
0.05
 41
0.05
 66
1
 10
0
 20
0
 30
0
 70
1
  0
VERTEX
  8
LAYER_9
 10
142.0013
 20
-1.6943
  0
VERTEX
  8
LAYER_9
 10
141.6103
 20
-0.7748
 42
-0.02125651819
  0
VERTEX
  8
LAYER_9
 10
141.4029
 20
-0.1926
  0
VERTEX
  8
LAYER_9
 10
141.3912
 20
-0.1926
 42
-0.02103918769
  0
VERTEX
  8
LAYER_9
 10
141.19
 20
-0.771
  0
VERTEX
  8
LAYER_9
 10
140.7993
 20
-1.6943
  0
SEQEND
  0
ENDBLK
  0
BLOCK
  8
LAYER_9
  2
AIGNBL0904000A
 70
64
 10
0
 20
0
 30
0
  3
AIGNBL0904000A
  0
POLYLINE
  8
LAYER_9
 40
0.05
 41
0.05
 66
1
 10
0
 20
0
 30
0
 70
1
  0
VERTEX
  8
LAYER_9
 10
143.9667
 20
0.134
 42
-0.03323004622
  0
VERTEX
  8
LAYER_9
 10
144.9558
 20
0.196
 42
-0.09647193575
  0
VERTEX
  8
LAYER_9
 10
145.8857
 20
0.0378
 42
-0.05236720747
  0
VERTEX
  8
LAYER_9
 10
146.0744
 20
-0.0692
 42
-0.2475259652
  0
VERTEX
  8
LAYER_9
 10
146.4234
 20
-0.7372
 42
-0.1633402787
  0
VERTEX
  8
LAYER_9
 10
146.2524
 20
-1.2789
 42
-0.05697727427
  0
VERTEX
  8
LAYER_9
 10
146.1158
 20
-1.419
 42
-0.07156855431
  0
VERTEX
  8
LAYER_9
 10
145.8226
 20
-1.5999
 42
-0.09992408918
  0
VERTEX
  8
LAYER_9
 10
145.0131
 20
-1.7676
 42
-0.009805001523
  0
VERTEX
  8
LAYER_9
 10
144.8962
 20
-1.7697
 42
-0.05927523618
  0
VERTEX
  8
LAYER_9
 10
144.4821
 20
-1.7412
  0
VERTEX
  8
LAYER_9
 10
144.4821
 20
-3.02
  0
VERTEX
  8
LAYER_9
 10
143.9667
 20
-3.02
  0
SEQEND
  0
POLYLINE
  8
LAYER_9
 40
0.05
 41
0.05
 66
1
 10
0
 20
0
 30
0
 70
1
  0
VERTEX
  8
LAYER_9
 10
144.4821
 20
-1.4049
 42
0.04848394292
  0
VERTEX
  8
LAYER_9
 10
144.9079
 20
-1.4383
 42
0.1267241775
  0
VERTEX
  8
LAYER_9
 10
145.6171
 20
-1.2783
 42
0.1801713856
  0
VERTEX
  8
LAYER_9
 10
145.8819
 20
-0.948
 42
0.07354410889
  0
VERTEX
  8
LAYER_9
 10
145.9091
 20
-0.7562
 42
0.3108550011
  0
VERTEX
  8
LAYER_9
 10
145.5518
 20
-0.2329
 42
0.1110538748
  0
VERTEX
  8
LAYER_9
 10
144.9679
 20
-0.1313
 42
0.05507706355
  0
VERTEX
  8
LAYER_9
 10
144.4821
 20
-0.1643
  0
SEQEND
  0
ENDBLK
  0
BLOCK
  8
LAYER_9
  2
AIGNBL0904000B
 70
64
 10
0
 20
0
 30
0
  3
AIGNBL0904000B
  0
POLYLINE
  8
LAYER_9
 40
0.05
 41
0.05
 66
1
 10
0
 20
0
 30
0
 70
1
  0
VERTEX
  8
LAYER_9
 10
147.7391
 20
-0.0837
 42
-0.324457032
  0
VERTEX
  8
LAYER_9
 10
147.577
 20
-0.309
 42
-0.09625236779
  0
VERTEX
  8
LAYER_9
 10
147.407
 20
-0.3397
 42
-0.2676203371
  0
VERTEX
  8
LAYER_9
 10
147.1164
 20
-0.1839
 42
-0.1146645173
  0
VERTEX
  8
LAYER_9
 10
147.0932
 20
-0.0837
 42
-0.3123927637
  0
VERTEX
  8
LAYER_9
 10
147.2663
 20
0.1485
 42
-0.09437290663
  0
VERTEX
  8
LAYER_9
 10
147.4187
 20
0.1764
 42
-0.2690720095
  0
VERTEX
  8
LAYER_9
 10
147.7152
 20
0.0218
 42
-0.1137202002
  0
SEQEND
  0
POLYLINE
  8
LAYER_9
 40
0.05
 41
0.05
 66
1
 10
0
 20
0
 30
0
 70
1
  0
VERTEX
  8
LAYER_9
 10
147.1579
 20
-3.02
  0
VERTEX
  8
LAYER_9
 10
147.1579
 20
-0.7279
  0
VERTEX
  8
LAYER_9
 10
147.6788
 20
-0.7279
  0
VERTEX
  8
LAYER_9
 10
147.6788
 20
-3.02
  0
SEQEND
  0
ENDBLK
  0
BLOCK
  8
LAYER_9
  2
AIGNBL0904000C
 70
64
 10
0
 20
0
 30
0
  3
AIGNBL0904000C
  0
POLYLINE
  8
LAYER_9
 40
0.05
 41
0.05
 66
1
 10
0
 20
0
 30
0
 70
1
  0
VERTEX
  8
LAYER_9
 10
149.2653
 20
-2.0154
  0
VERTEX
  8
LAYER_9
 10
148.8515
 20
-3.02
  0
VERTEX
  8
LAYER_9
 10
148.3183
 20
-3.02
  0
VERTEX
  8
LAYER_9
 10
149.6742
 20
0.1719
  0
VERTEX
  8
LAYER_9
 10
150.2961
 20
0.1719
  0
VERTEX
  8
LAYER_9
 10
151.6579
 20
-3.02
  0
VERTEX
  8
LAYER_9
 10
151.1071
 20
-3.02
  0
VERTEX
  8
LAYER_9
 10
150.6809
 20
-2.0154
  0
SEQEND
  0
POLYLINE
  8
LAYER_9
 40
0.05
 41
0.05
 66
1
 10
0
 20
0
 30
0
 70
1
  0
VERTEX
  8
LAYER_9
 10
150.5741
 20
-1.6943
  0
VERTEX
  8
LAYER_9
 10
150.1834
 20
-0.7748
 42
-0.02374663041
  0
VERTEX
  8
LAYER_9
 10
149.9767
 20
-0.1926
  0
VERTEX
  8
LAYER_9
 10
149.9643
 20
-0.1926
  0
VERTEX
  8
LAYER_9
 10
149.7631
 20
-0.771
  0
VERTEX
  8
LAYER_9
 10
149.3725
 20
-1.6943
  0
SEQEND
  0
ENDBLK
  0
BLOCK
  8
LAYER_9
  2
AIGNBL09030005
 70
64
 10
0
 20
0
 30
0
  3
AIGNBL09030005
  0
INSERT
  8
LAYER_9
  2
AIGNBL09040006
 10
0
 20
0
 30
0
  0
INSERT
  8
LAYER_9
  2
AIGNBL09040007
 10
0
 20
0
 30
0
  0
INSERT
  8
LAYER_9
  2
AIGNBL09040008
 10
0
 20
0
 30
0
  0
INSERT
  8
LAYER_9
  2
AIGNBL09040009
 10
0
 20
0
 30
0
  0
INSERT
  8
LAYER_9
  2
AIGNBL0904000A
 10
0
 20
0
 30
0
  0
INSERT
  8
LAYER_9
  2
AIGNBL0904000B
 10
0
 20
0
 30
0
  0
INSERT
  8
LAYER_9
  2
AIGNBL0904000C
 10
0
 20
0
 30
0
  0
ENDBLK
  0
BLOCK
  8
LAYER_9
  2
AIGNBL0903000E
 70
64
 10
0
 20
0
 30
0
  3
AIGNBL0903000E
  0
POLYLINE
  8
LAYER_9
 40
0.05
 41
0.05
 66
1
 10
0
 20
0
 30
0
 70
1
  0
VERTEX
  8
LAYER_9
 10
128.6023
 20
-4.6299
  0
VERTEX
  8
LAYER_9
 10
129.0715
 20
-4.6299
  0
VERTEX
  8
LAYER_9
 10
129.0715
 20
-4.7094
  0
VERTEX
  8
LAYER_9
 10
128.5134
 20
-4.7094
  0
VERTEX
  8
LAYER_9
 10
128.5134
 20
-3.8337
  0
VERTEX
  8
LAYER_9
 10
129.0564
 20
-3.8337
  0
VERTEX
  8
LAYER_9
 10
129.0564
 20
-3.9126
  0
VERTEX
  8
LAYER_9
 10
128.6023
 20
-3.9126
  0
VERTEX
  8
LAYER_9
 10
128.6023
 20
-4.213
  0
VERTEX
  8
LAYER_9
 10
129.0267
 20
-4.213
  0
VERTEX
  8
LAYER_9
 10
129.0267
 20
-4.2922
  0
VERTEX
  8
LAYER_9
 10
128.6023
 20
-4.2922
  0
SEQEND
  0
ENDBLK
  0
BLOCK
  8
LAYER_9
  2
AIGNBL0903000F
 70
64
 10
0
 20
0
 30
0
  3
AIGNBL0903000F
  0
POLYLINE
  8
LAYER_9
 40
0.05
 41
0.05
 66
1
 10
0
 20
0
 30
0
 70
1
  0
VERTEX
  8
LAYER_9
 10
130.0376
 20
-4.5792
  0
VERTEX
  8
LAYER_9
 10
130.0396
 20
-4.5792
  0
VERTEX
  8
LAYER_9
 10
130.0396
 20
-3.8337
  0
VERTEX
  8
LAYER_9
 10
130.1288
 20
-3.8337
  0
VERTEX
  8
LAYER_9
 10
130.1288
 20
-4.7094
  0
VERTEX
  8
LAYER_9
 10
130.0179
 20
-4.7094
  0
VERTEX
  8
LAYER_9
 10
129.5084
 20
-3.956
  0
VERTEX
  8
LAYER_9
 10
129.5053
 20
-3.956
  0
VERTEX
  8
LAYER_9
 10
129.5053
 20
-4.7094
  0
VERTEX
  8
LAYER_9
 10
129.4167
 20
-4.7094
  0
VERTEX
  8
LAYER_9
 10
129.4167
 20
-3.8337
  0
VERTEX
  8
LAYER_9
 10
129.5277
 20
-3.8337
  0
SEQEND
  0
ENDBLK
  0
BLOCK
  8
LAYER_9
  2
AIGNBL09030010
 70
64
 10
0
 20
0
 30
0
  3
AIGNBL09030010
  0
POLYLINE
  8
LAYER_9
 40
0.05
 41
0.05
 66
1
 10
0
 20
0
 30
0
 70
1
  0
VERTEX
  8
LAYER_9
 10
130.5299
 20
-4.5296
 42
0.1582167888
  0
VERTEX
  8
LAYER_9
 10
130.576
 20
-4.6171
 42
0.1888509688
  0
VERTEX
  8
LAYER_9
 10
130.6718
 20
-4.6523
  0
VERTEX
  8
LAYER_9
 10
130.7476
 20
-4.6357
  0
VERTEX
  8
LAYER_9
 10
130.7951
 20
-4.5906
  0
VERTEX
  8
LAYER_9
 10
130.8196
 20
-4.5255
  0
VERTEX
  8
LAYER_9
 10
130.8268
 20
-4.4497
  0
VERTEX
  8
LAYER_9
 10
130.8268
 20
-3.8337
  0
VERTEX
  8
LAYER_9
 10
130.9157
 20
-3.8337
  0
VERTEX
  8
LAYER_9
 10
130.9157
 20
-4.4569
  0
VERTEX
  8
LAYER_9
 10
130.9061
 20
-4.5482
  0
VERTEX
  8
LAYER_9
 10
130.8709
 20
-4.6374
 42
-0.1127204021
  0
VERTEX
  8
LAYER_9
 10
130.7992
 20
-4.705
 42
-0.1223515967
  0
VERTEX
  8
LAYER_9
 10
130.6814
 20
-4.7315
 42
-0.1817315996
  0
VERTEX
  8
LAYER_9
 10
130.525
 20
-4.6805
 42
-0.1775350534
  0
VERTEX
  8
LAYER_9
 10
130.4468
 20
-4.5524
  0
SEQEND
  0
ENDBLK
  0
BLOCK
  8
LAYER_9
  2
AIGNBL09030011
 70
64
 10
0
 20
0
 30
0
  3
AIGNBL09030011
  0
POLYLINE
  8
LAYER_9
 40
0.05
 41
0.05
 66
1
 10
0
 20
0
 30
0
 70
1
  0
VERTEX
  8
LAYER_9
 10
132.1773
 20
-4.2712
 42
-0.1023210957
  0
VERTEX
  8
LAYER_9
 10
132.1425
 20
-4.4555
 42
-0.100049973
  0
VERTEX
  8
LAYER_9
 10
132.047
 20
-4.6009
 42
-0.09591375735
  0
VERTEX
  8
LAYER_9
 10
131.902
 20
-4.6967
 42
-0.09730113973
  0
VERTEX
  8
LAYER_9
 10
131.7208
 20
-4.7315
 42
-0.1005044879
  0
VERTEX
  8
LAYER_9
 10
131.5396
 20
-4.6967
 42
-0.1000956886
  0
VERTEX
  8
LAYER_9
 10
131.3949
 20
-4.6009
 42
-0.09705125056
  0
VERTEX
  8
LAYER_9
 10
131.2988
 20
-4.4555
 42
-0.09606953098
  0
VERTEX
  8
LAYER_9
 10
131.2643
 20
-4.2712
 42
-0.1007319707
  0
VERTEX
  8
LAYER_9
 10
131.2988
 20
-4.0869
 42
-0.1001858518
  0
VERTEX
  8
LAYER_9
 10
131.3949
 20
-3.9416
 42
-0.09844109675
  0
VERTEX
  8
LAYER_9
 10
131.5396
 20
-3.8458
 42
-0.09730113973
  0
VERTEX
  8
LAYER_9
 10
131.7208
 20
-3.811
 42
-0.1005044879
  0
VERTEX
  8
LAYER_9
 10
131.902
 20
-3.8458
 42
-0.09944636466
  0
VERTEX
  8
LAYER_9
 10
132.047
 20
-3.9416
 42
-0.09657751445
  0
VERTEX
  8
LAYER_9
 10
132.1425
 20
-4.0869
 42
-0.09699716326
  0
SEQEND
  0
POLYLINE
  8
LAYER_9
 40
0.05
 41
0.05
 66
1
 10
0
 20
0
 30
0
 70
1
  0
VERTEX
  8
LAYER_9
 10
132.0832
 20
-4.2719
 42
0.08590651275
  0
VERTEX
  8
LAYER_9
 10
132.0588
 20
-4.1262
 42
0.09671154951
  0
VERTEX
  8
LAYER_9
 10
131.9868
 20
-4.0046
 42
0.1020590541
  0
VERTEX
  8
LAYER_9
 10
131.8724
 20
-3.9215
 42
0.106231093
  0
VERTEX
  8
LAYER_9
 10
131.7208
 20
-3.8902
 42
0.1137246109
  0
VERTEX
  8
LAYER_9
 10
131.5692
 20
-3.9215
 42
0.1061646081
  0
VERTEX
  8
LAYER_9
 10
131.4552
 20
-4.0046
 42
0.09706696705
  0
VERTEX
  8
LAYER_9
 10
131.3832
 20
-4.1262
 42
0.08453380862
  0
VERTEX
  8
LAYER_9
 10
131.3584
 20
-4.2719
 42
0.08539697836
  0
VERTEX
  8
LAYER_9
 10
131.3832
 20
-4.4177
 42
0.1012181166
  0
VERTEX
  8
LAYER_9
 10
131.4552
 20
-4.5389
 42
0.09946553095
  0
VERTEX
  8
LAYER_9
 10
131.5692
 20
-4.6212
 42
0.1061791796
  0
VERTEX
  8
LAYER_9
 10
131.7208
 20
-4.6523
 42
0.1152832113
  0
VERTEX
  8
LAYER_9
 10
131.8724
 20
-4.6212
 42
0.10635245
  0
VERTEX
  8
LAYER_9
 10
131.9868
 20
-4.5389
 42
0.09368815098
  0
VERTEX
  8
LAYER_9
 10
132.0588
 20
-4.4177
 42
0.0834821187
  0
SEQEND
  0
ENDBLK
  0
BLOCK
  8
LAYER_9
  2
AIGNBL09030012
 70
64
 10
0
 20
0
 30
0
  3
AIGNBL09030012
  0
POLYLINE
  8
LAYER_9
 40
0.05
 41
0.05
 66
1
 10
0
 20
0
 30
0
 70
1
  0
VERTEX
  8
LAYER_9
 10
132.8339
 20
-4.7094
  0
VERTEX
  8
LAYER_9
 10
132.7451
 20
-4.7094
  0
VERTEX
  8
LAYER_9
 10
132.7451
 20
-4.3319
  0
VERTEX
  8
LAYER_9
 10
132.4174
 20
-3.8337
  0
VERTEX
  8
LAYER_9
 10
132.5287
 20
-3.8337
  0
VERTEX
  8
LAYER_9
 10
132.7922
 20
-4.2575
  0
VERTEX
  8
LAYER_9
 10
133.0579
 20
-3.8337
  0
VERTEX
  8
LAYER_9
 10
133.1615
 20
-3.8337
  0
VERTEX
  8
LAYER_9
 10
132.8339
 20
-4.3319
  0
SEQEND
  0
ENDBLK
  0
BLOCK
  8
LAYER_9
  2
AIGNBL09030013
 70
64
 10
0
 20
0
 30
0
  3
AIGNBL09030013
  0
POLYLINE
  8
LAYER_9
 40
0.05
 41
0.05
 66
1
 10
0
 20
0
 30
0
 70
1
  0
VERTEX
  8
LAYER_9
 10
133.9288
 20
-3.8337
  0
VERTEX
  8
LAYER_9
 10
134.1896
 20
-3.8337
  0
VERTEX
  8
LAYER_9
 10
134.2898
 20
-3.844
  0
VERTEX
  8
LAYER_9
 10
134.3804
 20
-3.8798
 42
-0.1156779106
  0
VERTEX
  8
LAYER_9
 10
134.4466
 20
-3.9488
 42
-0.1209575962
  0
VERTEX
  8
LAYER_9
 10
134.4717
 20
-4.0573
 42
-0.1791591056
  0
VERTEX
  8
LAYER_9
 10
134.4294
 20
-4.1779
 42
-0.1661642399
  0
VERTEX
  8
LAYER_9
 10
134.3164
 20
-4.2454
  0
VERTEX
  8
LAYER_9
 10
134.3164
 20
-4.2474
 42
-0.1711702155
  0
VERTEX
  8
LAYER_9
 10
134.4576
 20
-4.3139
 42
-0.1994341856
  0
VERTEX
  8
LAYER_9
 10
134.5137
 20
-4.4669
 42
-0.1266512869
  0
VERTEX
  8
LAYER_9
 10
134.4907
 20
-4.5661
 42
-0.1175617318
  0
VERTEX
  8
LAYER_9
 10
134.4259
 20
-4.6429
 42
-0.0864784881
  0
VERTEX
  8
LAYER_9
 10
134.3236
 20
-4.6919
 42
-0.06453463165
  0
VERTEX
  8
LAYER_9
 10
134.1882
 20
-4.7094
  0
VERTEX
  8
LAYER_9
 10
133.9288
 20
-4.7094
  0
SEQEND
  0
POLYLINE
  8
LAYER_9
 40
0.05
 41
0.05
 66
1
 10
0
 20
0
 30
0
 70
1
  0
VERTEX
  8
LAYER_9
 10
134.0177
 20
-4.2168
  0
VERTEX
  8
LAYER_9
 10
134.1972
 20
-4.2168
  0
VERTEX
  8
LAYER_9
 10
134.2622
 20
-4.2092
  0
VERTEX
  8
LAYER_9
 10
134.3219
 20
-4.1844
  0
VERTEX
  8
LAYER_9
 10
134.366
 20
-4.1365
 42
0.1124215474
  0
VERTEX
  8
LAYER_9
 10
134.3825
 20
-4.0635
  0
VERTEX
  8
LAYER_9
 10
134.366
 20
-3.9925
  0
VERTEX
  8
LAYER_9
 10
134.3208
 20
-3.9446
  0
VERTEX
  8
LAYER_9
 10
134.254
 20
-3.9181
  0
VERTEX
  8
LAYER_9
 10
134.1724
 20
-3.9102
  0
VERTEX
  8
LAYER_9
 10
134.0177
 20
-3.9102
  0
SEQEND
  0
POLYLINE
  8
LAYER_9
 40
0.05
 41
0.05
 66
1
 10
0
 20
0
 30
0
 70
1
  0
VERTEX
  8
LAYER_9
 10
134.0177
 20
-4.6326
  0
VERTEX
  8
LAYER_9
 10
134.1837
 20
-4.6326
  0
VERTEX
  8
LAYER_9
 10
134.2757
 20
-4.623
  0
VERTEX
  8
LAYER_9
 10
134.3525
 20
-4.5937
  0
VERTEX
  8
LAYER_9
 10
134.4046
 20
-4.5403
 42
0.1274798788
  0
VERTEX
  8
LAYER_9
 10
134.4245
 20
-4.4618
 42
0.2508484857
  0
VERTEX
  8
LAYER_9
 10
134.366
 20
-4.3326
 42
0.1505365177
  0
VERTEX
  8
LAYER_9
 10
134.1996
 20
-4.2898
  0
VERTEX
  8
LAYER_9
 10
134.0177
 20
-4.2898
  0
SEQEND
  0
ENDBLK
  0
BLOCK
  8
LAYER_9
  2
AIGNBL09030014
 70
64
 10
0
 20
0
 30
0
  3
AIGNBL09030014
  0
POLYLINE
  8
LAYER_9
 40
0.05
 41
0.05
 66
1
 10
0
 20
0
 30
0
 70
1
  0
VERTEX
  8
LAYER_9
 10
134.88
 20
-4.7094
  0
VERTEX
  8
LAYER_9
 10
134.7821
 20
-4.7094
  0
VERTEX
  8
LAYER_9
 10
135.1607
 20
-3.8337
  0
VERTEX
  8
LAYER_9
 10
135.2476
 20
-3.8337
  0
VERTEX
  8
LAYER_9
 10
135.6234
 20
-4.7094
  0
VERTEX
  8
LAYER_9
 10
135.5242
 20
-4.7094
  0
VERTEX
  8
LAYER_9
 10
135.4277
 20
-4.4793
  0
VERTEX
  8
LAYER_9
 10
134.975
 20
-4.4793
  0
SEQEND
  0
POLYLINE
  8
LAYER_9
 40
0.05
 41
0.05
 66
1
 10
0
 20
0
 30
0
 70
1
  0
VERTEX
  8
LAYER_9
 10
135.0081
 20
-4.3973
  0
VERTEX
  8
LAYER_9
 10
135.3943
 20
-4.3973
  0
VERTEX
  8
LAYER_9
 10
135.2014
 20
-3.9322
  0
SEQEND
  0
ENDBLK
  0
BLOCK
  8
LAYER_9
  2
AIGNBL09030015
 70
64
 10
0
 20
0
 30
0
  3
AIGNBL09030015
  0
POLYLINE
  8
LAYER_9
 40
0.05
 41
0.05
 66
1
 10
0
 20
0
 30
0
 70
1
  0
VERTEX
  8
LAYER_9
 10
136.2036
 20
-4.7094
  0
VERTEX
  8
LAYER_9
 10
136.1143
 20
-4.7094
  0
VERTEX
  8
LAYER_9
 10
136.1143
 20
-3.9126
  0
VERTEX
  8
LAYER_9
 10
135.8208
 20
-3.9126
  0
VERTEX
  8
LAYER_9
 10
135.8208
 20
-3.8337
  0
VERTEX
  8
LAYER_9
 10
136.4964
 20
-3.8337
  0
VERTEX
  8
LAYER_9
 10
136.4964
 20
-3.9126
  0
VERTEX
  8
LAYER_9
 10
136.2036
 20
-3.9126
  0
SEQEND
  0
ENDBLK
  0
BLOCK
  8
LAYER_9
  2
AIGNBL09030016
 70
64
 10
0
 20
0
 30
0
  3
AIGNBL09030016
  0
POLYLINE
  8
LAYER_9
 40
0.05
 41
0.05
 66
1
 10
0
 20
0
 30
0
 70
1
  0
VERTEX
  8
LAYER_9
 10
136.7982
 20
-3.8337
  0
VERTEX
  8
LAYER_9
 10
136.8871
 20
-3.8337
  0
VERTEX
  8
LAYER_9
 10
136.8871
 20
-4.213
  0
VERTEX
  8
LAYER_9
 10
137.3649
 20
-4.213
  0
VERTEX
  8
LAYER_9
 10
137.3649
 20
-3.8337
  0
VERTEX
  8
LAYER_9
 10
137.4538
 20
-3.8337
  0
VERTEX
  8
LAYER_9
 10
137.4538
 20
-4.7094
  0
VERTEX
  8
LAYER_9
 10
137.3649
 20
-4.7094
  0
VERTEX
  8
LAYER_9
 10
137.3649
 20
-4.2946
  0
VERTEX
  8
LAYER_9
 10
136.8871
 20
-4.2946
  0
VERTEX
  8
LAYER_9
 10
136.8871
 20
-4.7094
  0
VERTEX
  8
LAYER_9
 10
136.7982
 20
-4.7094
  0
SEQEND
  0
ENDBLK
  0
BLOCK
  8
LAYER_9
  2
AIGNBL09030017
 70
64
 10
0
 20
0
 30
0
  3
AIGNBL09030017
  0
POLYLINE
  8
LAYER_9
 40
0.05
 41
0.05
 66
1
 10
0
 20
0
 30
0
 70
1
  0
VERTEX
  8
LAYER_9
 10
137.9457
 20
-4.7094
  0
VERTEX
  8
LAYER_9
 10
137.8569
 20
-4.7094
  0
VERTEX
  8
LAYER_9
 10
137.8569
 20
-3.8337
  0
VERTEX
  8
LAYER_9
 10
138.1142
 20
-3.8337
  0
VERTEX
  8
LAYER_9
 10
138.2334
 20
-3.8458
  0
VERTEX
  8
LAYER_9
 10
138.3289
 20
-3.8861
 42
-0.1283108691
  0
VERTEX
  8
LAYER_9
 10
138.3912
 20
-3.9584
 42
-0.1051928432
  0
VERTEX
  8
LAYER_9
 10
138.4132
 20
-4.0673
  0
VERTEX
  8
LAYER_9
 10
138.3964
 20
-4.1551
  0
VERTEX
  8
LAYER_9
 10
138.3495
 20
-4.2237
  0
VERTEX
  8
LAYER_9
 10
138.2789
 20
-4.2702
  0
VERTEX
  8
LAYER_9
 10
138.1897
 20
-4.2922
  0
VERTEX
  8
LAYER_9
 10
138.4456
 20
-4.7094
  0
VERTEX
  8
LAYER_9
 10
138.3368
 20
-4.7094
  0
VERTEX
  8
LAYER_9
 10
138.0946
 20
-4.2998
  0
VERTEX
  8
LAYER_9
 10
137.9457
 20
-4.2998
  0
SEQEND
  0
POLYLINE
  8
LAYER_9
 40
0.05
 41
0.05
 66
1
 10
0
 20
0
 30
0
 70
1
  0
VERTEX
  8
LAYER_9
 10
137.9457
 20
-4.223
  0
VERTEX
  8
LAYER_9
 10
138.1008
 20
-4.223
 42
0.1560036385
  0
VERTEX
  8
LAYER_9
 10
138.2665
 20
-4.1844
 42
0.256718439
  0
VERTEX
  8
LAYER_9
 10
138.3247
 20
-4.0673
  0
VERTEX
  8
LAYER_9
 10
138.3082
 20
-3.9946
  0
VERTEX
  8
LAYER_9
 10
138.2637
 20
-3.946
  0
VERTEX
  8
LAYER_9
 10
138.1948
 20
-3.9188
  0
VERTEX
  8
LAYER_9
 10
138.1046
 20
-3.9102
  0
VERTEX
  8
LAYER_9
 10
137.9457
 20
-3.9102
  0
SEQEND
  0
ENDBLK
  0
BLOCK
  8
LAYER_9
  2
AIGNBL09030018
 70
64
 10
0
 20
0
 30
0
  3
AIGNBL09030018
  0
POLYLINE
  8
LAYER_9
 40
0.05
 41
0.05
 66
1
 10
0
 20
0
 30
0
 70
1
  0
VERTEX
  8
LAYER_9
 10
139.6342
 20
-4.2712
 42
-0.09919881555
  0
VERTEX
  8
LAYER_9
 10
139.5997
 20
-4.4555
 42
-0.1002507449
  0
VERTEX
  8
LAYER_9
 10
139.5036
 20
-4.6009
 42
-0.09817592867
  0
VERTEX
  8
LAYER_9
 10
139.3593
 20
-4.6967
 42
-0.09703887645
  0
VERTEX
  8
LAYER_9
 10
139.1777
 20
-4.7315
 42
-0.1005044879
  0
VERTEX
  8
LAYER_9
 10
138.9965
 20
-4.6967
 42
-0.1014225475
  0
VERTEX
  8
LAYER_9
 10
138.8522
 20
-4.6009
 42
-0.1006710624
  0
VERTEX
  8
LAYER_9
 10
138.7564
 20
-4.4555
 42
-0.09606953098
  0
VERTEX
  8
LAYER_9
 10
138.7219
 20
-4.2712
 42
-0.1007319707
  0
VERTEX
  8
LAYER_9
 10
138.7564
 20
-4.0869
 42
-0.1015908991
  0
VERTEX
  8
LAYER_9
 10
138.8522
 20
-3.9416
 42
-0.09884634081
  0
VERTEX
  8
LAYER_9
 10
138.9965
 20
-3.8458
 42
-0.09730113973
  0
VERTEX
  8
LAYER_9
 10
139.1777
 20
-3.811
 42
-0.1004491736
  0
VERTEX
  8
LAYER_9
 10
139.3593
 20
-3.8458
 42
-0.103270482
  0
VERTEX
  8
LAYER_9
 10
139.5036
 20
-3.9416
 42
-0.09614814713
  0
VERTEX
  8
LAYER_9
 10
139.5997
 20
-4.0869
 42
-0.09519358797
  0
SEQEND
  0
POLYLINE
  8
LAYER_9
 40
0.05
 41
0.05
 66
1
 10
0
 20
0
 30
0
 70
1
  0
VERTEX
  8
LAYER_9
 10
139.5402
 20
-4.2719
 42
0.09005809491
  0
VERTEX
  8
LAYER_9
 10
139.5154
 20
-4.1262
 42
0.09823469525
  0
VERTEX
  8
LAYER_9
 10
139.4437
 20
-4.0046
 42
0.1015931446
  0
VERTEX
  8
LAYER_9
 10
139.3293
 20
-3.9215
 42
0.1064387823
  0
VERTEX
  8
LAYER_9
 10
139.1777
 20
-3.8902
 42
0.1146236776
  0
VERTEX
  8
LAYER_9
 10
139.0265
 20
-3.9215
 42
0.1048939392
  0
VERTEX
  8
LAYER_9
 10
138.9117
 20
-4.0046
 42
0.09514694971
  0
VERTEX
  8
LAYER_9
 10
138.8401
 20
-4.1262
 42
0.08394620596
  0
VERTEX
  8
LAYER_9
 10
138.8157
 20
-4.2719
 42
0.08914187326
  0
VERTEX
  8
LAYER_9
 10
138.8401
 20
-4.4177
 42
0.09716720095
  0
VERTEX
  8
LAYER_9
 10
138.9117
 20
-4.5389
 42
0.09885574029
  0
VERTEX
  8
LAYER_9
 10
139.0265
 20
-4.6212
 42
0.1065525522
  0
VERTEX
  8
LAYER_9
 10
139.1777
 20
-4.6523
 42
0.1160974191
  0
VERTEX
  8
LAYER_9
 10
139.3293
 20
-4.6212
 42
0.1037742872
  0
VERTEX
  8
LAYER_9
 10
139.4437
 20
-4.5389
 42
0.09874351489
  0
VERTEX
  8
LAYER_9
 10
139.5154
 20
-4.4177
 42
0.08539015582
  0
SEQEND
  0
ENDBLK
  0
BLOCK
  8
LAYER_9
  2
AIGNBL09030019
 70
64
 10
0
 20
0
 30
0
  3
AIGNBL09030019
  0
POLYLINE
  8
LAYER_9
 40
0.05
 41
0.05
 66
1
 10
0
 20
0
 30
0
 70
1
  0
VERTEX
  8
LAYER_9
 10
140.8565
 20
-4.2712
 42
-0.1005579471
  0
VERTEX
  8
LAYER_9
 10
140.8217
 20
-4.4555
 42
-0.09829254072
  0
VERTEX
  8
LAYER_9
 10
140.7263
 20
-4.6009
 42
-0.09635359363
  0
VERTEX
  8
LAYER_9
 10
140.5812
 20
-4.6967
 42
-0.09730113973
  0
VERTEX
  8
LAYER_9
 10
140.4
 20
-4.7315
 42
-0.1010483144
  0
VERTEX
  8
LAYER_9
 10
140.2188
 20
-4.6967
 42
-0.1015483086
  0
VERTEX
  8
LAYER_9
 10
140.0741
 20
-4.6009
 42
-0.09705125056
  0
VERTEX
  8
LAYER_9
 10
139.978
 20
-4.4555
 42
-0.09594934368
  0
VERTEX
  8
LAYER_9
 10
139.9436
 20
-4.2712
 42
-0.1009359332
  0
VERTEX
  8
LAYER_9
 10
139.978
 20
-4.0869
 42
-0.1001858518
  0
VERTEX
  8
LAYER_9
 10
140.0741
 20
-3.9416
 42
-0.09916337287
  0
VERTEX
  8
LAYER_9
 10
140.2188
 20
-3.8458
 42
-0.09743363976
  0
VERTEX
  8
LAYER_9
 10
140.4
 20
-3.811
 42
-0.1005044879
  0
VERTEX
  8
LAYER_9
 10
140.5812
 20
-3.8458
 42
-0.09950324727
  0
VERTEX
  8
LAYER_9
 10
140.7263
 20
-3.9416
 42
-0.09627394303
  0
VERTEX
  8
LAYER_9
 10
140.8217
 20
-4.0869
 42
-0.09626911005
  0
SEQEND
  0
POLYLINE
  8
LAYER_9
 40
0.05
 41
0.05
 66
1
 10
0
 20
0
 30
0
 70
1
  0
VERTEX
  8
LAYER_9
 10
140.7625
 20
-4.2719
 42
0.08744350066
  0
VERTEX
  8
LAYER_9
 10
140.7377
 20
-4.1262
 42
0.0974662867
  0
VERTEX
  8
LAYER_9
 10
140.666
 20
-4.0046
 42
0.1015931446
  0
VERTEX
  8
LAYER_9
 10
140.5516
 20
-3.9215
 42
0.1060164095
  0
VERTEX
  8
LAYER_9
 10
140.4
 20
-3.8902
 42
0.1150639473
  0
VERTEX
  8
LAYER_9
 10
140.2485
 20
-3.9215
 42
0.1052132674
  0
VERTEX
  8
LAYER_9
 10
140.1341
 20
-4.0046
 42
0.09840570806
  0
VERTEX
  8
LAYER_9
 10
140.0624
 20
-4.1262
 42
0.08491299828
  0
VERTEX
  8
LAYER_9
 10
140.0376
 20
-4.2719
 42
0.08802482071
  0
VERTEX
  8
LAYER_9
 10
140.0624
 20
-4.4177
 42
0.1001537592
  0
VERTEX
  8
LAYER_9
 10
140.1341
 20
-4.5389
 42
0.1000329357
  0
VERTEX
  8
LAYER_9
 10
140.2485
 20
-4.6212
 42
0.1065438079
  0
VERTEX
  8
LAYER_9
 10
140.4
 20
-4.6523
 42
0.1150863754
  0
VERTEX
  8
LAYER_9
 10
140.5516
 20
-4.6212
 42
0.1037742872
  0
VERTEX
  8
LAYER_9
 10
140.666
 20
-4.5389
 42
0.0931574303
  0
VERTEX
  8
LAYER_9
 10
140.7377
 20
-4.4177
 42
0.08489455374
  0
SEQEND
  0
ENDBLK
  0
BLOCK
  8
LAYER_9
  2
AIGNBL0903001A
 70
64
 10
0
 20
0
 30
0
  3
AIGNBL0903001A
  0
POLYLINE
  8
LAYER_9
 40
0.05
 41
0.05
 66
1
 10
0
 20
0
 30
0
 70
1
  0
VERTEX
  8
LAYER_9
 10
141.6454
 20
-4.5582
  0
VERTEX
  8
LAYER_9
 10
141.6468
 20
-4.5582
  0
VERTEX
  8
LAYER_9
 10
141.9396
 20
-3.8337
  0
VERTEX
  8
LAYER_9
 10
142.0761
 20
-3.8337
  0
VERTEX
  8
LAYER_9
 10
142.0761
 20
-4.7094
  0
VERTEX
  8
LAYER_9
 10
141.9868
 20
-4.7094
  0
VERTEX
  8
LAYER_9
 10
141.9868
 20
-3.9488
  0
VERTEX
  8
LAYER_9
 10
141.9844
 20
-3.9488
  0
VERTEX
  8
LAYER_9
 10
141.6678
 20
-4.7094
  0
VERTEX
  8
LAYER_9
 10
141.621
 20
-4.7094
  0
VERTEX
  8
LAYER_9
 10
141.304
 20
-3.9488
  0
VERTEX
  8
LAYER_9
 10
141.3016
 20
-3.9488
  0
VERTEX
  8
LAYER_9
 10
141.3016
 20
-4.7094
  0
VERTEX
  8
LAYER_9
 10
141.2127
 20
-4.7094
  0
VERTEX
  8
LAYER_9
 10
141.2127
 20
-3.8337
  0
VERTEX
  8
LAYER_9
 10
141.3488
 20
-3.8337
  0
SEQEND
  0
ENDBLK
  0
BLOCK
  8
LAYER_9
  2
AIGNBL0903001B
 70
64
 10
0
 20
0
 30
0
  3
AIGNBL0903001B
  0
POLYLINE
  8
LAYER_9
 40
0.05
 41
0.05
 66
1
 10
0
 20
0
 30
0
 70
1
  0
VERTEX
  8
LAYER_9
 10
143.0479
 20
-4.6299
  0
VERTEX
  8
LAYER_9
 10
143.5168
 20
-4.6299
  0
VERTEX
  8
LAYER_9
 10
143.5168
 20
-4.7094
  0
VERTEX
  8
LAYER_9
 10
142.9587
 20
-4.7094
  0
VERTEX
  8
LAYER_9
 10
142.9587
 20
-3.8337
  0
VERTEX
  8
LAYER_9
 10
143.502
 20
-3.8337
  0
VERTEX
  8
LAYER_9
 10
143.502
 20
-3.9126
  0
VERTEX
  8
LAYER_9
 10
143.0479
 20
-3.9126
  0
VERTEX
  8
LAYER_9
 10
143.0479
 20
-4.213
  0
VERTEX
  8
LAYER_9
 10
143.472
 20
-4.213
  0
VERTEX
  8
LAYER_9
 10
143.472
 20
-4.2922
  0
VERTEX
  8
LAYER_9
 10
143.0479
 20
-4.2922
  0
SEQEND
  0
ENDBLK
  0
BLOCK
  8
LAYER_9
  2
AIGNBL0903001C
 70
64
 10
0
 20
0
 30
0
  3
AIGNBL0903001C
  0
POLYLINE
  8
LAYER_9
 40
0.05
 41
0.05
 66
1
 10
0
 20
0
 30
0
 70
1
  0
VERTEX
  8
LAYER_9
 10
144.1487
 20
-4.1872
  0
VERTEX
  8
LAYER_9
 10
144.3877
 20
-3.8337
  0
VERTEX
  8
LAYER_9
 10
144.4935
 20
-3.8337
  0
VERTEX
  8
LAYER_9
 10
144.2034
 20
-4.2502
  0
VERTEX
  8
LAYER_9
 10
144.5249
 20
-4.7094
  0
VERTEX
  8
LAYER_9
 10
144.4136
 20
-4.7094
  0
VERTEX
  8
LAYER_9
 10
144.1462
 20
-4.3146
  0
VERTEX
  8
LAYER_9
 10
143.8803
 20
-4.7094
  0
VERTEX
  8
LAYER_9
 10
143.769
 20
-4.7094
  0
VERTEX
  8
LAYER_9
 10
144.0908
 20
-4.2492
  0
VERTEX
  8
LAYER_9
 10
143.7976
 20
-3.8337
  0
VERTEX
  8
LAYER_9
 10
143.9089
 20
-3.8337
  0
SEQEND
  0
ENDBLK
  0
BLOCK
  8
LAYER_9
  2
AIGNBL0903001D
 70
64
 10
0
 20
0
 30
0
  3
AIGNBL0903001D
  0
POLYLINE
  8
LAYER_9
 40
0.05
 41
0.05
 66
1
 10
0
 20
0
 30
0
 70
1
  0
VERTEX
  8
LAYER_9
 10
144.8352
 20
-3.8337
  0
VERTEX
  8
LAYER_9
 10
145.083
 20
-3.8337
  0
VERTEX
  8
LAYER_9
 10
145.2042
 20
-3.8475
  0
VERTEX
  8
LAYER_9
 10
145.2972
 20
-3.8912
 42
-0.1196760771
  0
VERTEX
  8
LAYER_9
 10
145.3575
 20
-3.9639
 42
-0.1008071579
  0
VERTEX
  8
LAYER_9
 10
145.3782
 20
-4.0673
 42
-0.1226625575
  0
VERTEX
  8
LAYER_9
 10
145.3569
 20
-4.1706
 42
-0.1130948084
  0
VERTEX
  8
LAYER_9
 10
145.2962
 20
-4.2437
 42
-0.08414869483
  0
VERTEX
  8
LAYER_9
 10
145.2022
 20
-4.2874
  0
VERTEX
  8
LAYER_9
 10
145.0802
 20
-4.3022
  0
VERTEX
  8
LAYER_9
 10
144.9245
 20
-4.3022
  0
VERTEX
  8
LAYER_9
 10
144.9245
 20
-4.7094
  0
VERTEX
  8
LAYER_9
 10
144.8352
 20
-4.7094
  0
SEQEND
  0
POLYLINE
  8
LAYER_9
 40
0.05
 41
0.05
 66
1
 10
0
 20
0
 30
0
 70
1
  0
VERTEX
  8
LAYER_9
 10
144.9245
 20
-4.2268
  0
VERTEX
  8
LAYER_9
 10
145.075
 20
-4.2268
 42
0.1719973382
  0
VERTEX
  8
LAYER_9
 10
145.2349
 20
-4.1861
 42
0.2424570955
  0
VERTEX
  8
LAYER_9
 10
145.2893
 20
-4.0673
 42
0.2605346944
  0
VERTEX
  8
LAYER_9
 10
145.2332
 20
-3.9477
 42
0.1395217604
  0
VERTEX
  8
LAYER_9
 10
145.075
 20
-3.9102
  0
VERTEX
  8
LAYER_9
 10
144.9245
 20
-3.9102
  0
SEQEND
  0
ENDBLK
  0
BLOCK
  8
LAYER_9
  2
AIGNBL0903001E
 70
64
 10
0
 20
0
 30
0
  3
AIGNBL0903001E
  0
POLYLINE
  8
LAYER_9
 40
0.05
 41
0.05
 66
1
 10
0
 20
0
 30
0
 70
1
  0
VERTEX
  8
LAYER_9
 10
145.8123
 20
-4.6299
  0
VERTEX
  8
LAYER_9
 10
146.2812
 20
-4.6299
  0
VERTEX
  8
LAYER_9
 10
146.2812
 20
-4.7094
  0
VERTEX
  8
LAYER_9
 10
145.7234
 20
-4.7094
  0
VERTEX
  8
LAYER_9
 10
145.7234
 20
-3.8337
  0
VERTEX
  8
LAYER_9
 10
146.2664
 20
-3.8337
  0
VERTEX
  8
LAYER_9
 10
146.2664
 20
-3.9126
  0
VERTEX
  8
LAYER_9
 10
145.8123
 20
-3.9126
  0
VERTEX
  8
LAYER_9
 10
145.8123
 20
-4.213
  0
VERTEX
  8
LAYER_9
 10
146.2367
 20
-4.213
  0
VERTEX
  8
LAYER_9
 10
146.2367
 20
-4.2922
  0
VERTEX
  8
LAYER_9
 10
145.8123
 20
-4.2922
  0
SEQEND
  0
ENDBLK
  0
BLOCK
  8
LAYER_9
  2
AIGNBL0903001F
 70
64
 10
0
 20
0
 30
0
  3
AIGNBL0903001F
  0
POLYLINE
  8
LAYER_9
 40
0.05
 41
0.05
 66
1
 10
0
 20
0
 30
0
 70
1
  0
VERTEX
  8
LAYER_9
 10
146.7152
 20
-4.7094
  0
VERTEX
  8
LAYER_9
 10
146.6264
 20
-4.7094
  0
VERTEX
  8
LAYER_9
 10
146.6264
 20
-3.8337
  0
VERTEX
  8
LAYER_9
 10
146.8837
 20
-3.8337
  0
VERTEX
  8
LAYER_9
 10
147.0029
 20
-3.8458
  0
VERTEX
  8
LAYER_9
 10
147.0983
 20
-3.8861
 42
-0.1251490281
  0
VERTEX
  8
LAYER_9
 10
147.1607
 20
-3.9584
 42
-0.1051928432
  0
VERTEX
  8
LAYER_9
 10
147.1827
 20
-4.0673
  0
VERTEX
  8
LAYER_9
 10
147.1659
 20
-4.1551
  0
VERTEX
  8
LAYER_9
 10
147.1187
 20
-4.2237
  0
VERTEX
  8
LAYER_9
 10
147.048
 20
-4.2702
  0
VERTEX
  8
LAYER_9
 10
146.9591
 20
-4.2922
  0
VERTEX
  8
LAYER_9
 10
147.2151
 20
-4.7094
  0
VERTEX
  8
LAYER_9
 10
147.1062
 20
-4.7094
  0
VERTEX
  8
LAYER_9
 10
146.8637
 20
-4.2998
  0
VERTEX
  8
LAYER_9
 10
146.7152
 20
-4.2998
  0
SEQEND
  0
POLYLINE
  8
LAYER_9
 40
0.05
 41
0.05
 66
1
 10
0
 20
0
 30
0
 70
1
  0
VERTEX
  8
LAYER_9
 10
146.7152
 20
-4.223
  0
VERTEX
  8
LAYER_9
 10
146.8699
 20
-4.223
 42
0.1572399812
  0
VERTEX
  8
LAYER_9
 10
147.036
 20
-4.1844
 42
0.2567768408
  0
VERTEX
  8
LAYER_9
 10
147.0939
 20
-4.0673
  0
VERTEX
  8
LAYER_9
 10
147.078
 20
-3.9946
  0
VERTEX
  8
LAYER_9
 10
147.0332
 20
-3.946
  0
VERTEX
  8
LAYER_9
 10
146.964
 20
-3.9188
  0
VERTEX
  8
LAYER_9
 10
146.8737
 20
-3.9102
  0
VERTEX
  8
LAYER_9
 10
146.7152
 20
-3.9102
  0
SEQEND
  0
ENDBLK
  0
BLOCK
  8
LAYER_9
  2
AIGNBL09030020
 70
64
 10
0
 20
0
 30
0
  3
AIGNBL09030020
  0
POLYLINE
  8
LAYER_9
 40
0.05
 41
0.05
 66
1
 10
0
 20
0
 30
0
 70
1
  0
VERTEX
  8
LAYER_9
 10
147.6268
 20
-4.7094
  0
VERTEX
  8
LAYER_9
 10
147.5383
 20
-4.7094
  0
VERTEX
  8
LAYER_9
 10
147.5383
 20
-3.8337
  0
VERTEX
  8
LAYER_9
 10
147.6268
 20
-3.8337
  0
SEQEND
  0
ENDBLK
  0
BLOCK
  8
LAYER_9
  2
AIGNBL09030021
 70
64
 10
0
 20
0
 30
0
  3
AIGNBL09030021
  0
POLYLINE
  8
LAYER_9
 40
0.05
 41
0.05
 66
1
 10
0
 20
0
 30
0
 70
1
  0
VERTEX
  8
LAYER_9
 10
148.1191
 20
-4.6299
  0
VERTEX
  8
LAYER_9
 10
148.588
 20
-4.6299
  0
VERTEX
  8
LAYER_9
 10
148.588
 20
-4.7094
  0
VERTEX
  8
LAYER_9
 10
148.0302
 20
-4.7094
  0
VERTEX
  8
LAYER_9
 10
148.0302
 20
-3.8337
  0
VERTEX
  8
LAYER_9
 10
148.5732
 20
-3.8337
  0
VERTEX
  8
LAYER_9
 10
148.5732
 20
-3.9126
  0
VERTEX
  8
LAYER_9
 10
148.1191
 20
-3.9126
  0
VERTEX
  8
LAYER_9
 10
148.1191
 20
-4.213
  0
VERTEX
  8
LAYER_9
 10
148.5436
 20
-4.213
  0
VERTEX
  8
LAYER_9
 10
148.5436
 20
-4.2922
  0
VERTEX
  8
LAYER_9
 10
148.1191
 20
-4.2922
  0
SEQEND
  0
ENDBLK
  0
BLOCK
  8
LAYER_9
  2
AIGNBL09030022
 70
64
 10
0
 20
0
 30
0
  3
AIGNBL09030022
  0
POLYLINE
  8
LAYER_9
 40
0.05
 41
0.05
 66
1
 10
0
 20
0
 30
0
 70
1
  0
VERTEX
  8
LAYER_9
 10
149.554
 20
-4.5792
  0
VERTEX
  8
LAYER_9
 10
149.5564
 20
-4.5792
  0
VERTEX
  8
LAYER_9
 10
149.5564
 20
-3.8337
  0
VERTEX
  8
LAYER_9
 10
149.6456
 20
-3.8337
  0
VERTEX
  8
LAYER_9
 10
149.6456
 20
-4.7094
  0
VERTEX
  8
LAYER_9
 10
149.5344
 20
-4.7094
  0
VERTEX
  8
LAYER_9
 10
149.0248
 20
-3.956
  0
VERTEX
  8
LAYER_9
 10
149.0221
 20
-3.956
  0
VERTEX
  8
LAYER_9
 10
149.0221
 20
-4.7094
  0
VERTEX
  8
LAYER_9
 10
148.9332
 20
-4.7094
  0
VERTEX
  8
LAYER_9
 10
148.9332
 20
-3.8337
  0
VERTEX
  8
LAYER_9
 10
149.0445
 20
-3.8337
  0
SEQEND
  0
ENDBLK
  0
BLOCK
  8
LAYER_9
  2
AIGNBL09030023
 70
64
 10
0
 20
0
 30
0
  3
AIGNBL09030023
  0
POLYLINE
  8
LAYER_9
 40
0.05
 41
0.05
 66
1
 10
0
 20
0
 30
0
 70
1
  0
VERTEX
  8
LAYER_9
 10
150.7863
 20
-4.5672
  0
VERTEX
  8
LAYER_9
 10
150.7322
 20
-4.6302
  0
VERTEX
  8
LAYER_9
 10
150.6592
 20
-4.6826
  0
VERTEX
  8
LAYER_9
 10
150.5676
 20
-4.7184
  0
VERTEX
  8
LAYER_9
 10
150.4583
 20
-4.7315
 42
-0.1002604889
  0
VERTEX
  8
LAYER_9
 10
150.2751
 20
-4.6967
 42
-0.103618762
  0
VERTEX
  8
LAYER_9
 10
150.1307
 20
-4.6009
 42
-0.1006399092
  0
VERTEX
  8
LAYER_9
 10
150.036
 20
-4.4555
 42
-0.09570873126
  0
VERTEX
  8
LAYER_9
 10
150.0018
 20
-4.2712
 42
-0.1025357642
  0
VERTEX
  8
LAYER_9
 10
150.0367
 20
-4.0869
 42
-0.09974197432
  0
VERTEX
  8
LAYER_9
 10
150.1321
 20
-3.9416
 42
-0.09791826644
  0
VERTEX
  8
LAYER_9
 10
150.2768
 20
-3.8458
 42
-0.09710431873
  0
VERTEX
  8
LAYER_9
 10
150.4583
 20
-3.811
  0
VERTEX
  8
LAYER_9
 10
150.5527
 20
-3.8213
  0
VERTEX
  8
LAYER_9
 10
150.6402
 20
-3.8495
  0
VERTEX
  8
LAYER_9
 10
150.7143
 20
-3.8933
  0
VERTEX
  8
LAYER_9
 10
150.7701
 20
-3.9508
  0
VERTEX
  8
LAYER_9
 10
150.696
 20
-4.0056
  0
VERTEX
  8
LAYER_9
 10
150.6592
 20
-3.9632
  0
VERTEX
  8
LAYER_9
 10
150.6055
 20
-3.926
  0
VERTEX
  8
LAYER_9
 10
150.5379
 20
-3.9002
  0
VERTEX
  8
LAYER_9
 10
150.4594
 20
-3.8902
 42
0.113658286
  0
VERTEX
  8
LAYER_9
 10
150.3068
 20
-3.9212
 42
0.1043770607
  0
VERTEX
  8
LAYER_9
 10
150.1924
 20
-4.0042
 42
0.09614808583
  0
VERTEX
  8
LAYER_9
 10
150.1204
 20
-4.1258
 42
0.08382976821
  0
VERTEX
  8
LAYER_9
 10
150.0959
 20
-4.2712
 42
0.09237333632
  0
VERTEX
  8
LAYER_9
 10
150.1214
 20
-4.4166
 42
0.09906074874
  0
VERTEX
  8
LAYER_9
 10
150.1938
 20
-4.5382
 42
0.1047661843
  0
VERTEX
  8
LAYER_9
 10
150.3081
 20
-4.6212
 42
0.1066098621
  0
VERTEX
  8
LAYER_9
 10
150.4594
 20
-4.6523
 42
0.1116904268
  0
VERTEX
  8
LAYER_9
 10
150.6027
 20
-4.6212
 42
0.1367806879
  0
VERTEX
  8
LAYER_9
 10
150.7167
 20
-4.5224
  0
SEQEND
  0
ENDBLK
  0
BLOCK
  8
LAYER_9
  2
AIGNBL09030024
 70
64
 10
0
 20
0
 30
0
  3
AIGNBL09030024
  0
POLYLINE
  8
LAYER_9
 40
0.05
 41
0.05
 66
1
 10
0
 20
0
 30
0
 70
1
  0
VERTEX
  8
LAYER_9
 10
151.199
 20
-4.6299
  0
VERTEX
  8
LAYER_9
 10
151.6679
 20
-4.6299
  0
VERTEX
  8
LAYER_9
 10
151.6679
 20
-4.7094
  0
VERTEX
  8
LAYER_9
 10
151.1102
 20
-4.7094
  0
VERTEX
  8
LAYER_9
 10
151.1102
 20
-3.8337
  0
VERTEX
  8
LAYER_9
 10
151.6531
 20
-3.8337
  0
VERTEX
  8
LAYER_9
 10
151.6531
 20
-3.9126
  0
VERTEX
  8
LAYER_9
 10
151.199
 20
-3.9126
  0
VERTEX
  8
LAYER_9
 10
151.199
 20
-4.213
  0
VERTEX
  8
LAYER_9
 10
151.6235
 20
-4.213
  0
VERTEX
  8
LAYER_9
 10
151.6235
 20
-4.2922
  0
VERTEX
  8
LAYER_9
 10
151.199
 20
-4.2922
  0
SEQEND
  0
ENDBLK
  0
BLOCK
  8
LAYER_9
  2
AIGNBL09020004
 70
64
 10
0
 20
0
 30
0
  3
AIGNBL09020004
  0
INSERT
  8
LAYER_9
  2
AIGNBL09030005
 10
0
 20
0
 30
0
  0
ENDBLK
  0
BLOCK
  8
LAYER_9
  2
AIGNBL0902000D
 70
64
 10
0
 20
0
 30
0
  3
AIGNBL0902000D
  0
INSERT
  8
LAYER_9
  2
AIGNBL0903000E
 10
0
 20
0
 30
0
  0
INSERT
  8
LAYER_9
  2
AIGNBL0903000F
 10
0
 20
0
 30
0
  0
INSERT
  8
LAYER_9
  2
AIGNBL09030010
 10
0
 20
0
 30
0
  0
INSERT
  8
LAYER_9
  2
AIGNBL09030011
 10
0
 20
0
 30
0
  0
INSERT
  8
LAYER_9
  2
AIGNBL09030012
 10
0
 20
0
 30
0
  0
INSERT
  8
LAYER_9
  2
AIGNBL09030013
 10
0
 20
0
 30
0
  0
INSERT
  8
LAYER_9
  2
AIGNBL09030014
 10
0
 20
0
 30
0
  0
INSERT
  8
LAYER_9
  2
AIGNBL09030015
 10
0
 20
0
 30
0
  0
INSERT
  8
LAYER_9
  2
AIGNBL09030016
 10
0
 20
0
 30
0
  0
INSERT
  8
LAYER_9
  2
AIGNBL09030017
 10
0
 20
0
 30
0
  0
INSERT
  8
LAYER_9
  2
AIGNBL09030018
 10
0
 20
0
 30
0
  0
INSERT
  8
LAYER_9
  2
AIGNBL09030019
 10
0
 20
0
 30
0
  0
INSERT
  8
LAYER_9
  2
AIGNBL0903001A
 10
0
 20
0
 30
0
  0
INSERT
  8
LAYER_9
  2
AIGNBL0903001B
 10
0
 20
0
 30
0
  0
INSERT
  8
LAYER_9
  2
AIGNBL0903001C
 10
0
 20
0
 30
0
  0
INSERT
  8
LAYER_9
  2
AIGNBL0903001D
 10
0
 20
0
 30
0
  0
INSERT
  8
LAYER_9
  2
AIGNBL0903001E
 10
0
 20
0
 30
0
  0
INSERT
  8
LAYER_9
  2
AIGNBL0903001F
 10
0
 20
0
 30
0
  0
INSERT
  8
LAYER_9
  2
AIGNBL09030020
 10
0
 20
0
 30
0
  0
INSERT
  8
LAYER_9
  2
AIGNBL09030021
 10
0
 20
0
 30
0
  0
INSERT
  8
LAYER_9
  2
AIGNBL09030022
 10
0
 20
0
 30
0
  0
INSERT
  8
LAYER_9
  2
AIGNBL09030023
 10
0
 20
0
 30
0
  0
INSERT
  8
LAYER_9
  2
AIGNBL09030024
 10
0
 20
0
 30
0
  0
ENDBLK
  0
BLOCK
  8
LAYER_9
  2
AIGNBL09010002
 70
64
 10
0
 20
0
 30
0
  3
AIGNBL09010002
  0
POLYLINE
  8
LAYER_9
 40
0.7056
 41
0.7056
 66
1
 10
0
 20
0
 30
0
 70
1
  0
VERTEX
  8
LAYER_9
 10
206.0763
 20
269.2235
  0
VERTEX
  8
LAYER_9
 10
206.0763
 20
-7.7766
  0
VERTEX
  8
LAYER_9
 10
16.0764
 20
-7.7766
  0
VERTEX
  8
LAYER_9
 10
16.0764
 20
269.2235
  0
SEQEND
  0
ENDBLK
  0
BLOCK
  8
LAYER_9
  2
AIGNBL09010003
 70
64
 10
0
 20
0
 30
0
  3
AIGNBL09010003
  0
INSERT
  8
LAYER_9
  2
AIGNBL09020004
 10
0
 20
0
 30
0
  0
INSERT
  8
LAYER_9
  2
AIGNBL0902000D
 10
0
 20
0
 30
0
  0
ENDBLK
  0
BLOCK
  8
LAYER_9
  2
AIGNBL09010025
 70
64
 10
0
 20
0
 30
0
  3
AIGNBL09010025
  0
POLYLINE
  8
LAYER_9
 40
0.1058
 41
0.1058
 66
1
 10
0
 20
0
 30
0
  0
VERTEX
  8
LAYER_9
 10
183.0415
 20
148.798
  0
VERTEX
  8
LAYER_9
 10
183.0415
 20
117.3039
  0
SEQEND
  0
ENDBLK
  0
BLOCK
  8
LAYER_9
  2
AIGNBL09010026
 70
64
 10
0
 20
0
 30
0
  3
AIGNBL09010026
  0
POLYLINE
  8
LAYER_9
 40
0.1058
 41
0.1058
 66
1
 10
0
 20
0
 30
0
  0
VERTEX
  8
LAYER_9
 10
83.8352
 20
117.3039
  0
VERTEX
  8
LAYER_9
 10
83.8352
 20
148.798
  0
SEQEND
  0
ENDBLK
  0
BLOCK
  8
LAYER_9
  2
AIGNBL09010027
 70
64
 10
0
 20
0
 30
0
  3
AIGNBL09010027
  0
POLYLINE
  8
LAYER_9
 40
0.1058
 41
0.1058
 66
1
 10
0
 20
0
 30
0
  0
VERTEX
  8
LAYER_9
 10
182.2479
 20
117.3039
 42
-0.04620756298
  0
VERTEX
  8
LAYER_9
 10
182.1717
 20
116.4801
 42
-0.04881714732
  0
VERTEX
  8
LAYER_9
 10
181.9275
 20
115.6374
 42
-0.05074598863
  0
VERTEX
  8
LAYER_9
 10
181.504
 20
114.8265
 42
-0.05167938084
  0
VERTEX
  8
LAYER_9
 10
180.9113
 20
114.1026
 42
-0.05147762234
  0
VERTEX
  8
LAYER_9
 10
180.1816
 20
113.5146
 42
-0.05034163736
  0
VERTEX
  8
LAYER_9
 10
179.3642
 20
113.0944
 42
-0.09375949126
  0
VERTEX
  8
LAYER_9
 10
177.6844
 20
112.7766
  0
SEQEND
  0
ENDBLK
  0
BLOCK
  8
LAYER_9
  2
AIGNBL09010028
 70
64
 10
0
 20
0
 30
0
  3
AIGNBL09010028
  0
POLYLINE
  8
LAYER_9
 40
0.1058
 41
0.1058
 66
1
 10
0
 20
0
 30
0
  0
VERTEX
  8
LAYER_9
 10
182.2479
 20
148.798
  0
VERTEX
  8
LAYER_9
 10
182.2479
 20
117.3039
  0
SEQEND
  0
ENDBLK
  0
BLOCK
  8
LAYER_9
  2
AIGNBL09010029
 70
64
 10
0
 20
0
 30
0
  3
AIGNBL09010029
  0
POLYLINE
  8
LAYER_9
 40
0.1058
 41
0.1058
 66
1
 10
0
 20
0
 30
0
  0
VERTEX
  8
LAYER_9
 10
177.6844
 20
153.3252
 42
-0.04548970798
  0
VERTEX
  8
LAYER_9
 10
178.5148
 20
153.2496
 42
-0.04816240784
  0
VERTEX
  8
LAYER_9
 10
179.3642
 20
153.0074
 42
-0.05028322317
  0
VERTEX
  8
LAYER_9
 10
180.1816
 20
152.5873
 42
-0.05157978547
  0
VERTEX
  8
LAYER_9
 10
180.9113
 20
151.9992
 42
-0.05164474039
  0
VERTEX
  8
LAYER_9
 10
181.504
 20
151.2753
 42
-0.0508042979
  0
VERTEX
  8
LAYER_9
 10
181.9276
 20
150.4644
 42
-0.09507547995
  0
VERTEX
  8
LAYER_9
 10
182.2479
 20
148.798
  0
SEQEND
  0
ENDBLK
  0
BLOCK
  8
LAYER_9
  2
AIGNBL0901002A
 70
64
 10
0
 20
0
 30
0
  3
AIGNBL0901002A
  0
POLYLINE
  8
LAYER_9
 40
0.1058
 41
0.1058
 66
1
 10
0
 20
0
 30
0
  0
VERTEX
  8
LAYER_9
 10
83.0415
 20
117.3039
  0
VERTEX
  8
LAYER_9
 10
83.0415
 20
148.798
  0
SEQEND
  0
ENDBLK
  0
BLOCK
  8
LAYER_9
  2
AIGNBL0901002B
 70
64
 10
0
 20
0
 30
0
  3
AIGNBL0901002B
  0
POLYLINE
  8
LAYER_9
 40
0.1058
 41
0.1058
 66
1
 10
0
 20
0
 30
0
  0
VERTEX
  8
LAYER_9
 10
88.3987
 20
111.9892
 42
-0.04541751118
  0
VERTEX
  8
LAYER_9
 10
87.4239
 20
112.078
 42
-0.04816257958
  0
VERTEX
  8
LAYER_9
 10
86.4268
 20
112.3624
 42
-0.05028648429
  0
VERTEX
  8
LAYER_9
 10
85.4672
 20
112.8556
 42
-0.05151351865
  0
VERTEX
  8
LAYER_9
 10
84.6106
 20
113.5459
 42
-0.05164553403
  0
VERTEX
  8
LAYER_9
 10
83.9148
 20
114.3957
 42
-0.05080181321
  0
VERTEX
  8
LAYER_9
 10
83.4176
 20
115.3476
 42
-0.09508065663
  0
VERTEX
  8
LAYER_9
 10
83.0415
 20
117.3039
  0
SEQEND
  0
ENDBLK
  0
BLOCK
  8
LAYER_9
  2
AIGNBL0901002C
 70
64
 10
0
 20
0
 30
0
  3
AIGNBL0901002C
  0
POLYLINE
  8
LAYER_9
 40
0.1058
 41
0.1058
 66
1
 10
0
 20
0
 30
0
  0
VERTEX
  8
LAYER_9
 10
83.0415
 20
148.798
 42
-0.04612462021
  0
VERTEX
  8
LAYER_9
 10
83.131
 20
149.765
 42
-0.04881518981
  0
VERTEX
  8
LAYER_9
 10
83.4177
 20
150.7542
 42
-0.05083687443
  0
VERTEX
  8
LAYER_9
 10
83.9148
 20
151.7062
 42
-0.05167995835
  0
VERTEX
  8
LAYER_9
 10
84.6106
 20
152.556
 42
-0.05147825497
  0
VERTEX
  8
LAYER_9
 10
85.4672
 20
153.2463
 42
-0.05033728508
  0
VERTEX
  8
LAYER_9
 10
86.4267
 20
153.7395
 42
-0.09376235479
  0
VERTEX
  8
LAYER_9
 10
88.3987
 20
154.1126
  0
SEQEND
  0
ENDBLK
  0
BLOCK
  8
LAYER_9
  2
AIGNBL0901002D
 70
64
 10
0
 20
0
 30
0
  3
AIGNBL0901002D
  0
POLYLINE
  8
LAYER_9
 40
0.1058
 41
0.1058
 66
1
 10
0
 20
0
 30
0
  0
VERTEX
  8
LAYER_9
 10
88.3987
 20
112.7766
 42
-0.04548970798
  0
VERTEX
  8
LAYER_9
 10
87.5683
 20
112.8522
 42
-0.04816410653
  0
VERTEX
  8
LAYER_9
 10
86.7189
 20
113.0945
 42
-0.050283919
  0
VERTEX
  8
LAYER_9
 10
85.9015
 20
113.5146
 42
-0.0515123744
  0
VERTEX
  8
LAYER_9
 10
85.1718
 20
114.1026
 42
-0.05164454396
  0
VERTEX
  8
LAYER_9
 10
84.5791
 20
114.8265
 42
-0.05080416331
  0
VERTEX
  8
LAYER_9
 10
84.1555
 20
115.6374
 42
-0.09508100684
  0
VERTEX
  8
LAYER_9
 10
83.8352
 20
117.3039
  0
SEQEND
  0
ENDBLK
  0
BLOCK
  8
LAYER_9
  2
AIGNBL0901002E
 70
64
 10
0
 20
0
 30
0
  3
AIGNBL0901002E
  0
POLYLINE
  8
LAYER_9
 40
0.1058
 41
0.1058
 66
1
 10
0
 20
0
 30
0
  0
VERTEX
  8
LAYER_9
 10
83.8352
 20
148.798
 42
-0.04620756318
  0
VERTEX
  8
LAYER_9
 10
83.9114
 20
149.6218
 42
-0.048811789
  0
VERTEX
  8
LAYER_9
 10
84.1556
 20
150.4644
 42
-0.0507461639
  0
VERTEX
  8
LAYER_9
 10
84.5791
 20
151.2753
 42
-0.05167961382
  0
VERTEX
  8
LAYER_9
 10
85.1718
 20
151.9992
 42
-0.05148088833
  0
VERTEX
  8
LAYER_9
 10
85.9015
 20
152.5873
 42
-0.05033895814
  0
VERTEX
  8
LAYER_9
 10
86.7189
 20
153.0074
 42
-0.09376009571
  0
VERTEX
  8
LAYER_9
 10
88.3987
 20
153.3252
  0
SEQEND
  0
ENDBLK
  0
BLOCK
  8
LAYER_9
  2
AIGNBL0901002F
 70
64
 10
0
 20
0
 30
0
  3
AIGNBL0901002F
  0
POLYLINE
  8
LAYER_9
 40
0.1058
 41
0.1058
 66
1
 10
0
 20
0
 30
0
  0
VERTEX
  8
LAYER_9
 10
183.0415
 20
117.3039
 42
-0.0461293278
  0
VERTEX
  8
LAYER_9
 10
182.9521
 20
116.3368
 42
-0.04881509503
  0
VERTEX
  8
LAYER_9
 10
182.6654
 20
115.3476
 42
-0.05074394861
  0
VERTEX
  8
LAYER_9
 10
182.1683
 20
114.3957
 42
-0.05168037438
  0
VERTEX
  8
LAYER_9
 10
181.4725
 20
113.5459
 42
-0.05147876788
  0
VERTEX
  8
LAYER_9
 10
180.6159
 20
112.8556
 42
-0.05033956739
  0
VERTEX
  8
LAYER_9
 10
179.6564
 20
112.3623
 42
-0.09376183987
  0
VERTEX
  8
LAYER_9
 10
177.6844
 20
111.9892
  0
SEQEND
  0
ENDBLK
  0
BLOCK
  8
LAYER_9
  2
AIGNBL09010030
 70
64
 10
0
 20
0
 30
0
  3
AIGNBL09010030
  0
POLYLINE
  8
LAYER_9
 40
0.1058
 41
0.1058
 66
1
 10
0
 20
0
 30
0
  0
VERTEX
  8
LAYER_9
 10
177.6844
 20
154.1126
 42
-0.04541692137
  0
VERTEX
  8
LAYER_9
 10
178.6592
 20
154.0239
 42
-0.04816366934
  0
VERTEX
  8
LAYER_9
 10
179.6563
 20
153.7394
 42
-0.05028418733
  0
VERTEX
  8
LAYER_9
 10
180.6159
 20
153.2463
 42
-0.05151298017
  0
VERTEX
  8
LAYER_9
 10
181.4725
 20
152.556
 42
-0.05164508768
  0
VERTEX
  8
LAYER_9
 10
182.1683
 20
151.7062
 42
-0.05080148412
  0
VERTEX
  8
LAYER_9
 10
182.6655
 20
150.7543
 42
-0.09508038102
  0
VERTEX
  8
LAYER_9
 10
183.0415
 20
148.798
  0
SEQEND
  0
ENDBLK
  0
BLOCK
  8
LAYER_9
  2
AIGNBL09010031
 70
64
 10
0
 20
0
 30
0
  3
AIGNBL09010031
  0
POLYLINE
  8
LAYER_9
 40
0.1058
 41
0.1058
 66
1
 10
0
 20
0
 30
0
  0
VERTEX
  8
LAYER_9
 10
177.2876
 20
59.757
  0
VERTEX
  8
LAYER_9
 10
178.1902
 20
59.757
  0
VERTEX
  8
LAYER_9
 10
179.1134
 20
59.757
  0
VERTEX
  8
LAYER_9
 10
180.0019
 20
59.757
  0
VERTEX
  8
LAYER_9
 10
180.795
 20
59.757
  0
VERTEX
  8
LAYER_9
 10
181.4393
 20
59.757
  0
VERTEX
  8
LAYER_9
 10
181.8997
 20
59.757
  0
VERTEX
  8
LAYER_9
 10
182.2479
 20
59.757
  0
SEQEND
  0
ENDBLK
  0
BLOCK
  8
LAYER_9
  2
AIGNBL09010032
 70
64
 10
0
 20
0
 30
0
  3
AIGNBL09010032
  0
POLYLINE
  8
LAYER_9
 40
0.1058
 41
0.1058
 66
1
 10
0
 20
0
 30
0
  0
VERTEX
  8
LAYER_9
 10
83.0415
 20
59.757
  0
VERTEX
  8
LAYER_9
 10
83.1244
 20
59.757
  0
VERTEX
  8
LAYER_9
 10
83.3898
 20
59.757
  0
VERTEX
  8
LAYER_9
 10
83.8501
 20
59.757
  0
VERTEX
  8
LAYER_9
 10
84.4944
 20
59.757
  0
VERTEX
  8
LAYER_9
 10
85.2875
 20
59.757
  0
VERTEX
  8
LAYER_9
 10
86.176
 20
59.757
  0
VERTEX
  8
LAYER_9
 10
88.0019
 20
59.757
  0
SEQEND
  0
ENDBLK
  0
BLOCK
  8
LAYER_9
  2
AIGNBL09010033
 70
64
 10
0
 20
0
 30
0
  3
AIGNBL09010033
  0
POLYLINE
  8
LAYER_9
 40
0.1058
 41
0.1058
 66
1
 10
0
 20
0
 30
0
  0
VERTEX
  8
LAYER_9
 10
182.3447
 20
59.745
 42
-0.343737148
  0
VERTEX
  8
LAYER_9
 10
182.6447
 20
59.3602
  0
SEQEND
  0
ENDBLK
  0
BLOCK
  8
LAYER_9
  2
AIGNBL09010034
 70
64
 10
0
 20
0
 30
0
  3
AIGNBL09010034
  0
POLYLINE
  8
LAYER_9
 40
0.1058
 41
0.1058
 66
1
 10
0
 20
0
 30
0
  0
VERTEX
  8
LAYER_9
 10
88.0019
 20
58.1201
  0
VERTEX
  8
LAYER_9
 10
177.2876
 20
58.1201
  0
SEQEND
  0
ENDBLK
  0
BLOCK
  8
LAYER_9
  2
AIGNBL09010035
 70
64
 10
0
 20
0
 30
0
  3
AIGNBL09010035
  0
POLYLINE
  8
LAYER_9
 40
0.1058
 41
0.1058
 66
1
 10
0
 20
0
 30
0
  0
VERTEX
  8
LAYER_9
 10
88.0019
 20
60.6003
  0
VERTEX
  8
LAYER_9
 10
177.2876
 20
60.6003
  0
SEQEND
  0
ENDBLK
  0
BLOCK
  8
LAYER_9
  2
AIGNBL09010036
 70
64
 10
0
 20
0
 30
0
  3
AIGNBL09010036
  0
POLYLINE
  8
LAYER_9
 40
0.1058
 41
0.1058
 66
1
 10
0
 20
0
 30
0
  0
VERTEX
  8
LAYER_9
 10
88.0019
 20
60.6003
  0
VERTEX
  8
LAYER_9
 10
88.0019
 20
58.1201
  0
SEQEND
  0
ENDBLK
  0
BLOCK
  8
LAYER_9
  2
AIGNBL09010037
 70
64
 10
0
 20
0
 30
0
  3
AIGNBL09010037
  0
POLYLINE
  8
LAYER_9
 40
0.1058
 41
0.1058
 66
1
 10
0
 20
0
 30
0
  0
VERTEX
  8
LAYER_9
 10
177.2876
 20
60.6003
  0
VERTEX
  8
LAYER_9
 10
177.2876
 20
58.1201
  0
SEQEND
  0
ENDBLK
  0
BLOCK
  8
LAYER_9
  2
AIGNBL09010038
 70
64
 10
0
 20
0
 30
0
  3
AIGNBL09010038
  0
POLYLINE
  8
LAYER_9
 40
0.1058
 41
0.1058
 66
1
 10
0
 20
0
 30
0
  0
VERTEX
  8
LAYER_9
 10
83.0415
 20
59.757
 42
0.255480935
  0
VERTEX
  8
LAYER_9
 10
82.7005
 20
59.602
 42
0.1414482931
  0
VERTEX
  8
LAYER_9
 10
82.6447
 20
59.3602
  0
SEQEND
  0
ENDBLK
  0
BLOCK
  8
LAYER_9
  2
AIGNBL09010039
 70
64
 10
0
 20
0
 30
0
  3
AIGNBL09010039
  0
POLYLINE
  8
LAYER_9
 40
0.1058
 41
0.1058
 66
1
 10
0
 20
0
 30
0
  0
VERTEX
  8
LAYER_9
 10
182.6447
 20
59.3602
 42
-0.2555157963
  0
VERTEX
  8
LAYER_9
 10
182.4897
 20
59.0192
 42
-0.1414124648
  0
VERTEX
  8
LAYER_9
 10
182.2479
 20
58.9634
  0
SEQEND
  0
ENDBLK
  0
BLOCK
  8
LAYER_9
  2
AIGNBL0901003A
 70
64
 10
0
 20
0
 30
0
  3
AIGNBL0901003A
  0
POLYLINE
  8
LAYER_9
 40
0.1058
 41
0.1058
 66
1
 10
0
 20
0
 30
0
  0
VERTEX
  8
LAYER_9
 10
182.2479
 20
59.757
  0
VERTEX
  8
LAYER_9
 10
182.3447
 20
59.745
  0
SEQEND
  0
ENDBLK
  0
BLOCK
  8
LAYER_9
  2
AIGNBL0901003B
 70
64
 10
0
 20
0
 30
0
  3
AIGNBL0901003B
  0
POLYLINE
  8
LAYER_9
 40
0.1058
 41
0.1058
 66
1
 10
0
 20
0
 30
0
  0
VERTEX
  8
LAYER_9
 10
83.0415
 20
58.9634
  0
VERTEX
  8
LAYER_9
 10
83.1244
 20
58.9634
  0
VERTEX
  8
LAYER_9
 10
83.3898
 20
58.9634
  0
VERTEX
  8
LAYER_9
 10
83.8501
 20
58.9634
  0
VERTEX
  8
LAYER_9
 10
84.4944
 20
58.9634
  0
VERTEX
  8
LAYER_9
 10
85.2875
 20
58.9634
  0
VERTEX
  8
LAYER_9
 10
86.176
 20
58.9634
  0
VERTEX
  8
LAYER_9
 10
88.0019
 20
58.9634
  0
SEQEND
  0
ENDBLK
  0
BLOCK
  8
LAYER_9
  2
AIGNBL0901003C
 70
64
 10
0
 20
0
 30
0
  3
AIGNBL0901003C
  0
POLYLINE
  8
LAYER_9
 40
0.1058
 41
0.1058
 66
1
 10
0
 20
0
 30
0
  0
VERTEX
  8
LAYER_9
 10
177.2876
 20
58.9634
  0
VERTEX
  8
LAYER_9
 10
178.1902
 20
58.9634
  0
VERTEX
  8
LAYER_9
 10
179.1134
 20
58.9634
  0
VERTEX
  8
LAYER_9
 10
180.0019
 20
58.9634
  0
VERTEX
  8
LAYER_9
 10
180.795
 20
58.9634
  0
VERTEX
  8
LAYER_9
 10
181.4393
 20
58.9634
  0
VERTEX
  8
LAYER_9
 10
181.8997
 20
58.9634
  0
VERTEX
  8
LAYER_9
 10
182.2479
 20
58.9634
  0
SEQEND
  0
ENDBLK
  0
BLOCK
  8
LAYER_9
  2
AIGNBL0901003D
 70
64
 10
0
 20
0
 30
0
  3
AIGNBL0901003D
  0
POLYLINE
  8
LAYER_9
 40
0.1058
 41
0.1058
 66
1
 10
0
 20
0
 30
0
  0
VERTEX
  8
LAYER_9
 10
82.6447
 20
59.3602
 42
0.2555157965
  0
VERTEX
  8
LAYER_9
 10
82.7997
 20
59.0192
 42
0.1414124648
  0
VERTEX
  8
LAYER_9
 10
83.0415
 20
58.9634
  0
SEQEND
  0
ENDBLK
  0
BLOCK
  8
LAYER_9
  2
AIGNBL0901003E
 70
64
 10
0
 20
0
 30
0
  3
AIGNBL0901003E
  0
POLYLINE
  8
LAYER_9
 40
0.1058
 41
0.1058
 66
1
 10
0
 20
0
 30
0
  0
VERTEX
  8
LAYER_9
 10
177.6844
 20
154.2602
  0
VERTEX
  8
LAYER_9
 10
177.6844
 20
153.03
  0
SEQEND
  0
ENDBLK
  0
BLOCK
  8
LAYER_9
  2
AIGNBL0901003F
 70
64
 10
0
 20
0
 30
0
  3
AIGNBL0901003F
  0
POLYLINE
  8
LAYER_9
 40
0.1058
 41
0.1058
 66
1
 10
0
 20
0
 30
0
  0
VERTEX
  8
LAYER_9
 10
88.3987
 20
155.4904
  0
VERTEX
  8
LAYER_9
 10
88.3987
 20
154.2602
  0
SEQEND
  0
ENDBLK
  0
BLOCK
  8
LAYER_9
  2
AIGNBL09010040
 70
64
 10
0
 20
0
 30
0
  3
AIGNBL09010040
  0
POLYLINE
  8
LAYER_9
 40
0.1058
 41
0.1058
 66
1
 10
0
 20
0
 30
0
  0
VERTEX
  8
LAYER_9
 10
83.0415
 20
191.2165
 42
-0.04612935945
  0
VERTEX
  8
LAYER_9
 10
83.131
 20
192.1836
 42
-0.04881515693
  0
VERTEX
  8
LAYER_9
 10
83.4177
 20
193.1728
 42
-0.05074798708
  0
VERTEX
  8
LAYER_9
 10
83.9148
 20
194.1248
 42
-0.05167656547
  0
VERTEX
  8
LAYER_9
 10
84.6106
 20
194.9745
 42
-0.05148145428
  0
VERTEX
  8
LAYER_9
 10
85.4672
 20
195.6649
 42
-0.05033717842
  0
VERTEX
  8
LAYER_9
 10
86.4267
 20
196.1581
 42
-0.09376213637
  0
VERTEX
  8
LAYER_9
 10
88.3987
 20
196.5312
  0
SEQEND
  0
ENDBLK
  0
BLOCK
  8
LAYER_9
  2
AIGNBL09010041
 70
64
 10
0
 20
0
 30
0
  3
AIGNBL09010041
  0
POLYLINE
  8
LAYER_9
 40
0.1058
 41
0.1058
 66
1
 10
0
 20
0
 30
0
  0
VERTEX
  8
LAYER_9
 10
177.6844
 20
197.909
  0
VERTEX
  8
LAYER_9
 10
177.6844
 20
195.4486
  0
SEQEND
  0
ENDBLK
  0
BLOCK
  8
LAYER_9
  2
AIGNBL09010042
 70
64
 10
0
 20
0
 30
0
  3
AIGNBL09010042
  0
POLYLINE
  8
LAYER_9
 40
0.1058
 41
0.1058
 66
1
 10
0
 20
0
 30
0
  0
VERTEX
  8
LAYER_9
 10
88.3987
 20
155.1952
 42
-0.04548970798
  0
VERTEX
  8
LAYER_9
 10
87.5683
 20
155.2708
 42
-0.04816423552
  0
VERTEX
  8
LAYER_9
 10
86.7189
 20
155.5131
 42
-0.05028404394
  0
VERTEX
  8
LAYER_9
 10
85.9015
 20
155.9332
 42
-0.05151248695
  0
VERTEX
  8
LAYER_9
 10
85.1718
 20
156.5212
 42
-0.05164463616
  0
VERTEX
  8
LAYER_9
 10
84.5791
 20
157.2451
 42
-0.05080422998
  0
VERTEX
  8
LAYER_9
 10
84.1555
 20
158.056
 42
-0.0950810578
  0
VERTEX
  8
LAYER_9
 10
83.8352
 20
159.7225
  0
SEQEND
  0
ENDBLK
  0
BLOCK
  8
LAYER_9
  2
AIGNBL09010043
 70
64
 10
0
 20
0
 30
0
  3
AIGNBL09010043
  0
POLYLINE
  8
LAYER_9
 40
0.1058
 41
0.1058
 66
1
 10
0
 20
0
 30
0
  0
VERTEX
  8
LAYER_9
 10
88.3987
 20
154.4078
 42
-0.04541761839
  0
VERTEX
  8
LAYER_9
 10
87.4239
 20
154.4966
 42
-0.04816268945
  0
VERTEX
  8
LAYER_9
 10
86.4268
 20
154.781
 42
-0.0502840549
  0
VERTEX
  8
LAYER_9
 10
85.4672
 20
155.2741
 42
-0.05151286537
  0
VERTEX
  8
LAYER_9
 10
84.6106
 20
155.9644
 42
-0.05164499889
  0
VERTEX
  8
LAYER_9
 10
83.9148
 20
156.8142
 42
-0.05080581966
  0
VERTEX
  8
LAYER_9
 10
83.4176
 20
157.7662
 42
-0.09508070004
  0
VERTEX
  8
LAYER_9
 10
83.0415
 20
159.7225
  0
SEQEND
  0
ENDBLK
  0
BLOCK
  8
LAYER_9
  2
AIGNBL09010044
 70
64
 10
0
 20
0
 30
0
  3
AIGNBL09010044
  0
POLYLINE
  8
LAYER_9
 40
0.1058
 41
0.1058
 66
1
 10
0
 20
0
 30
0
  0
VERTEX
  8
LAYER_9
 10
177.6844
 20
196.5312
 42
-0.04541765189
  0
VERTEX
  8
LAYER_9
 10
178.6592
 20
196.4424
 42
-0.04816272035
  0
VERTEX
  8
LAYER_9
 10
179.6563
 20
196.158
 42
-0.0502840809
  0
VERTEX
  8
LAYER_9
 10
180.6159
 20
195.6649
 42
-0.05151288429
  0
VERTEX
  8
LAYER_9
 10
181.4725
 20
194.9746
 42
-0.05164500915
  0
VERTEX
  8
LAYER_9
 10
182.1683
 20
194.1248
 42
-0.05080582074
  0
VERTEX
  8
LAYER_9
 10
182.6655
 20
193.1728
 42
-0.09508067687
  0
VERTEX
  8
LAYER_9
 10
183.0415
 20
191.2165
  0
SEQEND
  0
ENDBLK
  0
BLOCK
  8
LAYER_9
  2
AIGNBL09010045
 70
64
 10
0
 20
0
 30
0
  3
AIGNBL09010045
  0
POLYLINE
  8
LAYER_9
 40
0.1058
 41
0.1058
 66
1
 10
0
 20
0
 30
0
  0
VERTEX
  8
LAYER_9
 10
177.6844
 20
155.4904
  0
VERTEX
  8
LAYER_9
 10
177.6844
 20
154.2602
  0
SEQEND
  0
ENDBLK
  0
BLOCK
  8
LAYER_9
  2
AIGNBL09010046
 70
64
 10
0
 20
0
 30
0
  3
AIGNBL09010046
  0
POLYLINE
  8
LAYER_9
 40
0.1058
 41
0.1058
 66
1
 10
0
 20
0
 30
0
  0
VERTEX
  8
LAYER_9
 10
83.8352
 20
159.7225
  0
VERTEX
  8
LAYER_9
 10
83.8352
 20
191.2165
  0
SEQEND
  0
ENDBLK
  0
BLOCK
  8
LAYER_9
  2
AIGNBL09010047
 70
64
 10
0
 20
0
 30
0
  3
AIGNBL09010047
  0
POLYLINE
  8
LAYER_9
 40
0.1058
 41
0.1058
 66
1
 10
0
 20
0
 30
0
  0
VERTEX
  8
LAYER_9
 10
88.3987
 20
197.909
  0
VERTEX
  8
LAYER_9
 10
88.3987
 20
195.4486
  0
SEQEND
  0
ENDBLK
  0
BLOCK
  8
LAYER_9
  2
AIGNBL09010048
 70
64
 10
0
 20
0
 30
0
  3
AIGNBL09010048
  0
POLYLINE
  8
LAYER_9
 40
0.1058
 41
0.1058
 66
1
 10
0
 20
0
 30
0
  0
VERTEX
  8
LAYER_9
 10
83.0415
 20
159.7225
  0
VERTEX
  8
LAYER_9
 10
83.0415
 20
191.2165
  0
SEQEND
  0
ENDBLK
  0
BLOCK
  8
LAYER_9
  2
AIGNBL09010049
 70
64
 10
0
 20
0
 30
0
  3
AIGNBL09010049
  0
POLYLINE
  8
LAYER_9
 40
0.1058
 41
0.1058
 66
1
 10
0
 20
0
 30
0
  0
VERTEX
  8
LAYER_9
 10
88.3987
 20
195.4486
  0
VERTEX
  8
LAYER_9
 10
177.6844
 20
195.4486
  0
SEQEND
  0
ENDBLK
  0
BLOCK
  8
LAYER_9
  2
AIGNBL0901004A
 70
64
 10
0
 20
0
 30
0
  3
AIGNBL0901004A
  0
POLYLINE
  8
LAYER_9
 40
0.1058
 41
0.1058
 66
1
 10
0
 20
0
 30
0
  0
VERTEX
  8
LAYER_9
 10
182.2479
 20
159.7225
 42
-0.04620756298
  0
VERTEX
  8
LAYER_9
 10
182.1717
 20
158.8987
 42
-0.04887822742
  0
VERTEX
  8
LAYER_9
 10
181.9275
 20
158.056
 42
-0.05074605514
  0
VERTEX
  8
LAYER_9
 10
181.504
 20
157.2451
 42
-0.05167947316
  0
VERTEX
  8
LAYER_9
 10
180.9113
 20
156.5212
 42
-0.05147773474
  0
VERTEX
  8
LAYER_9
 10
180.1816
 20
155.9332
 42
-0.05034176258
  0
VERTEX
  8
LAYER_9
 10
179.3642
 20
155.513
 42
-0.09375974766
  0
VERTEX
  8
LAYER_9
 10
177.6844
 20
155.1952
  0
SEQEND
  0
ENDBLK
  0
BLOCK
  8
LAYER_9
  2
AIGNBL0901004B
 70
64
 10
0
 20
0
 30
0
  3
AIGNBL0901004B
  0
POLYLINE
  8
LAYER_9
 40
0.1058
 41
0.1058
 66
1
 10
0
 20
0
 30
0
  0
VERTEX
  8
LAYER_9
 10
177.6844
 20
195.7438
 42
-0.04548970798
  0
VERTEX
  8
LAYER_9
 10
178.5148
 20
195.6682
 42
-0.04816427178
  0
VERTEX
  8
LAYER_9
 10
179.3642
 20
195.4259
 42
-0.05028407447
  0
VERTEX
  8
LAYER_9
 10
180.1816
 20
195.0058
 42
-0.05151250916
  0
VERTEX
  8
LAYER_9
 10
180.9113
 20
194.4178
 42
-0.05164464819
  0
VERTEX
  8
LAYER_9
 10
181.504
 20
193.6939
 42
-0.05080423123
  0
VERTEX
  8
LAYER_9
 10
181.9276
 20
192.883
 42
-0.09508103177
  0
VERTEX
  8
LAYER_9
 10
182.2479
 20
191.2165
  0
SEQEND
  0
ENDBLK
  0
BLOCK
  8
LAYER_9
  2
AIGNBL0901004C
 70
64
 10
0
 20
0
 30
0
  3
AIGNBL0901004C
  0
POLYLINE
  8
LAYER_9
 40
0.1058
 41
0.1058
 66
1
 10
0
 20
0
 30
0
  0
VERTEX
  8
LAYER_9
 10
88.3987
 20
153.03
  0
VERTEX
  8
LAYER_9
 10
177.6844
 20
153.03
  0
SEQEND
  0
ENDBLK
  0
BLOCK
  8
LAYER_9
  2
AIGNBL0901004D
 70
64
 10
0
 20
0
 30
0
  3
AIGNBL0901004D
  0
POLYLINE
  8
LAYER_9
 40
0.1058
 41
0.1058
 66
1
 10
0
 20
0
 30
0
  0
VERTEX
  8
LAYER_9
 10
83.8352
 20
191.2165
 42
-0.04622474655
  0
VERTEX
  8
LAYER_9
 10
83.9114
 20
192.0403
 42
-0.04881721999
  0
VERTEX
  8
LAYER_9
 10
84.1556
 20
192.883
 42
-0.05074609739
  0
VERTEX
  8
LAYER_9
 10
84.5791
 20
193.6939
 42
-0.0516795215
  0
VERTEX
  8
LAYER_9
 10
85.1718
 20
194.4178
 42
-0.05147778608
  0
VERTEX
  8
LAYER_9
 10
85.9015
 20
195.0058
 42
-0.05034181389
  0
VERTEX
  8
LAYER_9
 10
86.7189
 20
195.426
 42
-0.09375983932
  0
VERTEX
  8
LAYER_9
 10
88.3987
 20
195.7438
  0
SEQEND
  0
ENDBLK
  0
BLOCK
  8
LAYER_9
  2
AIGNBL0901004E
 70
64
 10
0
 20
0
 30
0
  3
AIGNBL0901004E
  0
POLYLINE
  8
LAYER_9
 40
0.1058
 41
0.1058
 66
1
 10
0
 20
0
 30
0
  0
VERTEX
  8
LAYER_9
 10
183.0415
 20
159.7225
 42
-0.04612933811
  0
VERTEX
  8
LAYER_9
 10
182.9521
 20
158.7554
 42
-0.04881512792
  0
VERTEX
  8
LAYER_9
 10
182.6654
 20
157.7662
 42
-0.05074795109
  0
VERTEX
  8
LAYER_9
 10
182.1683
 20
156.8142
 42
-0.0516765243
  0
VERTEX
  8
LAYER_9
 10
181.4725
 20
155.9645
 42
-0.05148141054
  0
VERTEX
  8
LAYER_9
 10
180.6159
 20
155.2741
 42
-0.05033713472
  0
VERTEX
  8
LAYER_9
 10
179.6564
 20
154.7809
 42
-0.06600573474
  0
VERTEX
  8
LAYER_9
 10
178.2848
 20
154.4408
 42
-0.02751034737
  0
VERTEX
  8
LAYER_9
 10
177.6844
 20
154.4078
  0
SEQEND
  0
ENDBLK
  0
BLOCK
  8
LAYER_9
  2
AIGNBL0901004F
 70
64
 10
0
 20
0
 30
0
  3
AIGNBL0901004F
  0
POLYLINE
  8
LAYER_9
 40
0.1058
 41
0.1058
 66
1
 10
0
 20
0
 30
0
  0
VERTEX
  8
LAYER_9
 10
183.0415
 20
191.2165
  0
VERTEX
  8
LAYER_9
 10
183.0415
 20
159.7225
  0
SEQEND
  0
ENDBLK
  0
BLOCK
  8
LAYER_9
  2
AIGNBL09010050
 70
64
 10
0
 20
0
 30
0
  3
AIGNBL09010050
  0
POLYLINE
  8
LAYER_9
 40
0.1058
 41
0.1058
 66
1
 10
0
 20
0
 30
0
  0
VERTEX
  8
LAYER_9
 10
182.2479
 20
191.2165
  0
VERTEX
  8
LAYER_9
 10
182.2479
 20
159.7225
  0
SEQEND
  0
ENDBLK
  0
BLOCK
  8
LAYER_9
  2
AIGNBL09010051
 70
64
 10
0
 20
0
 30
0
  3
AIGNBL09010051
  0
POLYLINE
  8
LAYER_9
 40
0.1058
 41
0.1058
 66
1
 10
0
 20
0
 30
0
  0
VERTEX
  8
LAYER_9
 10
88.3987
 20
155.4904
  0
VERTEX
  8
LAYER_9
 10
177.6844
 20
155.4904
  0
SEQEND
  0
ENDBLK
  0
BLOCK
  8
LAYER_9
  2
AIGNBL09010052
 70
64
 10
0
 20
0
 30
0
  3
AIGNBL09010052
  0
POLYLINE
  8
LAYER_9
 40
0.1058
 41
0.1058
 66
1
 10
0
 20
0
 30
0
  0
VERTEX
  8
LAYER_9
 10
88.3987
 20
154.2602
  0
VERTEX
  8
LAYER_9
 10
88.3987
 20
153.03
  0
SEQEND
  0
ENDBLK
  0
BLOCK
  8
LAYER_9
  2
AIGNBL09010053
 70
64
 10
0
 20
0
 30
0
  3
AIGNBL09010053
  0
POLYLINE
  8
LAYER_9
 40
0.1058
 41
0.1058
 66
1
 10
0
 20
0
 30
0
  0
VERTEX
  8
LAYER_9
 10
88.3987
 20
197.909
  0
VERTEX
  8
LAYER_9
 10
177.6844
 20
197.909
  0
SEQEND
  0
ENDBLK
  0
BLOCK
  8
LAYER_9
  2
AIGNBL09010054
 70
64
 10
0
 20
0
 30
0
  3
AIGNBL09010054
  0
POLYLINE
  8
LAYER_9
 40
0.1058
 41
0.1058
 66
1
 10
0
 20
0
 30
0
  0
VERTEX
  8
LAYER_9
 10
177.6844
 20
113.0719
  0
VERTEX
  8
LAYER_9
 10
177.6844
 20
110.6114
  0
SEQEND
  0
ENDBLK
  0
BLOCK
  8
LAYER_9
  2
AIGNBL09010055
 70
64
 10
0
 20
0
 30
0
  3
AIGNBL09010055
  0
POLYLINE
  8
LAYER_9
 40
0.1058
 41
0.1058
 66
1
 10
0
 20
0
 30
0
  0
VERTEX
  8
LAYER_9
 10
88.3987
 20
113.0719
  0
VERTEX
  8
LAYER_9
 10
88.3987
 20
110.6114
  0
SEQEND
  0
ENDBLK
  0
BLOCK
  8
LAYER_9
  2
AIGNBL09010056
 70
64
 10
0
 20
0
 30
0
  3
AIGNBL09010056
  0
POLYLINE
  8
LAYER_9
 40
0.1058
 41
0.1058
 66
1
 10
0
 20
0
 30
0
  0
VERTEX
  8
LAYER_9
 10
88.3987
 20
110.6114
  0
VERTEX
  8
LAYER_9
 10
177.6844
 20
110.6114
  0
SEQEND
  0
ENDBLK
  0
BLOCK
  8
LAYER_9
  2
AIGNBL09010057
 70
64
 10
0
 20
0
 30
0
  3
AIGNBL09010057
  0
POLYLINE
  8
LAYER_9
 40
0.1058
 41
0.1058
 66
1
 10
0
 20
0
 30
0
  0
VERTEX
  8
LAYER_9
 10
88.3987
 20
113.0719
  0
VERTEX
  8
LAYER_9
 10
177.6844
 20
113.0719
  0
SEQEND
  0
ENDBLK
  0
BLOCK
  8
LAYER_9
  2
AIGNBL09010058
 70
64
 10
0
 20
0
 30
0
  3
AIGNBL09010058
  0
POLYLINE
  8
LAYER_9
 40
0.1058
 41
0.1058
 66
1
 10
0
 20
0
 30
0
  0
VERTEX
  8
LAYER_9
 10
53.5998
 20
152.9908
 42
0.1329882668
  0
VERTEX
  8
LAYER_9
 10
54.1803
 20
153.3624
 42
0.1394815858
  0
VERTEX
  8
LAYER_9
 10
54.4178
 20
153.8971
 42
0.04042141368
  0
VERTEX
  8
LAYER_9
 10
54.4383
 20
154.159
 42
0.1329851443
  0
VERTEX
  8
LAYER_9
 10
54.272
 20
154.8279
 42
0.139486185
  0
VERTEX
  8
LAYER_9
 10
53.8414
 20
155.2241
 42
0.0404194189
  0
VERTEX
  8
LAYER_9
 10
53.5998
 20
155.3273
  0
SEQEND
  0
ENDBLK
  0
BLOCK
  8
LAYER_9
  2
AIGNBL09010059
 70
64
 10
0
 20
0
 30
0
  3
AIGNBL09010059
  0
POLYLINE
  8
LAYER_9
 40
0.1058
 41
0.1058
 66
1
 10
0
 20
0
 30
0
  0
VERTEX
  8
LAYER_9
 10
52.8107
 20
155.3273
 42
0.13299526
  0
VERTEX
  8
LAYER_9
 10
52.2302
 20
154.9557
 42
0.1394833124
  0
VERTEX
  8
LAYER_9
 10
51.9927
 20
154.4209
 42
0.04041578817
  0
VERTEX
  8
LAYER_9
 10
51.9722
 20
154.159
  0
SEQEND
  0
ENDBLK
  0
BLOCK
  8
LAYER_9
  2
AIGNBL0901005A
 70
64
 10
0
 20
0
 30
0
  3
AIGNBL0901005A
  0
POLYLINE
  8
LAYER_9
 40
0.1058
 41
0.1058
 66
1
 10
0
 20
0
 30
0
  0
VERTEX
  8
LAYER_9
 10
51.9722
 20
154.159
 42
0.1329959927
  0
VERTEX
  8
LAYER_9
 10
52.1385
 20
153.4901
 42
0.1394786658
  0
VERTEX
  8
LAYER_9
 10
52.5691
 20
153.094
 42
0.04041851236
  0
VERTEX
  8
LAYER_9
 10
52.8107
 20
152.9908
  0
SEQEND
  0
ENDBLK
  0
BLOCK
  8
LAYER_9
  2
AIGNBL0901005B
 70
64
 10
0
 20
0
 30
0
  3
AIGNBL0901005B
  0
POLYLINE
  8
LAYER_9
 40
0.1058
 41
0.1058
 66
1
 10
0
 20
0
 30
0
  0
VERTEX
  8
LAYER_9
 10
52.8107
 20
117.117
  0
VERTEX
  8
LAYER_9
 10
52.8107
 20
148.6841
  0
SEQEND
  0
ENDBLK
  0
BLOCK
  8
LAYER_9
  2
AIGNBL0901005C
 70
64
 10
0
 20
0
 30
0
  3
AIGNBL0901005C
  0
POLYLINE
  8
LAYER_9
 40
0.1058
 41
0.1058
 66
1
 10
0
 20
0
 30
0
  0
VERTEX
  8
LAYER_9
 10
53.2052
 20
154.0111
 42
-0.3347982462
  0
VERTEX
  8
LAYER_9
 10
53.5846
 20
153.725
  0
SEQEND
  0
ENDBLK
  0
BLOCK
  8
LAYER_9
  2
AIGNBL0901005D
 70
64
 10
0
 20
0
 30
0
  3
AIGNBL0901005D
  0
POLYLINE
  8
LAYER_9
 40
0.1058
 41
0.1058
 66
1
 10
0
 20
0
 30
0
  0
VERTEX
  8
LAYER_9
 10
52.8107
 20
153.6165
 42
-0.255417766
  0
VERTEX
  8
LAYER_9
 10
52.9648
 20
153.9556
 42
-0.1414940802
  0
VERTEX
  8
LAYER_9
 10
53.2052
 20
154.0111
  0
SEQEND
  0
ENDBLK
  0
BLOCK
  8
LAYER_9
  2
AIGNBL0901005E
 70
64
 10
0
 20
0
 30
0
  3
AIGNBL0901005E
  0
POLYLINE
  8
LAYER_9
 40
0.1058
 41
0.1058
 66
1
 10
0
 20
0
 30
0
  0
VERTEX
  8
LAYER_9
 10
52.8107
 20
112.1847
  0
VERTEX
  8
LAYER_9
 10
52.8107
 20
112.267
  0
VERTEX
  8
LAYER_9
 10
52.8107
 20
112.531
  0
VERTEX
  8
LAYER_9
 10
52.8107
 20
112.9887
  0
VERTEX
  8
LAYER_9
 10
52.8107
 20
113.6293
  0
VERTEX
  8
LAYER_9
 10
52.8107
 20
114.418
  0
VERTEX
  8
LAYER_9
 10
52.8107
 20
115.3014
  0
VERTEX
  8
LAYER_9
 10
52.8107
 20
117.117
  0
SEQEND
  0
ENDBLK
  0
BLOCK
  8
LAYER_9
  2
AIGNBL0901005F
 70
64
 10
0
 20
0
 30
0
  3
AIGNBL0901005F
  0
POLYLINE
  8
LAYER_9
 40
0.1058
 41
0.1058
 66
1
 10
0
 20
0
 30
0
  0
VERTEX
  8
LAYER_9
 10
52.8107
 20
148.6841
  0
VERTEX
  8
LAYER_9
 10
52.8107
 20
149.5816
  0
VERTEX
  8
LAYER_9
 10
52.8107
 20
150.4997
  0
VERTEX
  8
LAYER_9
 10
52.8107
 20
151.3832
  0
VERTEX
  8
LAYER_9
 10
52.8107
 20
152.1718
  0
VERTEX
  8
LAYER_9
 10
52.8107
 20
152.8125
  0
VERTEX
  8
LAYER_9
 10
52.8107
 20
153.2702
  0
VERTEX
  8
LAYER_9
 10
52.8107
 20
153.6165
  0
SEQEND
  0
ENDBLK
  0
BLOCK
  8
LAYER_9
  2
AIGNBL09010060
 70
64
 10
0
 20
0
 30
0
  3
AIGNBL09010060
  0
POLYLINE
  8
LAYER_9
 40
0.1058
 41
0.1058
 66
1
 10
0
 20
0
 30
0
  0
VERTEX
  8
LAYER_9
 10
53.5998
 20
148.6841
  0
VERTEX
  8
LAYER_9
 10
53.5998
 20
117.117
  0
SEQEND
  0
ENDBLK
  0
BLOCK
  8
LAYER_9
  2
AIGNBL09010061
 70
64
 10
0
 20
0
 30
0
  3
AIGNBL09010061
  0
POLYLINE
  8
LAYER_9
 40
0.1058
 41
0.1058
 66
1
 10
0
 20
0
 30
0
  0
VERTEX
  8
LAYER_9
 10
53.5998
 20
153.6165
  0
VERTEX
  8
LAYER_9
 10
53.5998
 20
153.2702
  0
VERTEX
  8
LAYER_9
 10
53.5998
 20
152.8125
  0
VERTEX
  8
LAYER_9
 10
53.5998
 20
152.1718
  0
VERTEX
  8
LAYER_9
 10
53.5998
 20
151.3832
  0
VERTEX
  8
LAYER_9
 10
53.5998
 20
150.4997
  0
VERTEX
  8
LAYER_9
 10
53.5998
 20
149.5816
  0
VERTEX
  8
LAYER_9
 10
53.5998
 20
148.6841
  0
SEQEND
  0
ENDBLK
  0
BLOCK
  8
LAYER_9
  2
AIGNBL09010062
 70
64
 10
0
 20
0
 30
0
  3
AIGNBL09010062
  0
POLYLINE
  8
LAYER_9
 40
0.1058
 41
0.1058
 66
1
 10
0
 20
0
 30
0
  0
VERTEX
  8
LAYER_9
 10
53.5998
 20
117.117
  0
VERTEX
  8
LAYER_9
 10
53.5998
 20
115.3014
  0
VERTEX
  8
LAYER_9
 10
53.5998
 20
114.418
  0
VERTEX
  8
LAYER_9
 10
53.5998
 20
113.6293
  0
VERTEX
  8
LAYER_9
 10
53.5998
 20
112.9887
  0
VERTEX
  8
LAYER_9
 10
53.5998
 20
112.531
  0
VERTEX
  8
LAYER_9
 10
53.5998
 20
112.267
  0
VERTEX
  8
LAYER_9
 10
53.5998
 20
112.1847
  0
SEQEND
  0
ENDBLK
  0
BLOCK
  8
LAYER_9
  2
AIGNBL09010063
 70
64
 10
0
 20
0
 30
0
  3
AIGNBL09010063
  0
POLYLINE
  8
LAYER_9
 40
0.1058
 41
0.1058
 66
1
 10
0
 20
0
 30
0
  0
VERTEX
  8
LAYER_9
 10
53.5998
 20
112.1847
 42
-0.2554907556
  0
VERTEX
  8
LAYER_9
 10
53.4457
 20
111.8456
 42
-0.1414317133
  0
VERTEX
  8
LAYER_9
 10
53.2052
 20
111.7901
  0
SEQEND
  0
ENDBLK
  0
BLOCK
  8
LAYER_9
  2
AIGNBL09010064
 70
64
 10
0
 20
0
 30
0
  3
AIGNBL09010064
  0
POLYLINE
  8
LAYER_9
 40
0.1058
 41
0.1058
 66
1
 10
0
 20
0
 30
0
  0
VERTEX
  8
LAYER_9
 10
53.2052
 20
111.7901
 42
-0.2555237761
  0
VERTEX
  8
LAYER_9
 10
52.8662
 20
111.9442
 42
-0.1414136945
  0
VERTEX
  8
LAYER_9
 10
52.8107
 20
112.1847
  0
SEQEND
  0
ENDBLK
  0
BLOCK
  8
LAYER_9
  2
AIGNBL09010065
 70
64
 10
0
 20
0
 30
0
  3
AIGNBL09010065
  0
POLYLINE
  8
LAYER_9
 40
0.1058
 41
0.1058
 66
1
 10
0
 20
0
 30
0
  0
VERTEX
  8
LAYER_9
 10
53.5846
 20
153.725
  0
VERTEX
  8
LAYER_9
 10
53.5998
 20
153.6165
  0
SEQEND
  0
ENDBLK
  0
BLOCK
  8
LAYER_9
  2
AIGNBL09010066
 70
64
 10
0
 20
0
 30
0
  3
AIGNBL09010066
  0
POLYLINE
  8
LAYER_9
 40
0.1058
 41
0.1058
 66
1
 10
0
 20
0
 30
0
  0
VERTEX
  8
LAYER_9
 10
53.2052
 20
154.307
 42
0.3347533485
  0
VERTEX
  8
LAYER_9
 10
53.5846
 20
154.593
  0
SEQEND
  0
ENDBLK
  0
BLOCK
  8
LAYER_9
  2
AIGNBL09010067
 70
64
 10
0
 20
0
 30
0
  3
AIGNBL09010067
  0
POLYLINE
  8
LAYER_9
 40
0.1058
 41
0.1058
 66
1
 10
0
 20
0
 30
0
  0
VERTEX
  8
LAYER_9
 10
52.8107
 20
154.7016
 42
0.2554528149
  0
VERTEX
  8
LAYER_9
 10
52.9648
 20
154.3625
 42
0.1414580496
  0
VERTEX
  8
LAYER_9
 10
53.2052
 20
154.307
  0
SEQEND
  0
ENDBLK
  0
BLOCK
  8
LAYER_9
  2
AIGNBL09010068
 70
64
 10
0
 20
0
 30
0
  3
AIGNBL09010068
  0
POLYLINE
  8
LAYER_9
 40
0.1058
 41
0.1058
 66
1
 10
0
 20
0
 30
0
  0
VERTEX
  8
LAYER_9
 10
53.5846
 20
154.593
  0
VERTEX
  8
LAYER_9
 10
53.5998
 20
154.7016
  0
SEQEND
  0
ENDBLK
  0
BLOCK
  8
LAYER_9
  2
AIGNBL09010069
 70
64
 10
0
 20
0
 30
0
  3
AIGNBL09010069
  0
POLYLINE
  8
LAYER_9
 40
0.1058
 41
0.1058
 66
1
 10
0
 20
0
 30
0
  0
VERTEX
  8
LAYER_9
 10
53.5998
 20
196.1334
  0
VERTEX
  8
LAYER_9
 10
53.5998
 20
196.051
  0
VERTEX
  8
LAYER_9
 10
53.5998
 20
195.7871
  0
VERTEX
  8
LAYER_9
 10
53.5998
 20
195.3294
  0
VERTEX
  8
LAYER_9
 10
53.5998
 20
194.6887
  0
VERTEX
  8
LAYER_9
 10
53.5998
 20
193.9001
  0
VERTEX
  8
LAYER_9
 10
53.5998
 20
193.0166
  0
VERTEX
  8
LAYER_9
 10
53.5998
 20
191.201
  0
SEQEND
  0
ENDBLK
  0
BLOCK
  8
LAYER_9
  2
AIGNBL0901006A
 70
64
 10
0
 20
0
 30
0
  3
AIGNBL0901006A
  0
POLYLINE
  8
LAYER_9
 40
0.1058
 41
0.1058
 66
1
 10
0
 20
0
 30
0
  0
VERTEX
  8
LAYER_9
 10
52.8107
 20
196.1334
  0
VERTEX
  8
LAYER_9
 10
52.8107
 20
196.051
  0
VERTEX
  8
LAYER_9
 10
52.8107
 20
195.7871
  0
VERTEX
  8
LAYER_9
 10
52.8107
 20
195.3294
  0
VERTEX
  8
LAYER_9
 10
52.8107
 20
194.6887
  0
VERTEX
  8
LAYER_9
 10
52.8107
 20
193.9001
  0
VERTEX
  8
LAYER_9
 10
52.8107
 20
193.0166
  0
VERTEX
  8
LAYER_9
 10
52.8107
 20
191.201
  0
SEQEND
  0
ENDBLK
  0
BLOCK
  8
LAYER_9
  2
AIGNBL0901006B
 70
64
 10
0
 20
0
 30
0
  3
AIGNBL0901006B
  0
POLYLINE
  8
LAYER_9
 40
0.1058
 41
0.1058
 66
1
 10
0
 20
0
 30
0
  0
VERTEX
  8
LAYER_9
 10
53.5998
 20
195.5077
 42
0.1329882668
  0
VERTEX
  8
LAYER_9
 10
54.1803
 20
195.8793
 42
0.1394815858
  0
VERTEX
  8
LAYER_9
 10
54.4178
 20
196.414
 42
0.04042141368
  0
VERTEX
  8
LAYER_9
 10
54.4383
 20
196.6759
  0
SEQEND
  0
ENDBLK
  0
BLOCK
  8
LAYER_9
  2
AIGNBL0901006C
 70
64
 10
0
 20
0
 30
0
  3
AIGNBL0901006C
  0
POLYLINE
  8
LAYER_9
 40
0.1058
 41
0.1058
 66
1
 10
0
 20
0
 30
0
  0
VERTEX
  8
LAYER_9
 10
59.9626
 20
195.6063
  0
VERTEX
  8
LAYER_9
 10
53.8203
 20
195.6063
  0
SEQEND
  0
ENDBLK
  0
BLOCK
  8
LAYER_9
  2
AIGNBL0901006D
 70
64
 10
0
 20
0
 30
0
  3
AIGNBL0901006D
  0
POLYLINE
  8
LAYER_9
 40
0.1058
 41
0.1058
 66
1
 10
0
 20
0
 30
0
  0
VERTEX
  8
LAYER_9
 10
52.8107
 20
159.6339
  0
VERTEX
  8
LAYER_9
 10
52.8107
 20
158.7364
  0
VERTEX
  8
LAYER_9
 10
52.8107
 20
157.8184
  0
VERTEX
  8
LAYER_9
 10
52.8107
 20
156.9349
  0
VERTEX
  8
LAYER_9
 10
52.8107
 20
156.1463
  0
VERTEX
  8
LAYER_9
 10
52.8107
 20
155.5056
  0
VERTEX
  8
LAYER_9
 10
52.8107
 20
155.0478
  0
VERTEX
  8
LAYER_9
 10
52.8107
 20
154.7016
  0
SEQEND
  0
ENDBLK
  0
BLOCK
  8
LAYER_9
  2
AIGNBL0901006E
 70
64
 10
0
 20
0
 30
0
  3
AIGNBL0901006E
  0
POLYLINE
  8
LAYER_9
 40
0.1058
 41
0.1058
 66
1
 10
0
 20
0
 30
0
  0
VERTEX
  8
LAYER_9
 10
52.8107
 20
154.7016
 42
0.2554528149
  0
VERTEX
  8
LAYER_9
 10
52.9648
 20
154.3625
 42
0.1414580496
  0
VERTEX
  8
LAYER_9
 10
53.2052
 20
154.307
  0
SEQEND
  0
ENDBLK
  0
BLOCK
  8
LAYER_9
  2
AIGNBL0901006F
 70
64
 10
0
 20
0
 30
0
  3
AIGNBL0901006F
  0
POLYLINE
  8
LAYER_9
 40
0.1058
 41
0.1058
 66
1
 10
0
 20
0
 30
0
  0
VERTEX
  8
LAYER_9
 10
53.2052
 20
154.307
 42
0.3347535933
  0
VERTEX
  8
LAYER_9
 10
53.5846
 20
154.593
  0
SEQEND
  0
ENDBLK
  0
BLOCK
  8
LAYER_9
  2
AIGNBL09010070
 70
64
 10
0
 20
0
 30
0
  3
AIGNBL09010070
  0
POLYLINE
  8
LAYER_9
 40
0.1058
 41
0.1058
 66
1
 10
0
 20
0
 30
0
  0
VERTEX
  8
LAYER_9
 10
53.5846
 20
154.593
  0
VERTEX
  8
LAYER_9
 10
53.5998
 20
154.7016
  0
SEQEND
  0
ENDBLK
  0
BLOCK
  8
LAYER_9
  2
AIGNBL09010071
 70
64
 10
0
 20
0
 30
0
  3
AIGNBL09010071
  0
POLYLINE
  8
LAYER_9
 40
0.1058
 41
0.1058
 66
1
 10
0
 20
0
 30
0
  0
VERTEX
  8
LAYER_9
 10
53.5998
 20
154.7016
  0
VERTEX
  8
LAYER_9
 10
53.5998
 20
155.0478
  0
VERTEX
  8
LAYER_9
 10
53.5998
 20
155.5056
  0
VERTEX
  8
LAYER_9
 10
53.5998
 20
156.1463
  0
VERTEX
  8
LAYER_9
 10
53.5998
 20
156.9349
  0
VERTEX
  8
LAYER_9
 10
53.5998
 20
157.8184
  0
VERTEX
  8
LAYER_9
 10
53.5998
 20
158.7364
  0
VERTEX
  8
LAYER_9
 10
53.5998
 20
159.6339
  0
SEQEND
  0
ENDBLK
  0
BLOCK
  8
LAYER_9
  2
AIGNBL09010072
 70
64
 10
0
 20
0
 30
0
  3
AIGNBL09010072
  0
POLYLINE
  8
LAYER_9
 40
0.1058
 41
0.1058
 66
1
 10
0
 20
0
 30
0
  0
VERTEX
  8
LAYER_9
 10
53.2052
 20
196.528
 42
0.2555440511
  0
VERTEX
  8
LAYER_9
 10
52.8662
 20
196.3738
 42
0.1414026059
  0
VERTEX
  8
LAYER_9
 10
52.8107
 20
196.1334
  0
SEQEND
  0
ENDBLK
  0
BLOCK
  8
LAYER_9
  2
AIGNBL09010073
 70
64
 10
0
 20
0
 30
0
  3
AIGNBL09010073
  0
POLYLINE
  8
LAYER_9
 40
0.1058
 41
0.1058
 66
1
 10
0
 20
0
 30
0
  0
VERTEX
  8
LAYER_9
 10
54.4383
 20
196.6759
 42
0.1213749213
  0
VERTEX
  8
LAYER_9
 10
54.2791
 20
197.403
 42
0.2263704471
  0
VERTEX
  8
LAYER_9
 10
53.6085
 20
197.8692
 42
0.05437184605
  0
VERTEX
  8
LAYER_9
 10
53.2052
 20
197.909
 42
0.1213846033
  0
VERTEX
  8
LAYER_9
 10
52.4782
 20
197.7498
 42
0.2263643332
  0
VERTEX
  8
LAYER_9
 10
52.012
 20
197.0792
 42
0.0543706678
  0
VERTEX
  8
LAYER_9
 10
51.9722
 20
196.6759
 42
0.1329959927
  0
VERTEX
  8
LAYER_9
 10
52.1385
 20
196.007
 42
0.1394786658
  0
VERTEX
  8
LAYER_9
 10
52.5691
 20
195.6109
 42
0.04041851236
  0
VERTEX
  8
LAYER_9
 10
52.8107
 20
195.5077
  0
SEQEND
  0
ENDBLK
  0
BLOCK
  8
LAYER_9
  2
AIGNBL09010074
 70
64
 10
0
 20
0
 30
0
  3
AIGNBL09010074
  0
POLYLINE
  8
LAYER_9
 40
0.1058
 41
0.1058
 66
1
 10
0
 20
0
 30
0
  0
VERTEX
  8
LAYER_9
 10
53.5998
 20
191.201
  0
VERTEX
  8
LAYER_9
 10
53.5998
 20
159.6339
  0
SEQEND
  0
ENDBLK
  0
BLOCK
  8
LAYER_9
  2
AIGNBL09010075
 70
64
 10
0
 20
0
 30
0
  3
AIGNBL09010075
  0
POLYLINE
  8
LAYER_9
 40
0.1058
 41
0.1058
 66
1
 10
0
 20
0
 30
0
  0
VERTEX
  8
LAYER_9
 10
59.9626
 20
195.6063
  0
VERTEX
  8
LAYER_9
 10
59.9626
 20
197.7766
  0
SEQEND
  0
ENDBLK
  0
BLOCK
  8
LAYER_9
  2
AIGNBL09010076
 70
64
 10
0
 20
0
 30
0
  3
AIGNBL09010076
  0
POLYLINE
  8
LAYER_9
 40
0.1058
 41
0.1058
 66
1
 10
0
 20
0
 30
0
  0
VERTEX
  8
LAYER_9
 10
175.4028
 20
60.6002
  0
VERTEX
  8
LAYER_9
 10
175.4028
 20
66.1558
  0
SEQEND
  0
ENDBLK
  0
BLOCK
  8
LAYER_9
  2
AIGNBL09010077
 70
64
 10
0
 20
0
 30
0
  3
AIGNBL09010077
  0
POLYLINE
  8
LAYER_9
 40
0.1058
 41
0.1058
 66
1
 10
0
 20
0
 30
0
  0
VERTEX
  8
LAYER_9
 10
175.4028
 20
66.1558
  0
VERTEX
  8
LAYER_9
 10
173.2202
 20
66.1558
  0
SEQEND
  0
ENDBLK
  0
BLOCK
  8
LAYER_9
  2
AIGNBL09010078
 70
64
 10
0
 20
0
 30
0
  3
AIGNBL09010078
  0
POLYLINE
  8
LAYER_9
 40
0.1058
 41
0.1058
 66
1
 10
0
 20
0
 30
0
  0
VERTEX
  8
LAYER_9
 10
173.2202
 20
66.1558
  0
VERTEX
  8
LAYER_9
 10
173.2202
 20
60.6002
  0
SEQEND
  0
ENDBLK
  0
BLOCK
  8
LAYER_9
  2
AIGNBL09010079
 70
64
 10
0
 20
0
 30
0
  3
AIGNBL09010079
  0
POLYLINE
  8
LAYER_9
 40
0.1058
 41
0.1058
 66
1
 10
0
 20
0
 30
0
  0
VERTEX
  8
LAYER_9
 10
173.2202
 20
60.6002
  0
VERTEX
  8
LAYER_9
 10
173.2243
 20
60.5954
  0
VERTEX
  8
LAYER_9
 10
173.2363
 20
60.5837
  0
VERTEX
  8
LAYER_9
 10
173.2749
 20
60.5479
  0
VERTEX
  8
LAYER_9
 10
173.3861
 20
60.4486
  0
VERTEX
  8
LAYER_9
 10
173.5767
 20
60.2884
  0
VERTEX
  8
LAYER_9
 10
173.8741
 20
60.0722
 42
0.06239335069
  0
VERTEX
  8
LAYER_9
 10
174.1047
 20
59.9569
 42
0.089144137
  0
VERTEX
  8
LAYER_9
 10
174.3115
 20
59.9193
  0
VERTEX
  8
LAYER_9
 10
174.4138
 20
59.9287
  0
VERTEX
  8
LAYER_9
 10
174.5178
 20
59.9567
 42
0.05108588478
  0
VERTEX
  8
LAYER_9
 10
174.7491
 20
60.0723
 42
0.02658861553
  0
VERTEX
  8
LAYER_9
 10
175.0466
 20
60.2887
  0
VERTEX
  8
LAYER_9
 10
175.2369
 20
60.4486
  0
VERTEX
  8
LAYER_9
 10
175.3481
 20
60.5479
  0
VERTEX
  8
LAYER_9
 10
175.3868
 20
60.5837
  0
VERTEX
  8
LAYER_9
 10
175.3987
 20
60.5954
  0
VERTEX
  8
LAYER_9
 10
175.4028
 20
60.6002
  0
SEQEND
  0
ENDBLK
  0
BLOCK
  8
LAYER_9
  2
AIGNBL0901007A
 70
64
 10
0
 20
0
 30
0
  3
AIGNBL0901007A
  0
POLYLINE
  8
LAYER_9
 40
0.1058
 41
0.1058
 66
1
 10
0
 20
0
 30
0
  0
VERTEX
  8
LAYER_9
 10
53.5998
 20
196.1334
 42
0.2554557049
  0
VERTEX
  8
LAYER_9
 10
53.4457
 20
196.4725
 42
0.1414677433
  0
VERTEX
  8
LAYER_9
 10
53.2052
 20
196.528
  0
SEQEND
  0
ENDBLK
  0
BLOCK
  8
LAYER_9
  2
AIGNBL0901007B
 70
64
 10
0
 20
0
 30
0
  3
AIGNBL0901007B
  0
POLYLINE
  8
LAYER_9
 40
0.1058
 41
0.1058
 66
1
 10
0
 20
0
 30
0
  0
VERTEX
  8
LAYER_9
 10
52.8107
 20
191.201
  0
VERTEX
  8
LAYER_9
 10
52.8107
 20
159.6339
  0
SEQEND
  0
ENDBLK
  0
BLOCK
  8
LAYER_9
  2
AIGNBL0901007C
 70
64
 10
0
 20
0
 30
0
  3
AIGNBL0901007C
  0
POLYLINE
  8
LAYER_9
 40
0.1058
 41
0.1058
 66
1
 10
0
 20
0
 30
0
  0
VERTEX
  8
LAYER_9
 10
92.0518
 20
66.1558
  0
VERTEX
  8
LAYER_9
 10
89.8693
 20
66.1558
  0
SEQEND
  0
ENDBLK
  0
BLOCK
  8
LAYER_9
  2
AIGNBL0901007D
 70
64
 10
0
 20
0
 30
0
  3
AIGNBL0901007D
  0
POLYLINE
  8
LAYER_9
 40
0.1058
 41
0.1058
 66
1
 10
0
 20
0
 30
0
  0
VERTEX
  8
LAYER_9
 10
89.8693
 20
66.1558
  0
VERTEX
  8
LAYER_9
 10
89.8693
 20
60.6002
  0
SEQEND
  0
ENDBLK
  0
BLOCK
  8
LAYER_9
  2
AIGNBL0901007E
 70
64
 10
0
 20
0
 30
0
  3
AIGNBL0901007E
  0
POLYLINE
  8
LAYER_9
 40
0.1058
 41
0.1058
 66
1
 10
0
 20
0
 30
0
  0
VERTEX
  8
LAYER_9
 10
89.8693
 20
60.6002
  0
VERTEX
  8
LAYER_9
 10
89.8733
 20
60.5954
  0
VERTEX
  8
LAYER_9
 10
89.8853
 20
60.5837
  0
VERTEX
  8
LAYER_9
 10
89.9239
 20
60.5479
  0
VERTEX
  8
LAYER_9
 10
90.0352
 20
60.4486
  0
VERTEX
  8
LAYER_9
 10
90.2257
 20
60.2884
  0
VERTEX
  8
LAYER_9
 10
90.5231
 20
60.0722
 42
0.06239335069
  0
VERTEX
  8
LAYER_9
 10
90.7537
 20
59.9569
 42
0.08913349612
  0
VERTEX
  8
LAYER_9
 10
90.9605
 20
59.9193
  0
VERTEX
  8
LAYER_9
 10
91.0628
 20
59.9287
  0
VERTEX
  8
LAYER_9
 10
91.1668
 20
59.9567
 42
0.05127534404
  0
VERTEX
  8
LAYER_9
 10
91.3981
 20
60.0723
 42
0.02667872824
  0
VERTEX
  8
LAYER_9
 10
91.6957
 20
60.2887
  0
VERTEX
  8
LAYER_9
 10
91.8859
 20
60.4486
  0
VERTEX
  8
LAYER_9
 10
91.9972
 20
60.5479
  0
VERTEX
  8
LAYER_9
 10
92.0358
 20
60.5837
  0
VERTEX
  8
LAYER_9
 10
92.0478
 20
60.5954
  0
VERTEX
  8
LAYER_9
 10
92.0518
 20
60.6002
  0
SEQEND
  0
ENDBLK
  0
BLOCK
  8
LAYER_9
  2
AIGNBL0901007F
 70
64
 10
0
 20
0
 30
0
  3
AIGNBL0901007F
  0
POLYLINE
  8
LAYER_9
 40
0.1058
 41
0.1058
 66
1
 10
0
 20
0
 30
0
  0
VERTEX
  8
LAYER_9
 10
92.0518
 20
60.6002
  0
VERTEX
  8
LAYER_9
 10
92.0518
 20
66.1558
  0
SEQEND
  0
ENDBLK
  0
BLOCK
  8
LAYER_9
  2
AIGNBL09010080
 70
64
 10
0
 20
0
 30
0
  3
AIGNBL09010080
  0
POLYLINE
  8
LAYER_9
 40
0.1058
 41
0.1058
 66
1
 10
0
 20
0
 30
0
  0
VERTEX
  8
LAYER_9
 10
59.9626
 20
197.7766
  0
VERTEX
  8
LAYER_9
 10
53.7621
 20
197.7766
  0
SEQEND
  0
ENDBLK
  0
BLOCK
  8
LAYER_9
  2
AIGNBL09010081
 70
64
 10
0
 20
0
 30
0
  3
AIGNBL09010081
  0
POLYLINE
  8
LAYER_9
 40
0.1058
 41
0.1058
 66
1
 10
0
 20
0
 30
0
  0
VERTEX
  8
LAYER_9
 10
53.5998
 20
152.9908
 42
-0.08195519713
  0
VERTEX
  8
LAYER_9
 10
53.2052
 20
152.9259
 42
-0.08192680561
  0
VERTEX
  8
LAYER_9
 10
52.8107
 20
152.9908
  0
SEQEND
  0
ENDBLK
  0
BLOCK
  8
LAYER_9
  2
AIGNBL09010082
 70
64
 10
0
 20
0
 30
0
  3
AIGNBL09010082
  0
POLYLINE
  8
LAYER_9
 40
0.1058
 41
0.1058
 66
1
 10
0
 20
0
 30
0
  0
VERTEX
  8
LAYER_9
 10
53.5998
 20
155.3273
 42
0.08194466465
  0
VERTEX
  8
LAYER_9
 10
53.2052
 20
155.3921
 42
0.08194383414
  0
VERTEX
  8
LAYER_9
 10
52.8107
 20
155.3273
  0
SEQEND
  0
ENDBLK
  0
BLOCK
  8
LAYER_9
  2
AIGNBL09010083
 70
64
 10
0
 20
0
 30
0
  3
AIGNBL09010083
  0
POLYLINE
  8
LAYER_9
 40
0.1058
 41
0.1058
 66
1
 10
0
 20
0
 30
0
  0
VERTEX
  8
LAYER_9
 10
59.9626
 20
195.8035
  0
VERTEX
  8
LAYER_9
 10
55.0302
 20
195.8035
  0
SEQEND
  0
ENDBLK
  0
BLOCK
  8
LAYER_9
  2
AIGNBL09010084
 70
64
 10
0
 20
0
 30
0
  3
AIGNBL09010084
  0
POLYLINE
  8
LAYER_9
 40
0.1058
 41
0.1058
 66
1
 10
0
 20
0
 30
0
  0
VERTEX
  8
LAYER_9
 10
53.5998
 20
155.3273
 42
0.08194466465
  0
VERTEX
  8
LAYER_9
 10
53.2052
 20
155.3921
 42
0.08194383414
  0
VERTEX
  8
LAYER_9
 10
52.8107
 20
155.3273
  0
SEQEND
  0
ENDBLK
  0
BLOCK
  8
LAYER_9
  2
AIGNBL09010085
 70
64
 10
0
 20
0
 30
0
  3
AIGNBL09010085
  0
POLYLINE
  8
LAYER_9
 40
0.1058
 41
0.1058
 66
1
 10
0
 20
0
 30
0
  0
VERTEX
  8
LAYER_9
 10
59.9626
 20
196.9379
  0
VERTEX
  8
LAYER_9
 10
59.6666
 20
196.9379
  0
SEQEND
  0
ENDBLK
  0
BLOCK
  8
LAYER_9
  2
AIGNBL09010086
 70
64
 10
0
 20
0
 30
0
  3
AIGNBL09010086
  0
POLYLINE
  8
LAYER_9
 40
0.1058
 41
0.1058
 66
1
 10
0
 20
0
 30
0
  0
VERTEX
  8
LAYER_9
 10
59.6666
 20
196.9379
  0
VERTEX
  8
LAYER_9
 10
59.6666
 20
196.4447
  0
SEQEND
  0
ENDBLK
  0
BLOCK
  8
LAYER_9
  2
AIGNBL09010087
 70
64
 10
0
 20
0
 30
0
  3
AIGNBL09010087
  0
POLYLINE
  8
LAYER_9
 40
0.1058
 41
0.1058
 66
1
 10
0
 20
0
 30
0
  0
VERTEX
  8
LAYER_9
 10
59.6666
 20
196.4447
  0
VERTEX
  8
LAYER_9
 10
59.6666
 20
196.1981
  0
SEQEND
  0
ENDBLK
  0
BLOCK
  8
LAYER_9
  2
AIGNBL09010088
 70
64
 10
0
 20
0
 30
0
  3
AIGNBL09010088
  0
POLYLINE
  8
LAYER_9
 40
0.1058
 41
0.1058
 66
1
 10
0
 20
0
 30
0
  0
VERTEX
  8
LAYER_9
 10
59.6666
 20
196.1981
  0
VERTEX
  8
LAYER_9
 10
59.9626
 20
196.1981
  0
SEQEND
  0
ENDBLK
  0
BLOCK
  8
LAYER_9
  2
AIGNBL09010089
 70
64
 10
0
 20
0
 30
0
  3
AIGNBL09010089
  0
POLYLINE
  8
LAYER_9
 40
0.1058
 41
0.1058
 66
1
 10
0
 20
0
 30
0
  0
VERTEX
  8
LAYER_9
 10
177.6846
 20
153.3252
  0
VERTEX
  8
LAYER_9
 10
172.7243
 20
153.3252
  0
SEQEND
  0
ENDBLK
  0
BLOCK
  8
LAYER_9
  2
AIGNBL0901008A
 70
64
 10
0
 20
0
 30
0
  3
AIGNBL0901008A
  0
POLYLINE
  8
LAYER_9
 40
0.1058
 41
0.1058
 66
1
 10
0
 20
0
 30
0
  0
VERTEX
  8
LAYER_9
 10
172.7243
 20
153.3252
  0
VERTEX
  8
LAYER_9
 10
172.7243
 20
154.1126
  0
SEQEND
  0
ENDBLK
  0
BLOCK
  8
LAYER_9
  2
AIGNBL0901008B
 70
64
 10
0
 20
0
 30
0
  3
AIGNBL0901008B
  0
POLYLINE
  8
LAYER_9
 40
0.1058
 41
0.1058
 66
1
 10
0
 20
0
 30
0
  0
VERTEX
  8
LAYER_9
 10
172.7243
 20
154.1126
  0
VERTEX
  8
LAYER_9
 10
177.6846
 20
154.1126
  0
SEQEND
  0
ENDBLK
  0
BLOCK
  8
LAYER_9
  2
AIGNBL0901008C
 70
64
 10
0
 20
0
 30
0
  3
AIGNBL0901008C
  0
POLYLINE
  8
LAYER_9
 40
0.1058
 41
0.1058
 66
1
 10
0
 20
0
 30
0
  0
VERTEX
  8
LAYER_9
 10
55.0302
 20
197.579
  0
VERTEX
  8
LAYER_9
 10
55.0302
 20
195.8038
  0
SEQEND
  0
ENDBLK
  0
BLOCK
  8
LAYER_9
  2
AIGNBL0901008D
 70
64
 10
0
 20
0
 30
0
  3
AIGNBL0901008D
  0
POLYLINE
  8
LAYER_9
 40
0.1058
 41
0.1058
 66
1
 10
0
 20
0
 30
0
  0
VERTEX
  8
LAYER_9
 10
177.6846
 20
155.1952
  0
VERTEX
  8
LAYER_9
 10
172.7243
 20
155.1952
  0
SEQEND
  0
ENDBLK
  0
BLOCK
  8
LAYER_9
  2
AIGNBL0901008E
 70
64
 10
0
 20
0
 30
0
  3
AIGNBL0901008E
  0
POLYLINE
  8
LAYER_9
 40
0.1058
 41
0.1058
 66
1
 10
0
 20
0
 30
0
  0
VERTEX
  8
LAYER_9
 10
172.7243
 20
155.1952
  0
VERTEX
  8
LAYER_9
 10
172.7243
 20
154.4078
  0
SEQEND
  0
ENDBLK
  0
BLOCK
  8
LAYER_9
  2
AIGNBL0901008F
 70
64
 10
0
 20
0
 30
0
  3
AIGNBL0901008F
  0
POLYLINE
  8
LAYER_9
 40
0.1058
 41
0.1058
 66
1
 10
0
 20
0
 30
0
  0
VERTEX
  8
LAYER_9
 10
172.7243
 20
154.4078
  0
VERTEX
  8
LAYER_9
 10
177.6846
 20
154.4078
  0
SEQEND
  0
ENDBLK
  0
BLOCK
  8
LAYER_9
  2
AIGNBL09010090
 70
64
 10
0
 20
0
 30
0
  3
AIGNBL09010090
  0
POLYLINE
  8
LAYER_9
 40
0.1058
 41
0.1058
 66
1
 10
0
 20
0
 30
0
  0
VERTEX
  8
LAYER_9
 10
177.6842
 20
112.7766
  0
VERTEX
  8
LAYER_9
 10
172.7239
 20
112.7766
  0
SEQEND
  0
ENDBLK
  0
BLOCK
  8
LAYER_9
  2
AIGNBL09010091
 70
64
 10
0
 20
0
 30
0
  3
AIGNBL09010091
  0
POLYLINE
  8
LAYER_9
 40
0.1058
 41
0.1058
 66
1
 10
0
 20
0
 30
0
  0
VERTEX
  8
LAYER_9
 10
172.7239
 20
112.7766
  0
VERTEX
  8
LAYER_9
 10
172.7239
 20
111.9892
  0
SEQEND
  0
ENDBLK
  0
BLOCK
  8
LAYER_9
  2
AIGNBL09010092
 70
64
 10
0
 20
0
 30
0
  3
AIGNBL09010092
  0
POLYLINE
  8
LAYER_9
 40
0.1058
 41
0.1058
 66
1
 10
0
 20
0
 30
0
  0
VERTEX
  8
LAYER_9
 10
172.7239
 20
111.9892
  0
VERTEX
  8
LAYER_9
 10
177.6842
 20
111.9892
  0
SEQEND
  0
ENDBLK
  0
BLOCK
  8
LAYER_9
  2
AIGNBL09010093
 70
64
 10
0
 20
0
 30
0
  3
AIGNBL09010093
  0
POLYLINE
  8
LAYER_9
 40
0.1058
 41
0.1058
 66
1
 10
0
 20
0
 30
0
  0
VERTEX
  8
LAYER_9
 10
52.8107
 20
195.5077
 42
0.08193696411
  0
VERTEX
  8
LAYER_9
 10
53.2052
 20
195.4429
 42
0.08195601052
  0
VERTEX
  8
LAYER_9
 10
53.5998
 20
195.5077
  0
SEQEND
  0
ENDBLK
  0
BLOCK
  8
LAYER_9
  2
AIGNBL09010094
 70
64
 10
0
 20
0
 30
0
  3
AIGNBL09010094
  0
POLYLINE
  8
LAYER_9
 40
0.1058
 41
0.1058
 66
1
 10
0
 20
0
 30
0
  0
VERTEX
  8
LAYER_9
 10
88.3985
 20
112.7766
  0
VERTEX
  8
LAYER_9
 10
93.3588
 20
112.7766
  0
SEQEND
  0
ENDBLK
  0
BLOCK
  8
LAYER_9
  2
AIGNBL09010095
 70
64
 10
0
 20
0
 30
0
  3
AIGNBL09010095
  0
POLYLINE
  8
LAYER_9
 40
0.1058
 41
0.1058
 66
1
 10
0
 20
0
 30
0
  0
VERTEX
  8
LAYER_9
 10
93.3588
 20
112.7766
  0
VERTEX
  8
LAYER_9
 10
93.3588
 20
111.9892
  0
SEQEND
  0
ENDBLK
  0
BLOCK
  8
LAYER_9
  2
AIGNBL09010096
 70
64
 10
0
 20
0
 30
0
  3
AIGNBL09010096
  0
POLYLINE
  8
LAYER_9
 40
0.1058
 41
0.1058
 66
1
 10
0
 20
0
 30
0
  0
VERTEX
  8
LAYER_9
 10
93.3588
 20
111.9892
  0
VERTEX
  8
LAYER_9
 10
88.3985
 20
111.9892
  0
SEQEND
  0
ENDBLK
  0
BLOCK
  8
LAYER_9
  2
AIGNBL09010097
 70
64
 10
0
 20
0
 30
0
  3
AIGNBL09010097
  0
POLYLINE
  8
LAYER_9
 40
0.1058
 41
0.1058
 66
1
 10
0
 20
0
 30
0
  0
VERTEX
  8
LAYER_9
 10
177.2874
 20
59.757
  0
VERTEX
  8
LAYER_9
 10
172.3271
 20
59.757
  0
SEQEND
  0
ENDBLK
  0
BLOCK
  8
LAYER_9
  2
AIGNBL09010098
 70
64
 10
0
 20
0
 30
0
  3
AIGNBL09010098
  0
POLYLINE
  8
LAYER_9
 40
0.1058
 41
0.1058
 66
1
 10
0
 20
0
 30
0
  0
VERTEX
  8
LAYER_9
 10
172.3271
 20
59.757
  0
VERTEX
  8
LAYER_9
 10
172.3271
 20
58.9634
  0
SEQEND
  0
ENDBLK
  0
BLOCK
  8
LAYER_9
  2
AIGNBL09010099
 70
64
 10
0
 20
0
 30
0
  3
AIGNBL09010099
  0
POLYLINE
  8
LAYER_9
 40
0.1058
 41
0.1058
 66
1
 10
0
 20
0
 30
0
  0
VERTEX
  8
LAYER_9
 10
172.3271
 20
58.9634
  0
VERTEX
  8
LAYER_9
 10
177.2874
 20
58.9634
  0
SEQEND
  0
ENDBLK
  0
BLOCK
  8
LAYER_9
  2
AIGNBL0901009A
 70
64
 10
0
 20
0
 30
0
  3
AIGNBL0901009A
  0
POLYLINE
  8
LAYER_9
 40
0.1058
 41
0.1058
 66
1
 10
0
 20
0
 30
0
  0
VERTEX
  8
LAYER_9
 10
174.5758
 20
65.8582
  0
VERTEX
  8
LAYER_9
 10
174.5758
 20
66.1558
  0
SEQEND
  0
ENDBLK
  0
BLOCK
  8
LAYER_9
  2
AIGNBL0901009B
 70
64
 10
0
 20
0
 30
0
  3
AIGNBL0901009B
  0
POLYLINE
  8
LAYER_9
 40
0.1058
 41
0.1058
 66
1
 10
0
 20
0
 30
0
  0
VERTEX
  8
LAYER_9
 10
174.3442
 20
61.1955
  0
VERTEX
  8
LAYER_9
 10
175.2204
 20
61.1955
  0
SEQEND
  0
ENDBLK
  0
BLOCK
  8
LAYER_9
  2
AIGNBL0901009C
 70
64
 10
0
 20
0
 30
0
  3
AIGNBL0901009C
  0
POLYLINE
  8
LAYER_9
 40
0.1058
 41
0.1058
 66
1
 10
0
 20
0
 30
0
  0
VERTEX
  8
LAYER_9
 10
174.0798
 20
65.8582
  0
VERTEX
  8
LAYER_9
 10
174.5758
 20
65.8582
  0
SEQEND
  0
ENDBLK
  0
BLOCK
  8
LAYER_9
  2
AIGNBL0901009D
 70
64
 10
0
 20
0
 30
0
  3
AIGNBL0901009D
  0
POLYLINE
  8
LAYER_9
 40
0.1058
 41
0.1058
 66
1
 10
0
 20
0
 30
0
  0
VERTEX
  8
LAYER_9
 10
88.3985
 20
153.3252
  0
VERTEX
  8
LAYER_9
 10
93.3588
 20
153.3252
  0
SEQEND
  0
ENDBLK
  0
BLOCK
  8
LAYER_9
  2
AIGNBL0901009E
 70
64
 10
0
 20
0
 30
0
  3
AIGNBL0901009E
  0
POLYLINE
  8
LAYER_9
 40
0.1058
 41
0.1058
 66
1
 10
0
 20
0
 30
0
  0
VERTEX
  8
LAYER_9
 10
93.3588
 20
153.3252
  0
VERTEX
  8
LAYER_9
 10
93.3588
 20
154.1126
  0
SEQEND
  0
ENDBLK
  0
BLOCK
  8
LAYER_9
  2
AIGNBL0901009F
 70
64
 10
0
 20
0
 30
0
  3
AIGNBL0901009F
  0
POLYLINE
  8
LAYER_9
 40
0.1058
 41
0.1058
 66
1
 10
0
 20
0
 30
0
  0
VERTEX
  8
LAYER_9
 10
93.3588
 20
154.1126
  0
VERTEX
  8
LAYER_9
 10
88.3985
 20
154.1126
  0
SEQEND
  0
ENDBLK
  0
BLOCK
  8
LAYER_9
  2
AIGNBL090100A0
 70
64
 10
0
 20
0
 30
0
  3
AIGNBL090100A0
  0
POLYLINE
  8
LAYER_9
 40
0.1058
 41
0.1058
 66
1
 10
0
 20
0
 30
0
  0
VERTEX
  8
LAYER_9
 10
88.3985
 20
155.1952
  0
VERTEX
  8
LAYER_9
 10
93.3588
 20
155.1952
  0
SEQEND
  0
ENDBLK
  0
BLOCK
  8
LAYER_9
  2
AIGNBL090100A1
 70
64
 10
0
 20
0
 30
0
  3
AIGNBL090100A1
  0
POLYLINE
  8
LAYER_9
 40
0.1058
 41
0.1058
 66
1
 10
0
 20
0
 30
0
  0
VERTEX
  8
LAYER_9
 10
93.3588
 20
155.1952
  0
VERTEX
  8
LAYER_9
 10
93.3588
 20
154.4078
  0
SEQEND
  0
ENDBLK
  0
BLOCK
  8
LAYER_9
  2
AIGNBL090100A2
 70
64
 10
0
 20
0
 30
0
  3
AIGNBL090100A2
  0
POLYLINE
  8
LAYER_9
 40
0.1058
 41
0.1058
 66
1
 10
0
 20
0
 30
0
  0
VERTEX
  8
LAYER_9
 10
93.3588
 20
154.4078
  0
VERTEX
  8
LAYER_9
 10
88.3985
 20
154.4078
  0
SEQEND
  0
ENDBLK
  0
BLOCK
  8
LAYER_9
  2
AIGNBL090100A3
 70
64
 10
0
 20
0
 30
0
  3
AIGNBL090100A3
  0
POLYLINE
  8
LAYER_9
 40
0.1058
 41
0.1058
 66
1
 10
0
 20
0
 30
0
  0
VERTEX
  8
LAYER_9
 10
173.4353
 20
61.1955
  0
VERTEX
  8
LAYER_9
 10
174.3442
 20
61.1955
  0
SEQEND
  0
ENDBLK
  0
BLOCK
  8
LAYER_9
  2
AIGNBL090100A4
 70
64
 10
0
 20
0
 30
0
  3
AIGNBL090100A4
  0
POLYLINE
  8
LAYER_9
 40
0.1058
 41
0.1058
 66
1
 10
0
 20
0
 30
0
  0
VERTEX
  8
LAYER_9
 10
90.9932
 20
61.1955
  0
VERTEX
  8
LAYER_9
 10
91.8694
 20
61.1955
  0
SEQEND
  0
ENDBLK
  0
BLOCK
  8
LAYER_9
  2
AIGNBL090100A5
 70
64
 10
0
 20
0
 30
0
  3
AIGNBL090100A5
  0
POLYLINE
  8
LAYER_9
 40
0.1058
 41
0.1058
 66
1
 10
0
 20
0
 30
0
  0
VERTEX
  8
LAYER_9
 10
91.2249
 20
65.8582
  0
VERTEX
  8
LAYER_9
 10
91.2249
 20
66.1558
  0
SEQEND
  0
ENDBLK
  0
BLOCK
  8
LAYER_9
  2
AIGNBL090100A6
 70
64
 10
0
 20
0
 30
0
  3
AIGNBL090100A6
  0
POLYLINE
  8
LAYER_9
 40
0.1058
 41
0.1058
 66
1
 10
0
 20
0
 30
0
  0
VERTEX
  8
LAYER_9
 10
90.7289
 20
65.8582
  0
VERTEX
  8
LAYER_9
 10
91.2249
 20
65.8582
  0
SEQEND
  0
ENDBLK
  0
BLOCK
  8
LAYER_9
  2
AIGNBL090100A7
 70
64
 10
0
 20
0
 30
0
  3
AIGNBL090100A7
  0
POLYLINE
  8
LAYER_9
 40
0.1058
 41
0.1058
 66
1
 10
0
 20
0
 30
0
  0
VERTEX
  8
LAYER_9
 10
175.2207
 20
66.1558
  0
VERTEX
  8
LAYER_9
 10
175.2207
 20
61.1955
  0
SEQEND
  0
ENDBLK
  0
BLOCK
  8
LAYER_9
  2
AIGNBL090100A8
 70
64
 10
0
 20
0
 30
0
  3
AIGNBL090100A8
  0
POLYLINE
  8
LAYER_9
 40
0.1058
 41
0.1058
 66
1
 10
0
 20
0
 30
0
  0
VERTEX
  8
LAYER_9
 10
173.435
 20
61.1955
  0
VERTEX
  8
LAYER_9
 10
173.435
 20
66.1558
  0
SEQEND
  0
ENDBLK
  0
BLOCK
  8
LAYER_9
  2
AIGNBL090100A9
 70
64
 10
0
 20
0
 30
0
  3
AIGNBL090100A9
  0
POLYLINE
  8
LAYER_9
 40
0.1058
 41
0.1058
 66
1
 10
0
 20
0
 30
0
  0
VERTEX
  8
LAYER_9
 10
174.0798
 20
65.8582
  0
VERTEX
  8
LAYER_9
 10
174.0798
 20
66.1558
  0
SEQEND
  0
ENDBLK
  0
BLOCK
  8
LAYER_9
  2
AIGNBL090100AA
 70
64
 10
0
 20
0
 30
0
  3
AIGNBL090100AA
  0
POLYLINE
  8
LAYER_9
 40
0.1058
 41
0.1058
 66
1
 10
0
 20
0
 30
0
  0
VERTEX
  8
LAYER_9
 10
88.0017
 20
59.757
  0
VERTEX
  8
LAYER_9
 10
92.962
 20
59.757
  0
SEQEND
  0
ENDBLK
  0
BLOCK
  8
LAYER_9
  2
AIGNBL090100AB
 70
64
 10
0
 20
0
 30
0
  3
AIGNBL090100AB
  0
POLYLINE
  8
LAYER_9
 40
0.1058
 41
0.1058
 66
1
 10
0
 20
0
 30
0
  0
VERTEX
  8
LAYER_9
 10
92.962
 20
59.757
  0
VERTEX
  8
LAYER_9
 10
92.962
 20
58.9634
  0
SEQEND
  0
ENDBLK
  0
BLOCK
  8
LAYER_9
  2
AIGNBL090100AC
 70
64
 10
0
 20
0
 30
0
  3
AIGNBL090100AC
  0
POLYLINE
  8
LAYER_9
 40
0.1058
 41
0.1058
 66
1
 10
0
 20
0
 30
0
  0
VERTEX
  8
LAYER_9
 10
92.962
 20
58.9634
  0
VERTEX
  8
LAYER_9
 10
88.0017
 20
58.9634
  0
SEQEND
  0
ENDBLK
  0
BLOCK
  8
LAYER_9
  2
AIGNBL090100AD
 70
64
 10
0
 20
0
 30
0
  3
AIGNBL090100AD
  0
POLYLINE
  8
LAYER_9
 40
0.1058
 41
0.1058
 66
1
 10
0
 20
0
 30
0
  0
VERTEX
  8
LAYER_9
 10
90.7289
 20
65.8582
  0
VERTEX
  8
LAYER_9
 10
90.7289
 20
66.1558
  0
SEQEND
  0
ENDBLK
  0
BLOCK
  8
LAYER_9
  2
AIGNBL090100AE
 70
64
 10
0
 20
0
 30
0
  3
AIGNBL090100AE
  0
POLYLINE
  8
LAYER_9
 40
0.1058
 41
0.1058
 66
1
 10
0
 20
0
 30
0
  0
VERTEX
  8
LAYER_9
 10
90.0843
 20
61.1955
  0
VERTEX
  8
LAYER_9
 10
90.9932
 20
61.1955
  0
SEQEND
  0
ENDBLK
  0
BLOCK
  8
LAYER_9
  2
AIGNBL090100AF
 70
64
 10
0
 20
0
 30
0
  3
AIGNBL090100AF
  0
POLYLINE
  8
LAYER_9
 40
0.1058
 41
0.1058
 66
1
 10
0
 20
0
 30
0
  0
VERTEX
  8
LAYER_9
 10
90.084
 20
61.1955
  0
VERTEX
  8
LAYER_9
 10
90.084
 20
66.1558
  0
SEQEND
  0
ENDBLK
  0
BLOCK
  8
LAYER_9
  2
AIGNBL090100B0
 70
64
 10
0
 20
0
 30
0
  3
AIGNBL090100B0
  0
POLYLINE
  8
LAYER_9
 40
0.1058
 41
0.1058
 66
1
 10
0
 20
0
 30
0
  0
VERTEX
  8
LAYER_9
 10
91.8697
 20
66.1558
  0
VERTEX
  8
LAYER_9
 10
91.8697
 20
61.1955
  0
SEQEND
  0
ENDBLK
  0
BLOCK
  8
LAYER_9
  2
AIGNBL090100B1
 70
64
 10
0
 20
0
 30
0
  3
AIGNBL090100B1
  0
POLYLINE
  8
LAYER_9
 40
0.1058
 41
0.1058
 66
1
 10
0
 20
0
 30
0
  0
VERTEX
  8
LAYER_9
 10
55.0302
 20
197.5791
  0
VERTEX
  8
LAYER_9
 10
59.9626
 20
197.5791
  0
SEQEND
  0
ENDBLK
  0
BLOCK
  8
LAYER_9
  2
AIGNBL090100B2
 70
64
 10
0
 20
0
 30
0
  3
AIGNBL090100B2
  0
POLYLINE
  8
LAYER_9
 40
0.1058
 41
0.1058
 66
1
 10
0
 20
0
 30
0
  0
VERTEX
  8
LAYER_9
 10
174.9727
 20
196.4481
 42
-0.4497113739
  0
VERTEX
  8
LAYER_9
 10
174.7247
 20
196.202
 42
-0.4476238903
  0
VERTEX
  8
LAYER_9
 10
174.4766
 20
196.4481
  0
SEQEND
  0
ENDBLK
  0
BLOCK
  8
LAYER_9
  2
AIGNBL090100B3
 70
64
 10
0
 20
0
 30
0
  3
AIGNBL090100B3
  0
POLYLINE
  8
LAYER_9
 40
0.1058
 41
0.1058
 66
1
 10
0
 20
0
 30
0
  0
VERTEX
  8
LAYER_9
 10
174.4766
 20
196.4481
  0
VERTEX
  8
LAYER_9
 10
174.4766
 20
196.9402
  0
SEQEND
  0
ENDBLK
  0
BLOCK
  8
LAYER_9
  2
AIGNBL090100B4
 70
64
 10
0
 20
0
 30
0
  3
AIGNBL090100B4
  0
POLYLINE
  8
LAYER_9
 40
0.1058
 41
0.1058
 66
1
 10
0
 20
0
 30
0
  0
VERTEX
  8
LAYER_9
 10
174.4766
 20
196.9402
 42
-0.4498128187
  0
VERTEX
  8
LAYER_9
 10
174.7247
 20
197.1862
 42
-0.4475610969
  0
VERTEX
  8
LAYER_9
 10
174.9727
 20
196.9402
  0
SEQEND
  0
ENDBLK
  0
BLOCK
  8
LAYER_9
  2
AIGNBL090100B5
 70
64
 10
0
 20
0
 30
0
  3
AIGNBL090100B5
  0
POLYLINE
  8
LAYER_9
 40
0.1058
 41
0.1058
 66
1
 10
0
 20
0
 30
0
  0
VERTEX
  8
LAYER_9
 10
175.7995
 20
196.6788
 42
-0.1318469166
  0
VERTEX
  8
LAYER_9
 10
175.6323
 20
196.0182
 42
-0.1602435273
  0
VERTEX
  8
LAYER_9
 10
175.2416
 20
195.7009
 42
-0.1008419494
  0
VERTEX
  8
LAYER_9
 10
174.7083
 20
195.6117
 42
-0.1299689694
  0
VERTEX
  8
LAYER_9
 10
174.0401
 20
195.7681
 42
-0.1603355074
  0
VERTEX
  8
LAYER_9
 10
173.7147
 20
196.151
 42
-0.1022988253
  0
VERTEX
  8
LAYER_9
 10
173.6172
 20
196.6788
  0
SEQEND
  0
ENDBLK
  0
BLOCK
  8
LAYER_9
  2
AIGNBL090100B6
 70
64
 10
0
 20
0
 30
0
  3
AIGNBL090100B6
  0
POLYLINE
  8
LAYER_9
 40
0.1058
 41
0.1058
 66
1
 10
0
 20
0
 30
0
  0
VERTEX
  8
LAYER_9
 10
173.6171
 20
196.6943
 42
-0.1999457435
  0
VERTEX
  8
LAYER_9
 10
173.9367
 20
197.4598
 42
-0.1978670235
  0
VERTEX
  8
LAYER_9
 10
174.7083
 20
197.7769
 42
-0.1978876055
  0
VERTEX
  8
LAYER_9
 10
175.48
 20
197.4598
 42
-0.1999379372
  0
VERTEX
  8
LAYER_9
 10
175.7996
 20
196.6943
  0
VERTEX
  8
LAYER_9
 10
175.7995
 20
196.6788
  0
SEQEND
  0
ENDBLK
  0
BLOCK
  8
LAYER_9
  2
AIGNBL090100B7
 70
64
 10
0
 20
0
 30
0
  3
AIGNBL090100B7
  0
POLYLINE
  8
LAYER_9
 40
0.1058
 41
0.1058
 66
1
 10
0
 20
0
 30
0
 70
1
  0
VERTEX
  8
LAYER_9
 10
174.741
 20
197.5797
 42
-0.1487427624
  0
VERTEX
  8
LAYER_9
 10
175.3324
 20
197.4113
 42
-0.1758513479
  0
VERTEX
  8
LAYER_9
 10
175.581
 20
197.0237
 42
-0.06958740253
  0
VERTEX
  8
LAYER_9
 10
175.6174
 20
196.6779
 42
-0.1508209733
  0
VERTEX
  8
LAYER_9
 10
175.4476
 20
196.0912
 42
-0.1751436524
  0
VERTEX
  8
LAYER_9
 10
175.057
 20
195.8446
 42
-0.06849883924
  0
VERTEX
  8
LAYER_9
 10
174.7083
 20
195.8085
 42
-0.1487545876
  0
VERTEX
  8
LAYER_9
 10
174.1169
 20
195.9769
 42
-0.1758310693
  0
VERTEX
  8
LAYER_9
 10
173.8683
 20
196.3645
 42
-0.06955814501
  0
VERTEX
  8
LAYER_9
 10
173.8319
 20
196.7103
 42
-0.1508089253
  0
VERTEX
  8
LAYER_9
 10
174.0017
 20
197.2971
 42
-0.1751641416
  0
VERTEX
  8
LAYER_9
 10
174.3923
 20
197.5437
 42
-0.06852782175
  0
SEQEND
  0
ENDBLK
  0
BLOCK
  8
LAYER_9
  2
AIGNBL090100B8
 70
64
 10
0
 20
0
 30
0
  3
AIGNBL090100B8
  0
POLYLINE
  8
LAYER_9
 40
0.1058
 41
0.1058
 66
1
 10
0
 20
0
 30
0
  0
VERTEX
  8
LAYER_9
 10
173.6172
 20
196.6788
  0
VERTEX
  8
LAYER_9
 10
173.6171
 20
196.6943
  0
SEQEND
  0
ENDBLK
  0
BLOCK
  8
LAYER_9
  2
AIGNBL090100B9
 70
64
 10
0
 20
0
 30
0
  3
AIGNBL090100B9
  0
POLYLINE
  8
LAYER_9
 40
0.1058
 41
0.1058
 66
1
 10
0
 20
0
 30
0
  0
VERTEX
  8
LAYER_9
 10
88.3987
 20
196.5312
  0
VERTEX
  8
LAYER_9
 10
93.359
 20
196.5312
  0
SEQEND
  0
ENDBLK
  0
BLOCK
  8
LAYER_9
  2
AIGNBL090100BA
 70
64
 10
0
 20
0
 30
0
  3
AIGNBL090100BA
  0
POLYLINE
  8
LAYER_9
 40
0.1058
 41
0.1058
 66
1
 10
0
 20
0
 30
0
  0
VERTEX
  8
LAYER_9
 10
93.359
 20
196.5312
  0
VERTEX
  8
LAYER_9
 10
93.359
 20
195.7438
  0
SEQEND
  0
ENDBLK
  0
BLOCK
  8
LAYER_9
  2
AIGNBL090100BB
 70
64
 10
0
 20
0
 30
0
  3
AIGNBL090100BB
  0
POLYLINE
  8
LAYER_9
 40
0.1058
 41
0.1058
 66
1
 10
0
 20
0
 30
0
  0
VERTEX
  8
LAYER_9
 10
93.359
 20
195.7438
  0
VERTEX
  8
LAYER_9
 10
88.3987
 20
195.7438
  0
SEQEND
  0
ENDBLK
  0
BLOCK
  8
LAYER_9
  2
AIGNBL090100BC
 70
64
 10
0
 20
0
 30
0
  3
AIGNBL090100BC
  0
POLYLINE
  8
LAYER_9
 40
0.1058
 41
0.1058
 66
1
 10
0
 20
0
 30
0
 70
1
  0
VERTEX
  8
LAYER_9
 10
173.8814
 20
196.6941
 42
0.1585990688
  0
VERTEX
  8
LAYER_9
 10
174.0428
 20
196.1223
 42
0.1772596817
  0
VERTEX
  8
LAYER_9
 10
174.4275
 20
195.8895
 42
0.05909345623
  0
VERTEX
  8
LAYER_9
 10
174.7247
 20
195.8576
 42
0.1563874435
  0
VERTEX
  8
LAYER_9
 10
175.3011
 20
196.0177
 42
0.178066276
  0
VERTEX
  8
LAYER_9
 10
175.5357
 20
196.3992
 42
0.06003263355
  0
VERTEX
  8
LAYER_9
 10
175.5679
 20
196.6941
 42
0.1585722069
  0
VERTEX
  8
LAYER_9
 10
175.4065
 20
197.266
 42
0.1772544213
  0
VERTEX
  8
LAYER_9
 10
175.0219
 20
197.4988
 42
0.05911835635
  0
VERTEX
  8
LAYER_9
 10
174.7247
 20
197.5307
 42
0.156401821
  0
VERTEX
  8
LAYER_9
 10
174.1482
 20
197.3706
 42
0.1780539133
  0
VERTEX
  8
LAYER_9
 10
173.9136
 20
196.989
 42
0.06003060542
  0
SEQEND
  0
ENDBLK
  0
BLOCK
  8
LAYER_9
  2
AIGNBL090100BD
 70
64
 10
0
 20
0
 30
0
  3
AIGNBL090100BD
  0
POLYLINE
  8
LAYER_9
 40
0.1058
 41
0.1058
 66
1
 10
0
 20
0
 30
0
  0
VERTEX
  8
LAYER_9
 10
174.9727
 20
196.9402
  0
VERTEX
  8
LAYER_9
 10
174.9727
 20
196.4481
  0
SEQEND
  0
ENDBLK
  0
BLOCK
  8
LAYER_9
  2
AIGNBL090100BE
 70
64
 10
0
 20
0
 30
0
  3
AIGNBL090100BE
  0
POLYLINE
  8
LAYER_9
 40
0.1058
 41
0.1058
 66
1
 10
0
 20
0
 30
0
 70
1
  0
VERTEX
  8
LAYER_9
 10
91.39
 20
197.5797
 42
-0.1487440176
  0
VERTEX
  8
LAYER_9
 10
91.9815
 20
197.4113
 42
-0.1758662177
  0
VERTEX
  8
LAYER_9
 10
92.2301
 20
197.0237
 42
-0.06957237765
  0
VERTEX
  8
LAYER_9
 10
92.2664
 20
196.6779
 42
-0.1508127816
  0
VERTEX
  8
LAYER_9
 10
92.0966
 20
196.0912
 42
-0.1751406912
  0
VERTEX
  8
LAYER_9
 10
91.706
 20
195.8446
 42
-0.06850761059
  0
VERTEX
  8
LAYER_9
 10
91.3574
 20
195.8085
 42
-0.1487440176
  0
VERTEX
  8
LAYER_9
 10
90.7659
 20
195.9769
 42
-0.1758662177
  0
VERTEX
  8
LAYER_9
 10
90.5173
 20
196.3645
 42
-0.06957237785
  0
VERTEX
  8
LAYER_9
 10
90.481
 20
196.7103
 42
-0.150800734
  0
VERTEX
  8
LAYER_9
 10
90.6508
 20
197.2971
 42
-0.1751611802
  0
VERTEX
  8
LAYER_9
 10
91.0414
 20
197.5437
 42
-0.06853659873
  0
SEQEND
  0
ENDBLK
  0
BLOCK
  8
LAYER_9
  2
AIGNBL090100BF
 70
64
 10
0
 20
0
 30
0
  3
AIGNBL090100BF
  0
POLYLINE
  8
LAYER_9
 40
0.1058
 41
0.1058
 66
1
 10
0
 20
0
 30
0
  0
VERTEX
  8
LAYER_9
 10
177.6844
 20
196.5312
  0
VERTEX
  8
LAYER_9
 10
172.7241
 20
196.5312
  0
SEQEND
  0
ENDBLK
  0
BLOCK
  8
LAYER_9
  2
AIGNBL090100C0
 70
64
 10
0
 20
0
 30
0
  3
AIGNBL090100C0
  0
POLYLINE
  8
LAYER_9
 40
0.1058
 41
0.1058
 66
1
 10
0
 20
0
 30
0
  0
VERTEX
  8
LAYER_9
 10
172.7241
 20
196.5312
  0
VERTEX
  8
LAYER_9
 10
172.7241
 20
195.7438
  0
SEQEND
  0
ENDBLK
  0
BLOCK
  8
LAYER_9
  2
AIGNBL090100C1
 70
64
 10
0
 20
0
 30
0
  3
AIGNBL090100C1
  0
POLYLINE
  8
LAYER_9
 40
0.1058
 41
0.1058
 66
1
 10
0
 20
0
 30
0
  0
VERTEX
  8
LAYER_9
 10
172.7241
 20
195.7438
  0
VERTEX
  8
LAYER_9
 10
177.6844
 20
195.7438
  0
SEQEND
  0
ENDBLK
  0
BLOCK
  8
LAYER_9
  2
AIGNBL090100C2
 70
64
 10
0
 20
0
 30
0
  3
AIGNBL090100C2
  0
POLYLINE
  8
LAYER_9
 40
0.1058
 41
0.1058
 66
1
 10
0
 20
0
 30
0
 70
1
  0
VERTEX
  8
LAYER_9
 10
90.5304
 20
196.6941
 42
0.1585990688
  0
VERTEX
  8
LAYER_9
 10
90.6918
 20
196.1223
 42
0.1772596817
  0
VERTEX
  8
LAYER_9
 10
91.0765
 20
195.8895
 42
0.05909345623
  0
VERTEX
  8
LAYER_9
 10
91.3737
 20
195.8576
 42
0.156388819
  0
VERTEX
  8
LAYER_9
 10
91.9501
 20
196.0177
 42
0.1780801206
  0
VERTEX
  8
LAYER_9
 10
92.1847
 20
196.3992
 42
0.06001788205
  0
VERTEX
  8
LAYER_9
 10
92.2169
 20
196.6941
 42
0.1585515163
  0
VERTEX
  8
LAYER_9
 10
92.0555
 20
197.266
 42
0.1772796306
  0
VERTEX
  8
LAYER_9
 10
91.6709
 20
197.4988
 42
0.05911403608
  0
VERTEX
  8
LAYER_9
 10
91.3737
 20
197.5307
 42
0.156401821
  0
VERTEX
  8
LAYER_9
 10
90.7972
 20
197.3706
 42
0.1780539133
  0
VERTEX
  8
LAYER_9
 10
90.5626
 20
196.989
 42
0.06003060542
  0
SEQEND
  0
ENDBLK
  0
BLOCK
  8
LAYER_9
  2
AIGNBL090100C3
 70
64
 10
0
 20
0
 30
0
  3
AIGNBL090100C3
  0
POLYLINE
  8
LAYER_9
 40
0.1058
 41
0.1058
 66
1
 10
0
 20
0
 30
0
  0
VERTEX
  8
LAYER_9
 10
91.6217
 20
196.4481
 42
-0.4497113739
  0
VERTEX
  8
LAYER_9
 10
91.3737
 20
196.202
 42
-0.4477461268
  0
VERTEX
  8
LAYER_9
 10
91.1257
 20
196.4481
  0
SEQEND
  0
ENDBLK
  0
BLOCK
  8
LAYER_9
  2
AIGNBL090100C4
 70
64
 10
0
 20
0
 30
0
  3
AIGNBL090100C4
  0
POLYLINE
  8
LAYER_9
 40
0.1058
 41
0.1058
 66
1
 10
0
 20
0
 30
0
  0
VERTEX
  8
LAYER_9
 10
90.2662
 20
196.6788
  0
VERTEX
  8
LAYER_9
 10
90.2661
 20
196.6943
  0
SEQEND
  0
ENDBLK
  0
BLOCK
  8
LAYER_9
  2
AIGNBL090100C5
 70
64
 10
0
 20
0
 30
0
  3
AIGNBL090100C5
  0
POLYLINE
  8
LAYER_9
 40
0.1058
 41
0.1058
 66
1
 10
0
 20
0
 30
0
  0
VERTEX
  8
LAYER_9
 10
92.4485
 20
196.6788
 42
-0.131882201
  0
VERTEX
  8
LAYER_9
 10
92.2813
 20
196.0182
 42
-0.1602425987
  0
VERTEX
  8
LAYER_9
 10
91.8907
 20
195.7009
 42
-0.1008431596
  0
VERTEX
  8
LAYER_9
 10
91.3574
 20
195.6117
 42
-0.1299669448
  0
VERTEX
  8
LAYER_9
 10
90.6891
 20
195.7681
 42
-0.1603180983
  0
VERTEX
  8
LAYER_9
 10
90.3637
 20
196.151
 42
-0.1022837548
  0
VERTEX
  8
LAYER_9
 10
90.2662
 20
196.6788
  0
SEQEND
  0
ENDBLK
  0
BLOCK
  8
LAYER_9
  2
AIGNBL090100C6
 70
64
 10
0
 20
0
 30
0
  3
AIGNBL090100C6
  0
POLYLINE
  8
LAYER_9
 40
0.1058
 41
0.1058
 66
1
 10
0
 20
0
 30
0
  0
VERTEX
  8
LAYER_9
 10
90.2661
 20
196.6943
 42
-0.19993976
  0
VERTEX
  8
LAYER_9
 10
90.5857
 20
197.4598
 42
-0.1978883403
  0
VERTEX
  8
LAYER_9
 10
91.3574
 20
197.7769
 42
-0.1978662889
  0
VERTEX
  8
LAYER_9
 10
92.129
 20
197.4598
 42
-0.1999439206
  0
VERTEX
  8
LAYER_9
 10
92.4486
 20
196.6943
  0
VERTEX
  8
LAYER_9
 10
92.4485
 20
196.6788
  0
SEQEND
  0
ENDBLK
  0
BLOCK
  8
LAYER_9
  2
AIGNBL090100C7
 70
64
 10
0
 20
0
 30
0
  3
AIGNBL090100C7
  0
POLYLINE
  8
LAYER_9
 40
0.1058
 41
0.1058
 66
1
 10
0
 20
0
 30
0
  0
VERTEX
  8
LAYER_9
 10
91.1257
 20
196.4481
  0
VERTEX
  8
LAYER_9
 10
91.1257
 20
196.9402
  0
SEQEND
  0
ENDBLK
  0
BLOCK
  8
LAYER_9
  2
AIGNBL090100C8
 70
64
 10
0
 20
0
 30
0
  3
AIGNBL090100C8
  0
POLYLINE
  8
LAYER_9
 40
0.1058
 41
0.1058
 66
1
 10
0
 20
0
 30
0
  0
VERTEX
  8
LAYER_9
 10
91.1257
 20
196.9402
 42
-0.4498166812
  0
VERTEX
  8
LAYER_9
 10
91.3737
 20
197.1862
 42
-0.4475610969
  0
VERTEX
  8
LAYER_9
 10
91.6217
 20
196.9402
  0
SEQEND
  0
ENDBLK
  0
BLOCK
  8
LAYER_9
  2
AIGNBL090100C9
 70
64
 10
0
 20
0
 30
0
  3
AIGNBL090100C9
  0
POLYLINE
  8
LAYER_9
 40
0.1058
 41
0.1058
 66
1
 10
0
 20
0
 30
0
  0
VERTEX
  8
LAYER_9
 10
91.6217
 20
196.9402
  0
VERTEX
  8
LAYER_9
 10
91.6217
 20
196.4481
  0
SEQEND
  0
ENDBLK
  0
BLOCK
  8
LAYER_9
  2
AIGNBL090100CA
 70
64
 10
0
 20
0
 30
0
  3
AIGNBL090100CA
  0
POLYLINE
  8
LAYER_9
 40
0.1058
 41
0.1058
 66
1
 10
0
 20
0
 30
0
  0
VERTEX
  8
LAYER_9
 10
174.9727
 20
111.6109
 42
-0.4497309991
  0
VERTEX
  8
LAYER_9
 10
174.7247
 20
111.3649
 42
-0.4475404699
  0
VERTEX
  8
LAYER_9
 10
174.4766
 20
111.6109
  0
SEQEND
  0
ENDBLK
  0
BLOCK
  8
LAYER_9
  2
AIGNBL090100CB
 70
64
 10
0
 20
0
 30
0
  3
AIGNBL090100CB
  0
POLYLINE
  8
LAYER_9
 40
0.1058
 41
0.1058
 66
1
 10
0
 20
0
 30
0
  0
VERTEX
  8
LAYER_9
 10
174.4766
 20
111.6109
  0
VERTEX
  8
LAYER_9
 10
174.4766
 20
112.103
  0
SEQEND
  0
ENDBLK
  0
BLOCK
  8
LAYER_9
  2
AIGNBL090100CC
 70
64
 10
0
 20
0
 30
0
  3
AIGNBL090100CC
  0
POLYLINE
  8
LAYER_9
 40
0.1058
 41
0.1058
 66
1
 10
0
 20
0
 30
0
  0
VERTEX
  8
LAYER_9
 10
174.4766
 20
112.103
 42
-0.4498128187
  0
VERTEX
  8
LAYER_9
 10
174.7247
 20
112.349
 42
-0.4475610969
  0
VERTEX
  8
LAYER_9
 10
174.9727
 20
112.103
  0
SEQEND
  0
ENDBLK
  0
BLOCK
  8
LAYER_9
  2
AIGNBL090100CD
 70
64
 10
0
 20
0
 30
0
  3
AIGNBL090100CD
  0
POLYLINE
  8
LAYER_9
 40
0.1058
 41
0.1058
 66
1
 10
0
 20
0
 30
0
  0
VERTEX
  8
LAYER_9
 10
175.7995
 20
111.8416
 42
-0.1318469166
  0
VERTEX
  8
LAYER_9
 10
175.6323
 20
111.181
 42
-0.1602435273
  0
VERTEX
  8
LAYER_9
 10
175.2416
 20
110.8637
 42
-0.1008419494
  0
VERTEX
  8
LAYER_9
 10
174.7083
 20
110.7745
 42
-0.1299689694
  0
VERTEX
  8
LAYER_9
 10
174.0401
 20
110.9309
 42
-0.1603355074
  0
VERTEX
  8
LAYER_9
 10
173.7147
 20
111.3138
 42
-0.1022988253
  0
VERTEX
  8
LAYER_9
 10
173.6172
 20
111.8416
  0
SEQEND
  0
ENDBLK
  0
BLOCK
  8
LAYER_9
  2
AIGNBL090100CE
 70
64
 10
0
 20
0
 30
0
  3
AIGNBL090100CE
  0
POLYLINE
  8
LAYER_9
 40
0.1058
 41
0.1058
 66
1
 10
0
 20
0
 30
0
  0
VERTEX
  8
LAYER_9
 10
173.6171
 20
111.8571
 42
-0.1999475647
  0
VERTEX
  8
LAYER_9
 10
173.9367
 20
112.6226
 42
-0.1978712978
  0
VERTEX
  8
LAYER_9
 10
174.7083
 20
112.9397
 42
-0.1978918801
  0
VERTEX
  8
LAYER_9
 10
175.48
 20
112.6226
 42
-0.1999397579
  0
VERTEX
  8
LAYER_9
 10
175.7996
 20
111.8571
  0
VERTEX
  8
LAYER_9
 10
175.7995
 20
111.8416
  0
SEQEND
  0
ENDBLK
  0
BLOCK
  8
LAYER_9
  2
AIGNBL090100CF
 70
64
 10
0
 20
0
 30
0
  3
AIGNBL090100CF
  0
POLYLINE
  8
LAYER_9
 40
0.1058
 41
0.1058
 66
1
 10
0
 20
0
 30
0
 70
1
  0
VERTEX
  8
LAYER_9
 10
174.741
 20
112.7426
 42
-0.1487427624
  0
VERTEX
  8
LAYER_9
 10
175.3324
 20
112.5742
 42
-0.1758513479
  0
VERTEX
  8
LAYER_9
 10
175.581
 20
112.1866
 42
-0.06958740253
  0
VERTEX
  8
LAYER_9
 10
175.6174
 20
111.8408
 42
-0.1508065488
  0
VERTEX
  8
LAYER_9
 10
175.4476
 20
111.254
 42
-0.1751533689
  0
VERTEX
  8
LAYER_9
 10
175.057
 20
111.0074
 42
-0.06850133019
  0
VERTEX
  8
LAYER_9
 10
174.7083
 20
110.9713
 42
-0.1487627564
  0
VERTEX
  8
LAYER_9
 10
174.1169
 20
111.1397
 42
-0.1758342892
  0
VERTEX
  8
LAYER_9
 10
173.8683
 20
111.5273
 42
-0.06954917944
  0
VERTEX
  8
LAYER_9
 10
173.8319
 20
111.8732
 42
-0.1508209735
  0
VERTEX
  8
LAYER_9
 10
174.0017
 20
112.4599
 42
-0.1751436524
  0
VERTEX
  8
LAYER_9
 10
174.3923
 20
112.7065
 42
-0.06849883924
  0
SEQEND
  0
ENDBLK
  0
BLOCK
  8
LAYER_9
  2
AIGNBL090100D0
 70
64
 10
0
 20
0
 30
0
  3
AIGNBL090100D0
  0
POLYLINE
  8
LAYER_9
 40
0.1058
 41
0.1058
 66
1
 10
0
 20
0
 30
0
  0
VERTEX
  8
LAYER_9
 10
173.6172
 20
111.8416
  0
VERTEX
  8
LAYER_9
 10
173.6171
 20
111.8571
  0
SEQEND
  0
ENDBLK
  0
BLOCK
  8
LAYER_9
  2
AIGNBL090100D1
 70
64
 10
0
 20
0
 30
0
  3
AIGNBL090100D1
  0
POLYLINE
  8
LAYER_9
 40
0.1058
 41
0.1058
 66
1
 10
0
 20
0
 30
0
 70
1
  0
VERTEX
  8
LAYER_9
 10
173.8814
 20
111.857
 42
0.1585830762
  0
VERTEX
  8
LAYER_9
 10
174.0428
 20
111.2851
 42
0.1772703506
  0
VERTEX
  8
LAYER_9
 10
174.4275
 20
111.0523
 42
0.05909544365
  0
VERTEX
  8
LAYER_9
 10
174.7247
 20
111.0204
 42
0.1563968584
  0
VERTEX
  8
LAYER_9
 10
175.3011
 20
111.1805
 42
0.1780688676
  0
VERTEX
  8
LAYER_9
 10
175.5357
 20
111.5621
 42
0.06002418822
  0
VERTEX
  8
LAYER_9
 10
175.5679
 20
111.857
 42
0.158589628
  0
VERTEX
  8
LAYER_9
 10
175.4065
 20
112.4288
 42
0.1772573636
  0
VERTEX
  8
LAYER_9
 10
175.0219
 20
112.6616
 42
0.05910171291
  0
VERTEX
  8
LAYER_9
 10
174.7247
 20
112.6935
 42
0.1563717238
  0
VERTEX
  8
LAYER_9
 10
174.1482
 20
112.5334
 42
0.1780767156
  0
VERTEX
  8
LAYER_9
 10
173.9136
 20
112.1519
 42
0.06003463507
  0
SEQEND
  0
ENDBLK
  0
BLOCK
  8
LAYER_9
  2
AIGNBL090100D2
 70
64
 10
0
 20
0
 30
0
  3
AIGNBL090100D2
  0
POLYLINE
  8
LAYER_9
 40
0.1058
 41
0.1058
 66
1
 10
0
 20
0
 30
0
  0
VERTEX
  8
LAYER_9
 10
174.9727
 20
112.103
  0
VERTEX
  8
LAYER_9
 10
174.9727
 20
111.6109
  0
SEQEND
  0
ENDBLK
  0
BLOCK
  8
LAYER_9
  2
AIGNBL090100D3
 70
64
 10
0
 20
0
 30
0
  3
AIGNBL090100D3
  0
POLYLINE
  8
LAYER_9
 40
0.1058
 41
0.1058
 66
1
 10
0
 20
0
 30
0
 70
1
  0
VERTEX
  8
LAYER_9
 10
91.39
 20
112.7426
 42
-0.1487440176
  0
VERTEX
  8
LAYER_9
 10
91.9815
 20
112.5742
 42
-0.1758662177
  0
VERTEX
  8
LAYER_9
 10
92.2301
 20
112.1866
 42
-0.06957237765
  0
VERTEX
  8
LAYER_9
 10
92.2664
 20
111.8408
 42
-0.1507983577
  0
VERTEX
  8
LAYER_9
 10
92.0966
 20
111.254
 42
-0.1751504068
  0
VERTEX
  8
LAYER_9
 10
91.706
 20
111.0074
 42
-0.06851010185
  0
VERTEX
  8
LAYER_9
 10
91.3574
 20
110.9713
 42
-0.1487521859
  0
VERTEX
  8
LAYER_9
 10
90.7659
 20
111.1397
 42
-0.1758694357
  0
VERTEX
  8
LAYER_9
 10
90.5173
 20
111.5273
 42
-0.06956340824
  0
VERTEX
  8
LAYER_9
 10
90.481
 20
111.8732
 42
-0.1508127818
  0
VERTEX
  8
LAYER_9
 10
90.6508
 20
112.4599
 42
-0.1751406912
  0
VERTEX
  8
LAYER_9
 10
91.0414
 20
112.7065
 42
-0.06850761059
  0
SEQEND
  0
ENDBLK
  0
BLOCK
  8
LAYER_9
  2
AIGNBL090100D4
 70
64
 10
0
 20
0
 30
0
  3
AIGNBL090100D4
  0
POLYLINE
  8
LAYER_9
 40
0.1058
 41
0.1058
 66
1
 10
0
 20
0
 30
0
 70
1
  0
VERTEX
  8
LAYER_9
 10
90.5304
 20
111.857
 42
0.1585830762
  0
VERTEX
  8
LAYER_9
 10
90.6918
 20
111.2851
 42
0.1772703506
  0
VERTEX
  8
LAYER_9
 10
91.0765
 20
111.0523
 42
0.05909544365
  0
VERTEX
  8
LAYER_9
 10
91.3737
 20
111.0204
 42
0.1563982339
  0
VERTEX
  8
LAYER_9
 10
91.9501
 20
111.1805
 42
0.1780827097
  0
VERTEX
  8
LAYER_9
 10
92.1847
 20
111.5621
 42
0.06000943861
  0
VERTEX
  8
LAYER_9
 10
92.2169
 20
111.857
 42
0.1585689353
  0
VERTEX
  8
LAYER_9
 10
92.0555
 20
112.4288
 42
0.177282573
  0
VERTEX
  8
LAYER_9
 10
91.6709
 20
112.6616
 42
0.05909739369
  0
VERTEX
  8
LAYER_9
 10
91.3737
 20
112.6935
 42
0.1563717238
  0
VERTEX
  8
LAYER_9
 10
90.7972
 20
112.5334
 42
0.1780767156
  0
VERTEX
  8
LAYER_9
 10
90.5626
 20
112.1519
 42
0.06003463507
  0
SEQEND
  0
ENDBLK
  0
BLOCK
  8
LAYER_9
  2
AIGNBL090100D5
 70
64
 10
0
 20
0
 30
0
  3
AIGNBL090100D5
  0
POLYLINE
  8
LAYER_9
 40
0.1058
 41
0.1058
 66
1
 10
0
 20
0
 30
0
  0
VERTEX
  8
LAYER_9
 10
91.6217
 20
111.6109
 42
-0.4497309991
  0
VERTEX
  8
LAYER_9
 10
91.3737
 20
111.3649
 42
-0.4476627377
  0
VERTEX
  8
LAYER_9
 10
91.1257
 20
111.6109
  0
SEQEND
  0
ENDBLK
  0
BLOCK
  8
LAYER_9
  2
AIGNBL090100D6
 70
64
 10
0
 20
0
 30
0
  3
AIGNBL090100D6
  0
POLYLINE
  8
LAYER_9
 40
0.1058
 41
0.1058
 66
1
 10
0
 20
0
 30
0
  0
VERTEX
  8
LAYER_9
 10
90.2662
 20
111.8416
  0
VERTEX
  8
LAYER_9
 10
90.2661
 20
111.8571
  0
SEQEND
  0
ENDBLK
  0
BLOCK
  8
LAYER_9
  2
AIGNBL090100D7
 70
64
 10
0
 20
0
 30
0
  3
AIGNBL090100D7
  0
POLYLINE
  8
LAYER_9
 40
0.1058
 41
0.1058
 66
1
 10
0
 20
0
 30
0
  0
VERTEX
  8
LAYER_9
 10
92.4485
 20
111.8416
 42
-0.131882201
  0
VERTEX
  8
LAYER_9
 10
92.2813
 20
111.181
 42
-0.1602425987
  0
VERTEX
  8
LAYER_9
 10
91.8907
 20
110.8637
 42
-0.1008431596
  0
VERTEX
  8
LAYER_9
 10
91.3574
 20
110.7745
 42
-0.1299669448
  0
VERTEX
  8
LAYER_9
 10
90.6891
 20
110.9309
 42
-0.1603180983
  0
VERTEX
  8
LAYER_9
 10
90.3637
 20
111.3138
 42
-0.1022837548
  0
VERTEX
  8
LAYER_9
 10
90.2662
 20
111.8416
  0
SEQEND
  0
ENDBLK
  0
BLOCK
  8
LAYER_9
  2
AIGNBL090100D8
 70
64
 10
0
 20
0
 30
0
  3
AIGNBL090100D8
  0
POLYLINE
  8
LAYER_9
 40
0.1058
 41
0.1058
 66
1
 10
0
 20
0
 30
0
  0
VERTEX
  8
LAYER_9
 10
90.2661
 20
111.8571
 42
-0.199941581
  0
VERTEX
  8
LAYER_9
 10
90.5857
 20
112.6226
 42
-0.197892615
  0
VERTEX
  8
LAYER_9
 10
91.3574
 20
112.9397
 42
-0.1978705631
  0
VERTEX
  8
LAYER_9
 10
92.129
 20
112.6226
 42
-0.1999457415
  0
VERTEX
  8
LAYER_9
 10
92.4486
 20
111.8571
  0
VERTEX
  8
LAYER_9
 10
92.4485
 20
111.8416
  0
SEQEND
  0
ENDBLK
  0
BLOCK
  8
LAYER_9
  2
AIGNBL090100D9
 70
64
 10
0
 20
0
 30
0
  3
AIGNBL090100D9
  0
POLYLINE
  8
LAYER_9
 40
0.1058
 41
0.1058
 66
1
 10
0
 20
0
 30
0
  0
VERTEX
  8
LAYER_9
 10
91.1257
 20
111.6109
  0
VERTEX
  8
LAYER_9
 10
91.1257
 20
112.103
  0
SEQEND
  0
ENDBLK
  0
BLOCK
  8
LAYER_9
  2
AIGNBL090100DA
 70
64
 10
0
 20
0
 30
0
  3
AIGNBL090100DA
  0
POLYLINE
  8
LAYER_9
 40
0.1058
 41
0.1058
 66
1
 10
0
 20
0
 30
0
  0
VERTEX
  8
LAYER_9
 10
91.1257
 20
112.103
 42
-0.4498166812
  0
VERTEX
  8
LAYER_9
 10
91.3737
 20
112.349
 42
-0.4475610969
  0
VERTEX
  8
LAYER_9
 10
91.6217
 20
112.103
  0
SEQEND
  0
ENDBLK
  0
BLOCK
  8
LAYER_9
  2
AIGNBL090100DB
 70
64
 10
0
 20
0
 30
0
  3
AIGNBL090100DB
  0
POLYLINE
  8
LAYER_9
 40
0.1058
 41
0.1058
 66
1
 10
0
 20
0
 30
0
  0
VERTEX
  8
LAYER_9
 10
91.6217
 20
112.103
  0
VERTEX
  8
LAYER_9
 10
91.6217
 20
111.6109
  0
SEQEND
  0
ENDBLK
  0
BLOCK
  8
LAYER_9
  2
AIGNBL090100DC
 70
64
 10
0
 20
0
 30
0
  3
AIGNBL090100DC
  0
POLYLINE
  8
LAYER_9
 40
0.1058
 41
0.1058
 66
1
 10
0
 20
0
 30
0
  0
VERTEX
  8
LAYER_9
 10
53.5998
 20
110.4739
 42
0.1329882668
  0
VERTEX
  8
LAYER_9
 10
54.1803
 20
110.8455
 42
0.1394815858
  0
VERTEX
  8
LAYER_9
 10
54.4178
 20
111.3802
 42
0.04042141368
  0
VERTEX
  8
LAYER_9
 10
54.4383
 20
111.6421
  0
SEQEND
  0
ENDBLK
  0
BLOCK
  8
LAYER_9
  2
AIGNBL090100DD
 70
64
 10
0
 20
0
 30
0
  3
AIGNBL090100DD
  0
POLYLINE
  8
LAYER_9
 40
0.1058
 41
0.1058
 66
1
 10
0
 20
0
 30
0
  0
VERTEX
  8
LAYER_9
 10
59.9626
 20
110.5725
  0
VERTEX
  8
LAYER_9
 10
53.8203
 20
110.5725
  0
SEQEND
  0
ENDBLK
  0
BLOCK
  8
LAYER_9
  2
AIGNBL090100DE
 70
64
 10
0
 20
0
 30
0
  3
AIGNBL090100DE
  0
POLYLINE
  8
LAYER_9
 40
0.1058
 41
0.1058
 66
1
 10
0
 20
0
 30
0
  0
VERTEX
  8
LAYER_9
 10
54.4383
 20
111.6421
 42
0.1213749213
  0
VERTEX
  8
LAYER_9
 10
54.2791
 20
112.3692
 42
0.2263704471
  0
VERTEX
  8
LAYER_9
 10
53.6085
 20
112.8354
 42
0.05437184605
  0
VERTEX
  8
LAYER_9
 10
53.2052
 20
112.8752
 42
0.1213846033
  0
VERTEX
  8
LAYER_9
 10
52.4782
 20
112.716
 42
0.2263643332
  0
VERTEX
  8
LAYER_9
 10
52.012
 20
112.0454
 42
0.0543706678
  0
VERTEX
  8
LAYER_9
 10
51.9722
 20
111.6421
 42
0.1329959927
  0
VERTEX
  8
LAYER_9
 10
52.1385
 20
110.9732
 42
0.1394786658
  0
VERTEX
  8
LAYER_9
 10
52.5691
 20
110.5771
 42
0.04041851236
  0
VERTEX
  8
LAYER_9
 10
52.8107
 20
110.4739
  0
SEQEND
  0
ENDBLK
  0
BLOCK
  8
LAYER_9
  2
AIGNBL090100DF
 70
64
 10
0
 20
0
 30
0
  3
AIGNBL090100DF
  0
POLYLINE
  8
LAYER_9
 40
0.1058
 41
0.1058
 66
1
 10
0
 20
0
 30
0
  0
VERTEX
  8
LAYER_9
 10
59.9626
 20
110.5725
  0
VERTEX
  8
LAYER_9
 10
59.9626
 20
112.7428
  0
SEQEND
  0
ENDBLK
  0
BLOCK
  8
LAYER_9
  2
AIGNBL090100E0
 70
64
 10
0
 20
0
 30
0
  3
AIGNBL090100E0
  0
POLYLINE
  8
LAYER_9
 40
0.1058
 41
0.1058
 66
1
 10
0
 20
0
 30
0
  0
VERTEX
  8
LAYER_9
 10
59.9626
 20
112.7428
  0
VERTEX
  8
LAYER_9
 10
53.7621
 20
112.7428
  0
SEQEND
  0
ENDBLK
  0
BLOCK
  8
LAYER_9
  2
AIGNBL090100E1
 70
64
 10
0
 20
0
 30
0
  3
AIGNBL090100E1
  0
POLYLINE
  8
LAYER_9
 40
0.1058
 41
0.1058
 66
1
 10
0
 20
0
 30
0
  0
VERTEX
  8
LAYER_9
 10
59.9626
 20
110.7697
  0
VERTEX
  8
LAYER_9
 10
55.0302
 20
110.7697
  0
SEQEND
  0
ENDBLK
  0
BLOCK
  8
LAYER_9
  2
AIGNBL090100E2
 70
64
 10
0
 20
0
 30
0
  3
AIGNBL090100E2
  0
POLYLINE
  8
LAYER_9
 40
0.1058
 41
0.1058
 66
1
 10
0
 20
0
 30
0
  0
VERTEX
  8
LAYER_9
 10
59.9626
 20
111.9041
  0
VERTEX
  8
LAYER_9
 10
59.6666
 20
111.9041
  0
SEQEND
  0
ENDBLK
  0
BLOCK
  8
LAYER_9
  2
AIGNBL090100E3
 70
64
 10
0
 20
0
 30
0
  3
AIGNBL090100E3
  0
POLYLINE
  8
LAYER_9
 40
0.1058
 41
0.1058
 66
1
 10
0
 20
0
 30
0
  0
VERTEX
  8
LAYER_9
 10
59.6666
 20
111.9041
  0
VERTEX
  8
LAYER_9
 10
59.6666
 20
111.4109
  0
SEQEND
  0
ENDBLK
  0
BLOCK
  8
LAYER_9
  2
AIGNBL090100E4
 70
64
 10
0
 20
0
 30
0
  3
AIGNBL090100E4
  0
POLYLINE
  8
LAYER_9
 40
0.1058
 41
0.1058
 66
1
 10
0
 20
0
 30
0
  0
VERTEX
  8
LAYER_9
 10
59.6666
 20
111.4109
  0
VERTEX
  8
LAYER_9
 10
59.6666
 20
111.1643
  0
SEQEND
  0
ENDBLK
  0
BLOCK
  8
LAYER_9
  2
AIGNBL090100E5
 70
64
 10
0
 20
0
 30
0
  3
AIGNBL090100E5
  0
POLYLINE
  8
LAYER_9
 40
0.1058
 41
0.1058
 66
1
 10
0
 20
0
 30
0
  0
VERTEX
  8
LAYER_9
 10
59.6666
 20
111.1643
  0
VERTEX
  8
LAYER_9
 10
59.9626
 20
111.1643
  0
SEQEND
  0
ENDBLK
  0
BLOCK
  8
LAYER_9
  2
AIGNBL090100E6
 70
64
 10
0
 20
0
 30
0
  3
AIGNBL090100E6
  0
POLYLINE
  8
LAYER_9
 40
0.1058
 41
0.1058
 66
1
 10
0
 20
0
 30
0
  0
VERTEX
  8
LAYER_9
 10
55.0302
 20
112.5452
  0
VERTEX
  8
LAYER_9
 10
55.0302
 20
110.77
  0
SEQEND
  0
ENDBLK
  0
BLOCK
  8
LAYER_9
  2
AIGNBL090100E7
 70
64
 10
0
 20
0
 30
0
  3
AIGNBL090100E7
  0
POLYLINE
  8
LAYER_9
 40
0.1058
 41
0.1058
 66
1
 10
0
 20
0
 30
0
  0
VERTEX
  8
LAYER_9
 10
52.8107
 20
110.4739
 42
0.08211164743
  0
VERTEX
  8
LAYER_9
 10
53.2052
 20
110.409
 42
0.08214231039
  0
VERTEX
  8
LAYER_9
 10
53.5998
 20
110.4739
  0
SEQEND
  0
ENDBLK
  0
BLOCK
  8
LAYER_9
  2
AIGNBL090100E8
 70
64
 10
0
 20
0
 30
0
  3
AIGNBL090100E8
  0
POLYLINE
  8
LAYER_9
 40
0.1058
 41
0.1058
 66
1
 10
0
 20
0
 30
0
  0
VERTEX
  8
LAYER_9
 10
55.0302
 20
112.5453
  0
VERTEX
  8
LAYER_9
 10
59.9626
 20
112.5453
  0
SEQEND
  0
ENDBLK
  0
BLOCK
  8
LAYER_9
  2
AIGNBL090100E9
 70
64
 10
0
 20
0
 30
0
  3
AIGNBL090100E9
  0
POLYLINE
  8
LAYER_9
 40
0.1058
 41
0.1058
 66
1
 10
0
 20
0
 30
0
  0
VERTEX
  8
LAYER_9
 10
51.9626
 20
201.6871
  0
VERTEX
  8
LAYER_9
 10
59.9626
 20
201.6871
  0
SEQEND
  0
POLYLINE
  8
LAYER_9
 40
0.1058
 41
0.1058
 66
1
 10
0
 20
0
 30
0
  0
VERTEX
  8
LAYER_9
 10
51.9626
 20
199.6871
  0
VERTEX
  8
LAYER_9
 10
51.9626
 20
203.6871
  0
SEQEND
  0
POLYLINE
  8
LAYER_9
 40
0.1058
 41
0.1058
 66
1
 10
0
 20
0
 30
0
  0
VERTEX
  8
LAYER_9
 10
59.9626
 20
199.6871
  0
VERTEX
  8
LAYER_9
 10
59.9626
 20
203.6871
  0
SEQEND
  0
ENDBLK
  0
BLOCK
  8
LAYER_9
  2
AIGNBL090100EA
 70
64
 10
0
 20
0
 30
0
  3
AIGNBL090100EA
  0
POLYLINE
  8
LAYER_9
 40
0.1058
 41
0.1058
 66
1
 10
0
 20
0
 30
0
  0
VERTEX
  8
LAYER_9
 10
49.1612
 20
155.3828
  0
VERTEX
  8
LAYER_9
 10
49.1612
 20
195.3828
  0
SEQEND
  0
POLYLINE
  8
LAYER_9
 40
0.1058
 41
0.1058
 66
1
 10
0
 20
0
 30
0
  0
VERTEX
  8
LAYER_9
 10
51.1612
 20
155.3828
  0
VERTEX
  8
LAYER_9
 10
47.1612
 20
155.3828
  0
SEQEND
  0
POLYLINE
  8
LAYER_9
 40
0.1058
 41
0.1058
 66
1
 10
0
 20
0
 30
0
  0
VERTEX
  8
LAYER_9
 10
51.1612
 20
195.3828
  0
VERTEX
  8
LAYER_9
 10
47.1612
 20
195.3828
  0
SEQEND
  0
ENDBLK
  0
BLOCK
  8
LAYER_9
  2
AIGNBL090100EB
 70
64
 10
0
 20
0
 30
0
  3
AIGNBL090100EB
  0
POLYLINE
  8
LAYER_9
 40
0.1058
 41
0.1058
 66
1
 10
0
 20
0
 30
0
  0
VERTEX
  8
LAYER_9
 10
49.1612
 20
195.4088
  0
VERTEX
  8
LAYER_9
 10
49.1612
 20
197.9088
  0
SEQEND
  0
POLYLINE
  8
LAYER_9
 40
0.1058
 41
0.1058
 66
1
 10
0
 20
0
 30
0
  0
VERTEX
  8
LAYER_9
 10
51.1612
 20
197.9088
  0
VERTEX
  8
LAYER_9
 10
47.1612
 20
197.9088
  0
SEQEND
  0
ENDBLK
  0
BLOCK
  8
LAYER_9
  2
AIGNBL090100EC
 70
64
 10
0
 20
0
 30
0
  3
AIGNBL090100EC
  0
POLYLINE
  8
LAYER_9
 40
0.1058
 41
0.1058
 66
1
 10
0
 20
0
 30
0
  0
VERTEX
  8
LAYER_9
 10
49.1612
 20
152.8828
  0
VERTEX
  8
LAYER_9
 10
49.1612
 20
155.3828
  0
SEQEND
  0
POLYLINE
  8
LAYER_9
 40
0.1058
 41
0.1058
 66
1
 10
0
 20
0
 30
0
  0
VERTEX
  8
LAYER_9
 10
51.1612
 20
152.8828
  0
VERTEX
  8
LAYER_9
 10
47.1612
 20
152.8828
  0
SEQEND
  0
POLYLINE
  8
LAYER_9
 40
0.1058
 41
0.1058
 66
1
 10
0
 20
0
 30
0
  0
VERTEX
  8
LAYER_9
 10
51.1612
 20
155.3828
  0
VERTEX
  8
LAYER_9
 10
47.1612
 20
155.3828
  0
SEQEND
  0
ENDBLK
  0
BLOCK
  8
LAYER_9
  2
AIGNBL090100ED
 70
64
 10
0
 20
0
 30
0
  3
AIGNBL090100ED
  0
POLYLINE
  8
LAYER_9
 40
0.1058
 41
0.1058
 66
1
 10
0
 20
0
 30
0
  0
VERTEX
  8
LAYER_9
 10
49.1612
 20
112.8567
  0
VERTEX
  8
LAYER_9
 10
49.1612
 20
152.8567
  0
SEQEND
  0
POLYLINE
  8
LAYER_9
 40
0.1058
 41
0.1058
 66
1
 10
0
 20
0
 30
0
  0
VERTEX
  8
LAYER_9
 10
51.1612
 20
112.8567
  0
VERTEX
  8
LAYER_9
 10
47.1612
 20
112.8567
  0
SEQEND
  0
ENDBLK
  0
BLOCK
  8
LAYER_9
  2
AIGNBL090100EE
 70
64
 10
0
 20
0
 30
0
  3
AIGNBL090100EE
  0
POLYLINE
  8
LAYER_9
 40
0.1058
 41
0.1058
 66
1
 10
0
 20
0
 30
0
  0
VERTEX
  8
LAYER_9
 10
49.1612
 20
152.8828
  0
VERTEX
  8
LAYER_9
 10
49.1612
 20
155.3828
  0
SEQEND
  0
ENDBLK
  0
BLOCK
  8
LAYER_9
  2
AIGNBL090100EF
 70
64
 10
0
 20
0
 30
0
  3
AIGNBL090100EF
  0
POLYLINE
  8
LAYER_9
 40
0.1058
 41
0.1058
 66
1
 10
0
 20
0
 30
0
  0
VERTEX
  8
LAYER_9
 10
49.1612
 20
110.3567
  0
VERTEX
  8
LAYER_9
 10
49.1612
 20
112.8567
  0
SEQEND
  0
POLYLINE
  8
LAYER_9
 40
0.1058
 41
0.1058
 66
1
 10
0
 20
0
 30
0
  0
VERTEX
  8
LAYER_9
 10
51.1612
 20
110.3567
  0
VERTEX
  8
LAYER_9
 10
47.1612
 20
110.3567
  0
SEQEND
  0
POLYLINE
  8
LAYER_9
 40
0.1058
 41
0.1058
 66
1
 10
0
 20
0
 30
0
  0
VERTEX
  8
LAYER_9
 10
51.1612
 20
112.8567
  0
VERTEX
  8
LAYER_9
 10
47.1612
 20
112.8567
  0
SEQEND
  0
ENDBLK
  0
BLOCK
  8
LAYER_9
  2
AIGNBL090100F0
 70
64
 10
0
 20
0
 30
0
  3
AIGNBL090100F0
  0
POLYLINE
  8
LAYER_9
 40
0.1058
 41
0.1058
 66
1
 10
0
 20
0
 30
0
  0
VERTEX
  8
LAYER_9
 10
88.3351
 20
105.6024
  0
VERTEX
  8
LAYER_9
 10
177.6844
 20
105.6024
  0
SEQEND
  0
POLYLINE
  8
LAYER_9
 40
0.1058
 41
0.1058
 66
1
 10
0
 20
0
 30
0
  0
VERTEX
  8
LAYER_9
 10
88.3351
 20
103.6024
  0
VERTEX
  8
LAYER_9
 10
88.3351
 20
107.6024
  0
SEQEND
  0
POLYLINE
  8
LAYER_9
 40
0.1058
 41
0.1058
 66
1
 10
0
 20
0
 30
0
  0
VERTEX
  8
LAYER_9
 10
177.6844
 20
103.6024
  0
VERTEX
  8
LAYER_9
 10
177.6844
 20
107.6024
  0
SEQEND
  0
ENDBLK
  0
BLOCK
  8
LAYER_9
  2
AIGNBL090100F1
 70
64
 10
0
 20
0
 30
0
  3
AIGNBL090100F1
  0
POLYLINE
  8
LAYER_9
 40
0.1058
 41
0.1058
 66
1
 10
0
 20
0
 30
0
  0
VERTEX
  8
LAYER_9
 10
91.0098
 20
69.5809
  0
VERTEX
  8
LAYER_9
 10
174.3098
 20
69.5809
  0
SEQEND
  0
POLYLINE
  8
LAYER_9
 40
0.1058
 41
0.1058
 66
1
 10
0
 20
0
 30
0
  0
VERTEX
  8
LAYER_9
 10
91.0098
 20
67.5809
  0
VERTEX
  8
LAYER_9
 10
91.0098
 20
71.5809
  0
SEQEND
  0
POLYLINE
  8
LAYER_9
 40
0.1058
 41
0.1058
 66
1
 10
0
 20
0
 30
0
  0
VERTEX
  8
LAYER_9
 10
174.3098
 20
67.5809
  0
VERTEX
  8
LAYER_9
 10
174.3098
 20
71.5809
  0
SEQEND
  0
ENDBLK
  0
BLOCK
  8
LAYER_9
  2
AIGNBL090100F2
 70
64
 10
0
 20
0
 30
0
  3
AIGNBL090100F2
  0
POLYLINE
  8
LAYER_9
 40
0.1058
 41
0.1058
 66
1
 10
0
 20
0
 30
0
  0
VERTEX
  8
LAYER_9
 10
82.6447
 20
202.4978
  0
VERTEX
  8
LAYER_9
 10
182.6447
 20
202.4978
  0
SEQEND
  0
POLYLINE
  8
LAYER_9
 40
0.1058
 41
0.1058
 66
1
 10
0
 20
0
 30
0
  0
VERTEX
  8
LAYER_9
 10
82.6447
 20
200.4978
  0
VERTEX
  8
LAYER_9
 10
82.6447
 20
204.4978
  0
SEQEND
  0
POLYLINE
  8
LAYER_9
 40
0.1058
 41
0.1058
 66
1
 10
0
 20
0
 30
0
  0
VERTEX
  8
LAYER_9
 10
182.6447
 20
200.4978
  0
VERTEX
  8
LAYER_9
 10
182.6447
 20
204.4978
  0
SEQEND
  0
ENDBLK
  0
BLOCK
  8
LAYER_9
  2
AIGNBL090100F3
 70
64
 10
0
 20
0
 30
0
  3
AIGNBL090100F3
  0
POLYLINE
  8
LAYER_9
 40
0.1058
 41
0.1058
 66
1
 10
0
 20
0
 30
0
  0
VERTEX
  8
LAYER_9
 10
79.0171
 20
110.409
  0
VERTEX
  8
LAYER_9
 10
79.0171
 20
197.909
  0
SEQEND
  0
POLYLINE
  8
LAYER_9
 40
0.1058
 41
0.1058
 66
1
 10
0
 20
0
 30
0
  0
VERTEX
  8
LAYER_9
 10
81.0171
 20
110.409
  0
VERTEX
  8
LAYER_9
 10
77.0171
 20
110.409
  0
SEQEND
  0
POLYLINE
  8
LAYER_9
 40
0.1058
 41
0.1058
 66
1
 10
0
 20
0
 30
0
  0
VERTEX
  8
LAYER_9
 10
81.0171
 20
197.909
  0
VERTEX
  8
LAYER_9
 10
77.0171
 20
197.909
  0
SEQEND
  0
ENDBLK
  0
ENDSEC
  0
SECTION
  2
ENTITIES
  0
TEXT
  8
LAYER_9
 10
18.1791
 20
6.2646
 11
18.1791
 21
6.2646
 40
3.2995
 41
0.5
  1
仕様
  0
POLYLINE
  8
LAYER_9
 40
0.3528
 41
0.3528
 66
1
 10
0
 20
0
 30
0
  0
VERTEX
  8
LAYER_9
 10
205.0762
 20
10.8455
  0
VERTEX
  8
LAYER_9
 10
17.0763
 20
10.8455
  0
SEQEND
  0
INSERT
  8
LAYER_9
  2
AIGNBL09010002
 10
0
 20
0
 30
0
  0
POLYLINE
  8
LAYER_9
 40
0.3528
 41
0.3528
 66
1
 10
0
 20
0
 30
0
  0
VERTEX
  8
LAYER_9
 10
17.0763
 20
268.2234
  0
VERTEX
  8
LAYER_9
 10
17.0763
 20
-6.7769
  0
VERTEX
  8
LAYER_9
 10
205.0762
 20
-6.7769
  0
VERTEX
  8
LAYER_9
 10
205.0762
 20
268.2234
  0
VERTEX
  8
LAYER_9
 10
17.0763
 20
268.2234
  0
SEQEND
  0
POLYLINE
  8
LAYER_9
 40
0.3528
 41
0.3528
 66
1
 10
0
 20
0
 30
0
  0
VERTEX
  8
LAYER_9
 10
205.0762
 20
19.3546
  0
VERTEX
  8
LAYER_9
 10
17.0763
 20
19.3546
  0
SEQEND
  0
POLYLINE
  8
LAYER_9
 40
0.3528
 41
0.3528
 66
1
 10
0
 20
0
 30
0
  0
VERTEX
  8
LAYER_9
 10
205.0762
 20
2.3365
  0
VERTEX
  8
LAYER_9
 10
127.3025
 20
2.3365
  0
SEQEND
  0
TEXT
  8
LAYER_9
 10
157.5084
 20
4.6123
 11
157.5084
 21
4.6123
 40
3.7615
 41
0.5
  1
-
  0
TEXT
  8
LAYER_9
 10
152.2167
 20
8.3692
 11
152.2167
 21
8.3692
 40
2.1997
 41
0.5
  1
縮尺
  0
POLYLINE
  8
LAYER_9
 40
0.3528
 41
0.3528
 66
1
 10
0
 20
0
 30
0
  0
VERTEX
  8
LAYER_9
 10
150.6885
 20
2.3365
  0
VERTEX
  8
LAYER_9
 10
150.6885
 20
10.8455
  0
SEQEND
  0
TEXT
  8
LAYER_9
 10
128.0011
 20
16.8782
 11
128.0011
 21
16.8782
 40
2.1997
 41
0.5
  1
品番
  0
TEXT
  8
LAYER_9
 10
18.2332
 20
16.8782
 11
18.2332
 21
16.8782
 40
2.1997
 41
0.5
  1
品名
  0
TEXT
  8
LAYER_9
 10
128.0011
 20
8.3692
 11
128.0011
 21
8.3692
 40
2.1997
 41
0.5
  1
重量
  0
TEXT
  8
LAYER_9
 10
135.5345
 20
13.0462
 11
135.5345
 21
13.0462
 40
5.9385
 41
0.5
  1
EX-NDGL2P/
  0
TEXT
  8
LAYER_9
 10
133.3138
 20
4.6123
 11
133.3138
 21
4.6123
 40
3.7615
 41
0.5
  1
-
  0
POLYLINE
  8
LAYER_9
 40
0.3528
 41
0.3528
 66
1
 10
0
 20
0
 30
0
  0
VERTEX
  8
LAYER_9
 10
127.3025
 20
-6.1512
  0
VERTEX
  8
LAYER_9
 10
127.3025
 20
19.3546
  0
SEQEND
  0
TEXT
  8
LAYER_9
 10
24.5084
 20
13.6808
 11
24.5084
 21
13.6808
 40
4.1465
 41
0.5
  1
GRID2 -1000mm
  0
TEXT
  8
LAYER_9
 10
28.7512
 20
5.7361
 11
28.7512
 21
5.7361
 40
3.5541
 41
0.5
  1
●W1000mm×H875mm×D80mm●取り付けビス同梱
  0
TEXT
  8
LAYER_9
 10
191.6644
 20
22.153
 11
191.6644
 21
22.153
 40
2.9618
 41
0.5
  1
単位：mm
  0
TEXT
  8
LAYER_9
 10
194.7605
 20
264.7297
 11
194.7605
 21
264.7297
 40
2.0732
 41
0.5
  1
190711RT
  0
TEXT
  8
LAYER_9
 10
154.2662
 20
-1.6816
 11
154.2662
 21
-1.6816
 40
2.8694
 41
0.5
  1
●TEL 0120-65-1232●FAX 06-6532-1580
  0
TEXT
  8
LAYER_9
 10
154.2662
 20
-4.6609
 11
154.2662
 21
-4.6609
 40
2.8694
 41
0.5
  1
hits@hiratatile.co.jp
  0
INSERT
  8
LAYER_9
  2
AIGNBL09010003
 10
0
 20
0
 30
0
  0
INSERT
  8
LAYER_9
  2
AIGNBL09010025
 10
0
 20
0
 30
0
  0
INSERT
  8
LAYER_9
  2
AIGNBL09010026
 10
0
 20
0
 30
0
  0
INSERT
  8
LAYER_9
  2
AIGNBL09010027
 10
0
 20
0
 30
0
  0
INSERT
  8
LAYER_9
  2
AIGNBL09010028
 10
0
 20
0
 30
0
  0
INSERT
  8
LAYER_9
  2
AIGNBL09010029
 10
0
 20
0
 30
0
  0
INSERT
  8
LAYER_9
  2
AIGNBL0901002A
 10
0
 20
0
 30
0
  0
INSERT
  8
LAYER_9
  2
AIGNBL0901002B
 10
0
 20
0
 30
0
  0
INSERT
  8
LAYER_9
  2
AIGNBL0901002C
 10
0
 20
0
 30
0
  0
INSERT
  8
LAYER_9
  2
AIGNBL0901002D
 10
0
 20
0
 30
0
  0
INSERT
  8
LAYER_9
  2
AIGNBL0901002E
 10
0
 20
0
 30
0
  0
INSERT
  8
LAYER_9
  2
AIGNBL0901002F
 10
0
 20
0
 30
0
  0
INSERT
  8
LAYER_9
  2
AIGNBL09010030
 10
0
 20
0
 30
0
  0
INSERT
  8
LAYER_9
  2
AIGNBL09010031
 10
0
 20
0
 30
0
  0
INSERT
  8
LAYER_9
  2
AIGNBL09010032
 10
0
 20
0
 30
0
  0
INSERT
  8
LAYER_9
  2
AIGNBL09010033
 10
0
 20
0
 30
0
  0
INSERT
  8
LAYER_9
  2
AIGNBL09010034
 10
0
 20
0
 30
0
  0
INSERT
  8
LAYER_9
  2
AIGNBL09010035
 10
0
 20
0
 30
0
  0
INSERT
  8
LAYER_9
  2
AIGNBL09010036
 10
0
 20
0
 30
0
  0
INSERT
  8
LAYER_9
  2
AIGNBL09010037
 10
0
 20
0
 30
0
  0
INSERT
  8
LAYER_9
  2
AIGNBL09010038
 10
0
 20
0
 30
0
  0
INSERT
  8
LAYER_9
  2
AIGNBL09010039
 10
0
 20
0
 30
0
  0
INSERT
  8
LAYER_9
  2
AIGNBL0901003A
 10
0
 20
0
 30
0
  0
INSERT
  8
LAYER_9
  2
AIGNBL0901003B
 10
0
 20
0
 30
0
  0
INSERT
  8
LAYER_9
  2
AIGNBL0901003C
 10
0
 20
0
 30
0
  0
INSERT
  8
LAYER_9
  2
AIGNBL0901003D
 10
0
 20
0
 30
0
  0
INSERT
  8
LAYER_9
  2
AIGNBL0901003E
 10
0
 20
0
 30
0
  0
INSERT
  8
LAYER_9
  2
AIGNBL0901003F
 10
0
 20
0
 30
0
  0
INSERT
  8
LAYER_9
  2
AIGNBL09010040
 10
0
 20
0
 30
0
  0
INSERT
  8
LAYER_9
  2
AIGNBL09010041
 10
0
 20
0
 30
0
  0
INSERT
  8
LAYER_9
  2
AIGNBL09010042
 10
0
 20
0
 30
0
  0
INSERT
  8
LAYER_9
  2
AIGNBL09010043
 10
0
 20
0
 30
0
  0
INSERT
  8
LAYER_9
  2
AIGNBL09010044
 10
0
 20
0
 30
0
  0
INSERT
  8
LAYER_9
  2
AIGNBL09010045
 10
0
 20
0
 30
0
  0
INSERT
  8
LAYER_9
  2
AIGNBL09010046
 10
0
 20
0
 30
0
  0
INSERT
  8
LAYER_9
  2
AIGNBL09010047
 10
0
 20
0
 30
0
  0
INSERT
  8
LAYER_9
  2
AIGNBL09010048
 10
0
 20
0
 30
0
  0
INSERT
  8
LAYER_9
  2
AIGNBL09010049
 10
0
 20
0
 30
0
  0
INSERT
  8
LAYER_9
  2
AIGNBL0901004A
 10
0
 20
0
 30
0
  0
INSERT
  8
LAYER_9
  2
AIGNBL0901004B
 10
0
 20
0
 30
0
  0
INSERT
  8
LAYER_9
  2
AIGNBL0901004C
 10
0
 20
0
 30
0
  0
INSERT
  8
LAYER_9
  2
AIGNBL0901004D
 10
0
 20
0
 30
0
  0
INSERT
  8
LAYER_9
  2
AIGNBL0901004E
 10
0
 20
0
 30
0
  0
INSERT
  8
LAYER_9
  2
AIGNBL0901004F
 10
0
 20
0
 30
0
  0
INSERT
  8
LAYER_9
  2
AIGNBL09010050
 10
0
 20
0
 30
0
  0
INSERT
  8
LAYER_9
  2
AIGNBL09010051
 10
0
 20
0
 30
0
  0
INSERT
  8
LAYER_9
  2
AIGNBL09010052
 10
0
 20
0
 30
0
  0
INSERT
  8
LAYER_9
  2
AIGNBL09010053
 10
0
 20
0
 30
0
  0
INSERT
  8
LAYER_9
  2
AIGNBL09010054
 10
0
 20
0
 30
0
  0
INSERT
  8
LAYER_9
  2
AIGNBL09010055
 10
0
 20
0
 30
0
  0
INSERT
  8
LAYER_9
  2
AIGNBL09010056
 10
0
 20
0
 30
0
  0
INSERT
  8
LAYER_9
  2
AIGNBL09010057
 10
0
 20
0
 30
0
  0
INSERT
  8
LAYER_9
  2
AIGNBL09010058
 10
0
 20
0
 30
0
  0
INSERT
  8
LAYER_9
  2
AIGNBL09010059
 10
0
 20
0
 30
0
  0
INSERT
  8
LAYER_9
  2
AIGNBL0901005A
 10
0
 20
0
 30
0
  0
INSERT
  8
LAYER_9
  2
AIGNBL0901005B
 10
0
 20
0
 30
0
  0
INSERT
  8
LAYER_9
  2
AIGNBL0901005C
 10
0
 20
0
 30
0
  0
INSERT
  8
LAYER_9
  2
AIGNBL0901005D
 10
0
 20
0
 30
0
  0
INSERT
  8
LAYER_9
  2
AIGNBL0901005E
 10
0
 20
0
 30
0
  0
INSERT
  8
LAYER_9
  2
AIGNBL0901005F
 10
0
 20
0
 30
0
  0
INSERT
  8
LAYER_9
  2
AIGNBL09010060
 10
0
 20
0
 30
0
  0
INSERT
  8
LAYER_9
  2
AIGNBL09010061
 10
0
 20
0
 30
0
  0
INSERT
  8
LAYER_9
  2
AIGNBL09010062
 10
0
 20
0
 30
0
  0
INSERT
  8
LAYER_9
  2
AIGNBL09010063
 10
0
 20
0
 30
0
  0
INSERT
  8
LAYER_9
  2
AIGNBL09010064
 10
0
 20
0
 30
0
  0
INSERT
  8
LAYER_9
  2
AIGNBL09010065
 10
0
 20
0
 30
0
  0
INSERT
  8
LAYER_9
  2
AIGNBL09010066
 10
0
 20
0
 30
0
  0
INSERT
  8
LAYER_9
  2
AIGNBL09010067
 10
0
 20
0
 30
0
  0
INSERT
  8
LAYER_9
  2
AIGNBL09010068
 10
0
 20
0
 30
0
  0
INSERT
  8
LAYER_9
  2
AIGNBL09010069
 10
0
 20
0
 30
0
  0
INSERT
  8
LAYER_9
  2
AIGNBL0901006A
 10
0
 20
0
 30
0
  0
INSERT
  8
LAYER_9
  2
AIGNBL0901006B
 10
0
 20
0
 30
0
  0
INSERT
  8
LAYER_9
  2
AIGNBL0901006C
 10
0
 20
0
 30
0
  0
INSERT
  8
LAYER_9
  2
AIGNBL0901006D
 10
0
 20
0
 30
0
  0
INSERT
  8
LAYER_9
  2
AIGNBL0901006E
 10
0
 20
0
 30
0
  0
INSERT
  8
LAYER_9
  2
AIGNBL0901006F
 10
0
 20
0
 30
0
  0
INSERT
  8
LAYER_9
  2
AIGNBL09010070
 10
0
 20
0
 30
0
  0
INSERT
  8
LAYER_9
  2
AIGNBL09010071
 10
0
 20
0
 30
0
  0
INSERT
  8
LAYER_9
  2
AIGNBL09010072
 10
0
 20
0
 30
0
  0
INSERT
  8
LAYER_9
  2
AIGNBL09010073
 10
0
 20
0
 30
0
  0
INSERT
  8
LAYER_9
  2
AIGNBL09010074
 10
0
 20
0
 30
0
  0
INSERT
  8
LAYER_9
  2
AIGNBL09010075
 10
0
 20
0
 30
0
  0
INSERT
  8
LAYER_9
  2
AIGNBL09010076
 10
0
 20
0
 30
0
  0
INSERT
  8
LAYER_9
  2
AIGNBL09010077
 10
0
 20
0
 30
0
  0
INSERT
  8
LAYER_9
  2
AIGNBL09010078
 10
0
 20
0
 30
0
  0
INSERT
  8
LAYER_9
  2
AIGNBL09010079
 10
0
 20
0
 30
0
  0
INSERT
  8
LAYER_9
  2
AIGNBL0901007A
 10
0
 20
0
 30
0
  0
INSERT
  8
LAYER_9
  2
AIGNBL0901007B
 10
0
 20
0
 30
0
  0
INSERT
  8
LAYER_9
  2
AIGNBL0901007C
 10
0
 20
0
 30
0
  0
INSERT
  8
LAYER_9
  2
AIGNBL0901007D
 10
0
 20
0
 30
0
  0
INSERT
  8
LAYER_9
  2
AIGNBL0901007E
 10
0
 20
0
 30
0
  0
INSERT
  8
LAYER_9
  2
AIGNBL0901007F
 10
0
 20
0
 30
0
  0
INSERT
  8
LAYER_9
  2
AIGNBL09010080
 10
0
 20
0
 30
0
  0
INSERT
  8
LAYER_9
  2
AIGNBL09010081
 10
0
 20
0
 30
0
  0
INSERT
  8
LAYER_9
  2
AIGNBL09010082
 10
0
 20
0
 30
0
  0
INSERT
  8
LAYER_9
  2
AIGNBL09010083
 10
0
 20
0
 30
0
  0
INSERT
  8
LAYER_9
  2
AIGNBL09010084
 10
0
 20
0
 30
0
  0
INSERT
  8
LAYER_9
  2
AIGNBL09010085
 10
0
 20
0
 30
0
  0
INSERT
  8
LAYER_9
  2
AIGNBL09010086
 10
0
 20
0
 30
0
  0
INSERT
  8
LAYER_9
  2
AIGNBL09010087
 10
0
 20
0
 30
0
  0
INSERT
  8
LAYER_9
  2
AIGNBL09010088
 10
0
 20
0
 30
0
  0
INSERT
  8
LAYER_9
  2
AIGNBL09010089
 10
0
 20
0
 30
0
  0
INSERT
  8
LAYER_9
  2
AIGNBL0901008A
 10
0
 20
0
 30
0
  0
INSERT
  8
LAYER_9
  2
AIGNBL0901008B
 10
0
 20
0
 30
0
  0
INSERT
  8
LAYER_9
  2
AIGNBL0901008C
 10
0
 20
0
 30
0
  0
INSERT
  8
LAYER_9
  2
AIGNBL0901008D
 10
0
 20
0
 30
0
  0
INSERT
  8
LAYER_9
  2
AIGNBL0901008E
 10
0
 20
0
 30
0
  0
INSERT
  8
LAYER_9
  2
AIGNBL0901008F
 10
0
 20
0
 30
0
  0
INSERT
  8
LAYER_9
  2
AIGNBL09010090
 10
0
 20
0
 30
0
  0
INSERT
  8
LAYER_9
  2
AIGNBL09010091
 10
0
 20
0
 30
0
  0
INSERT
  8
LAYER_9
  2
AIGNBL09010092
 10
0
 20
0
 30
0
  0
INSERT
  8
LAYER_9
  2
AIGNBL09010093
 10
0
 20
0
 30
0
  0
INSERT
  8
LAYER_9
  2
AIGNBL09010094
 10
0
 20
0
 30
0
  0
INSERT
  8
LAYER_9
  2
AIGNBL09010095
 10
0
 20
0
 30
0
  0
INSERT
  8
LAYER_9
  2
AIGNBL09010096
 10
0
 20
0
 30
0
  0
INSERT
  8
LAYER_9
  2
AIGNBL09010097
 10
0
 20
0
 30
0
  0
INSERT
  8
LAYER_9
  2
AIGNBL09010098
 10
0
 20
0
 30
0
  0
INSERT
  8
LAYER_9
  2
AIGNBL09010099
 10
0
 20
0
 30
0
  0
INSERT
  8
LAYER_9
  2
AIGNBL0901009A
 10
0
 20
0
 30
0
  0
INSERT
  8
LAYER_9
  2
AIGNBL0901009B
 10
0
 20
0
 30
0
  0
INSERT
  8
LAYER_9
  2
AIGNBL0901009C
 10
0
 20
0
 30
0
  0
INSERT
  8
LAYER_9
  2
AIGNBL0901009D
 10
0
 20
0
 30
0
  0
INSERT
  8
LAYER_9
  2
AIGNBL0901009E
 10
0
 20
0
 30
0
  0
INSERT
  8
LAYER_9
  2
AIGNBL0901009F
 10
0
 20
0
 30
0
  0
INSERT
  8
LAYER_9
  2
AIGNBL090100A0
 10
0
 20
0
 30
0
  0
INSERT
  8
LAYER_9
  2
AIGNBL090100A1
 10
0
 20
0
 30
0
  0
INSERT
  8
LAYER_9
  2
AIGNBL090100A2
 10
0
 20
0
 30
0
  0
INSERT
  8
LAYER_9
  2
AIGNBL090100A3
 10
0
 20
0
 30
0
  0
INSERT
  8
LAYER_9
  2
AIGNBL090100A4
 10
0
 20
0
 30
0
  0
INSERT
  8
LAYER_9
  2
AIGNBL090100A5
 10
0
 20
0
 30
0
  0
INSERT
  8
LAYER_9
  2
AIGNBL090100A6
 10
0
 20
0
 30
0
  0
INSERT
  8
LAYER_9
  2
AIGNBL090100A7
 10
0
 20
0
 30
0
  0
INSERT
  8
LAYER_9
  2
AIGNBL090100A8
 10
0
 20
0
 30
0
  0
INSERT
  8
LAYER_9
  2
AIGNBL090100A9
 10
0
 20
0
 30
0
  0
INSERT
  8
LAYER_9
  2
AIGNBL090100AA
 10
0
 20
0
 30
0
  0
INSERT
  8
LAYER_9
  2
AIGNBL090100AB
 10
0
 20
0
 30
0
  0
INSERT
  8
LAYER_9
  2
AIGNBL090100AC
 10
0
 20
0
 30
0
  0
INSERT
  8
LAYER_9
  2
AIGNBL090100AD
 10
0
 20
0
 30
0
  0
INSERT
  8
LAYER_9
  2
AIGNBL090100AE
 10
0
 20
0
 30
0
  0
INSERT
  8
LAYER_9
  2
AIGNBL090100AF
 10
0
 20
0
 30
0
  0
INSERT
  8
LAYER_9
  2
AIGNBL090100B0
 10
0
 20
0
 30
0
  0
INSERT
  8
LAYER_9
  2
AIGNBL090100B1
 10
0
 20
0
 30
0
  0
INSERT
  8
LAYER_9
  2
AIGNBL090100B2
 10
0
 20
0
 30
0
  0
INSERT
  8
LAYER_9
  2
AIGNBL090100B3
 10
0
 20
0
 30
0
  0
INSERT
  8
LAYER_9
  2
AIGNBL090100B4
 10
0
 20
0
 30
0
  0
INSERT
  8
LAYER_9
  2
AIGNBL090100B5
 10
0
 20
0
 30
0
  0
INSERT
  8
LAYER_9
  2
AIGNBL090100B6
 10
0
 20
0
 30
0
  0
INSERT
  8
LAYER_9
  2
AIGNBL090100B7
 10
0
 20
0
 30
0
  0
INSERT
  8
LAYER_9
  2
AIGNBL090100B8
 10
0
 20
0
 30
0
  0
INSERT
  8
LAYER_9
  2
AIGNBL090100B9
 10
0
 20
0
 30
0
  0
INSERT
  8
LAYER_9
  2
AIGNBL090100BA
 10
0
 20
0
 30
0
  0
INSERT
  8
LAYER_9
  2
AIGNBL090100BB
 10
0
 20
0
 30
0
  0
INSERT
  8
LAYER_9
  2
AIGNBL090100BC
 10
0
 20
0
 30
0
  0
INSERT
  8
LAYER_9
  2
AIGNBL090100BD
 10
0
 20
0
 30
0
  0
INSERT
  8
LAYER_9
  2
AIGNBL090100BE
 10
0
 20
0
 30
0
  0
INSERT
  8
LAYER_9
  2
AIGNBL090100BF
 10
0
 20
0
 30
0
  0
INSERT
  8
LAYER_9
  2
AIGNBL090100C0
 10
0
 20
0
 30
0
  0
INSERT
  8
LAYER_9
  2
AIGNBL090100C1
 10
0
 20
0
 30
0
  0
INSERT
  8
LAYER_9
  2
AIGNBL090100C2
 10
0
 20
0
 30
0
  0
INSERT
  8
LAYER_9
  2
AIGNBL090100C3
 10
0
 20
0
 30
0
  0
INSERT
  8
LAYER_9
  2
AIGNBL090100C4
 10
0
 20
0
 30
0
  0
INSERT
  8
LAYER_9
  2
AIGNBL090100C5
 10
0
 20
0
 30
0
  0
INSERT
  8
LAYER_9
  2
AIGNBL090100C6
 10
0
 20
0
 30
0
  0
INSERT
  8
LAYER_9
  2
AIGNBL090100C7
 10
0
 20
0
 30
0
  0
INSERT
  8
LAYER_9
  2
AIGNBL090100C8
 10
0
 20
0
 30
0
  0
INSERT
  8
LAYER_9
  2
AIGNBL090100C9
 10
0
 20
0
 30
0
  0
INSERT
  8
LAYER_9
  2
AIGNBL090100CA
 10
0
 20
0
 30
0
  0
INSERT
  8
LAYER_9
  2
AIGNBL090100CB
 10
0
 20
0
 30
0
  0
INSERT
  8
LAYER_9
  2
AIGNBL090100CC
 10
0
 20
0
 30
0
  0
INSERT
  8
LAYER_9
  2
AIGNBL090100CD
 10
0
 20
0
 30
0
  0
INSERT
  8
LAYER_9
  2
AIGNBL090100CE
 10
0
 20
0
 30
0
  0
INSERT
  8
LAYER_9
  2
AIGNBL090100CF
 10
0
 20
0
 30
0
  0
INSERT
  8
LAYER_9
  2
AIGNBL090100D0
 10
0
 20
0
 30
0
  0
INSERT
  8
LAYER_9
  2
AIGNBL090100D1
 10
0
 20
0
 30
0
  0
INSERT
  8
LAYER_9
  2
AIGNBL090100D2
 10
0
 20
0
 30
0
  0
INSERT
  8
LAYER_9
  2
AIGNBL090100D3
 10
0
 20
0
 30
0
  0
INSERT
  8
LAYER_9
  2
AIGNBL090100D4
 10
0
 20
0
 30
0
  0
INSERT
  8
LAYER_9
  2
AIGNBL090100D5
 10
0
 20
0
 30
0
  0
INSERT
  8
LAYER_9
  2
AIGNBL090100D6
 10
0
 20
0
 30
0
  0
INSERT
  8
LAYER_9
  2
AIGNBL090100D7
 10
0
 20
0
 30
0
  0
INSERT
  8
LAYER_9
  2
AIGNBL090100D8
 10
0
 20
0
 30
0
  0
INSERT
  8
LAYER_9
  2
AIGNBL090100D9
 10
0
 20
0
 30
0
  0
INSERT
  8
LAYER_9
  2
AIGNBL090100DA
 10
0
 20
0
 30
0
  0
INSERT
  8
LAYER_9
  2
AIGNBL090100DB
 10
0
 20
0
 30
0
  0
INSERT
  8
LAYER_9
  2
AIGNBL090100DC
 10
0
 20
0
 30
0
  0
INSERT
  8
LAYER_9
  2
AIGNBL090100DD
 10
0
 20
0
 30
0
  0
INSERT
  8
LAYER_9
  2
AIGNBL090100DE
 10
0
 20
0
 30
0
  0
INSERT
  8
LAYER_9
  2
AIGNBL090100DF
 10
0
 20
0
 30
0
  0
INSERT
  8
LAYER_9
  2
AIGNBL090100E0
 10
0
 20
0
 30
0
  0
INSERT
  8
LAYER_9
  2
AIGNBL090100E1
 10
0
 20
0
 30
0
  0
INSERT
  8
LAYER_9
  2
AIGNBL090100E2
 10
0
 20
0
 30
0
  0
INSERT
  8
LAYER_9
  2
AIGNBL090100E3
 10
0
 20
0
 30
0
  0
INSERT
  8
LAYER_9
  2
AIGNBL090100E4
 10
0
 20
0
 30
0
  0
INSERT
  8
LAYER_9
  2
AIGNBL090100E5
 10
0
 20
0
 30
0
  0
INSERT
  8
LAYER_9
  2
AIGNBL090100E6
 10
0
 20
0
 30
0
  0
INSERT
  8
LAYER_9
  2
AIGNBL090100E7
 10
0
 20
0
 30
0
  0
INSERT
  8
LAYER_9
  2
AIGNBL090100E8
 10
0
 20
0
 30
0
  0
INSERT
  8
LAYER_9
  2
AIGNBL090100E9
 10
0
 20
0
 30
0
  0
INSERT
  8
LAYER_9
  2
AIGNBL090100EA
 10
0
 20
0
 30
0
  0
INSERT
  8
LAYER_9
  2
AIGNBL090100EB
 10
0
 20
0
 30
0
  0
INSERT
  8
LAYER_9
  2
AIGNBL090100EC
 10
0
 20
0
 30
0
  0
TEXT
  8
LAYER_9
 10
53.5651
 20
204.1483
 11
53.5651
 21
204.1483
 40
5.0153
 41
0.5
  1
80
  0
TEXT
  8
LAYER_9
 10
40.6954
 20
194.8585
 11
40.6954
 21
194.8585
 40
5.0153
 41
0.5
  1
25
  0
TEXT
  8
LAYER_9
 10
40.6954
 20
152.4076
 11
40.6954
 21
152.4076
 40
5.0153
 41
0.5
  1
25
  0
TEXT
  8
LAYER_9
 10
39.4019
 20
178.3955
 11
39.4019
 21
178.3955
 40
5.0153
 41
0.5
  1
400
  0
INSERT
  8
LAYER_9
  2
AIGNBL090100ED
 10
0
 20
0
 30
0
  0
INSERT
  8
LAYER_9
  2
AIGNBL090100EE
 10
0
 20
0
 30
0
  0
INSERT
  8
LAYER_9
  2
AIGNBL090100EF
 10
0
 20
0
 30
0
  0
TEXT
  8
LAYER_9
 10
40.6954
 20
109.8815
 11
40.6954
 21
109.8815
 40
5.0153
 41
0.5
  1
25
  0
TEXT
  8
LAYER_9
 10
39.4019
 20
135.8695
 11
39.4019
 21
135.8695
 40
5.0153
 41
0.5
  1
400
  0
INSERT
  8
LAYER_9
  2
AIGNBL090100F0
 10
0
 20
0
 30
0
  0
TEXT
  8
LAYER_9
 10
130.2752
 20
100.5808
 11
130.2752
 21
100.5808
 40
5.0153
 41
0.5
  1
900
  0
INSERT
  8
LAYER_9
  2
AIGNBL090100F1
 10
0
 20
0
 30
0
  0
TEXT
  8
LAYER_9
 10
130.2752
 20
71.0902
 11
130.2752
 21
71.0902
 40
5.0153
 41
0.5
  1
840
  0
INSERT
  8
LAYER_9
  2
AIGNBL090100F2
 10
0
 20
0
 30
0
  0
TEXT
  8
LAYER_9
 10
130.0388
 20
204.5475
 11
130.0388
 21
204.5475
 40
5.0153
 41
0.5
  1
1000
  0
INSERT
  8
LAYER_9
  2
AIGNBL090100F3
 10
0
 20
0
 30
0
  0
TEXT
  8
LAYER_9
 10
69.6106
 20
153.4627
 11
69.6106
 21
153.4627
 40
5.0153
 41
0.5
  1
875
  0
ENDSEC
  0
EOF
