  0
SECTION
  2
HEADER
  9
$ACADVER
  1
AC1014
  9
$ACADMAINTVER
 70
       0
  9
$DWGCODEPAGE
  3
ANSI_932
  9
$INSBASE
 10
0.0
 20
0.0
 30
0.0
  9
$EXTMIN
 10
-660.0
 20
-921.0
 30
0.0
  9
$EXTMAX
 10
660.0
 20
921.0
 30
0.0
  9
$LIMMIN
 10
-210.0
 20
-297.0
  9
$LIMMAX
 10
210.0
 20
297.0
  9
$ORTHOMODE
 70
       0
  9
$REGENMODE
 70
       1
  9
$FILLMODE
 70
       1
  9
$QTEXTMODE
 70
       0
  9
$MIRRTEXT
 70
       1
  9
$DRAGMODE
 70
       2
  9
$LTSCALE
 40
2.0
  9
$OSMODE
 70
       0
  9
$ATTMODE
 70
       1
  9
$TEXTSIZE
 40
0.2
  9
$TRACEWID
 40
0.05
  9
$TEXTSTYLE
  7
STANDARD
  9
$CLAYER
  8
0
  9
$CELTYPE
  6
CONTINUOUS
  9
$CECOLOR
 62
     256
  9
$CELTSCALE
 40
1.0
  9
$DELOBJ
 70
       1
  9
$DISPSILH
 70
       0
  9
$DIMSCALE
 40
1.0
  9
$DIMASZ
 40
4.0
  9
$DIMEXO
 40
0.0625
  9
$DIMDLI
 40
0.38
  9
$DIMRND
 40
0.0
  9
$DIMDLE
 40
0.0
  9
$DIMEXE
 40
0.18
  9
$DIMTP
 40
0.0
  9
$DIMTM
 40
0.0
  9
$DIMTXT
 40
4.0
  9
$DIMCEN
 40
0.09
  9
$DIMTSZ
 40
0.0
  9
$DIMTOL
 70
       0
  9
$DIMLIM
 70
       0
  9
$DIMTIH
 70
       1
  9
$DIMTOH
 70
       1
  9
$DIMSE1
 70
       0
  9
$DIMSE2
 70
       0
  9
$DIMTAD
 70
       0
  9
$DIMZIN
 70
       0
  9
$DIMBLK
  1

  9
$DIMASO
 70
       1
  9
$DIMSHO
 70
       1
  9
$DIMPOST
  1

  9
$DIMAPOST
  1

  9
$DIMALT
 70
       0
  9
$DIMALTD
 70
       2
  9
$DIMALTF
 40
25.4
  9
$DIMLFAC
 40
1.0
  9
$DIMTOFL
 70
       0
  9
$DIMTVP
 40
0.0
  9
$DIMTIX
 70
       0
  9
$DIMSOXD
 70
       0
  9
$DIMSAH
 70
       0
  9
$DIMBLK1
  1

  9
$DIMBLK2
  1

  9
$DIMSTYLE
  2
STANDARD
  9
$DIMCLRD
 70
       0
  9
$DIMCLRE
 70
       0
  9
$DIMCLRT
 70
       0
  9
$DIMTFAC
 40
1.0
  9
$DIMGAP
 40
0.09
  9
$DIMJUST
 70
       0
  9
$DIMSD1
 70
       0
  9
$DIMSD2
 70
       0
  9
$DIMTOLJ
 70
       1
  9
$DIMTZIN
 70
       0
  9
$DIMALTZ
 70
       0
  9
$DIMALTTZ
 70
       0
  9
$DIMFIT
 70
       3
  9
$DIMUPT
 70
       0
  9
$DIMUNIT
 70
       2
  9
$DIMDEC
 70
       4
  9
$DIMTDEC
 70
       4
  9
$DIMALTU
 70
       2
  9
$DIMALTTD
 70
       2
  9
$DIMTXSTY
  7
STANDARD
  9
$DIMAUNIT
 70
       0
  9
$LUNITS
 70
       2
  9
$LUPREC
 70
       4
  9
$SKETCHINC
 40
0.1
  9
$FILLETRAD
 40
0.0
  9
$AUNITS
 70
       0
  9
$AUPREC
 70
       0
  9
$MENU
  1
acad
  9
$ELEVATION
 40
0.0
  9
$PELEVATION
 40
0.0
  9
$THICKNESS
 40
0.0
  9
$LIMCHECK
 70
       0
  9
$BLIPMODE
 70
       1
  9
$CHAMFERA
 40
0.0
  9
$CHAMFERB
 40
0.0
  9
$CHAMFERC
 40
0.0
  9
$CHAMFERD
 40
0.0
  9
$SKPOLY
 70
       0
  9
$TDCREATE
 40
0.000000000
  9
$TDUPDATE
 40
0.000000000
  9
$TDINDWG
 40
0.0000000000
  9
$TDUSRTIMER
 40
0.0000000000
  9
$USRTIMER
 70
       1
  9
$ANGBASE
 50
0.0
  9
$ANGDIR
 70
       0
  9
$PDMODE
 70
       0
  9
$PDSIZE
 40
1.0
  9
$PLINEWID
 40
0.0
  9
$COORDS
 70
       1
  9
$SPLFRAME
 70
       0
  9
$SPLINETYPE
 70
       6
  9
$SPLINESEGS
 70
       8
  9
$ATTDIA
 70
       0
  9
$ATTREQ
 70
       1
  9
$HANDLING
 70
       1
  9
$HANDSEED
  5
551
  9
$SURFTAB1
 70
       6
  9
$SURFTAB2
 70
       6
  9
$SURFTYPE
 70
       6
  9
$SURFU
 70
       6
  9
$SURFV
 70
       6
  9
$UCSNAME
  2

  9
$UCSORG
 10
0.0
 20
0.0
 30
0.0
  9
$UCSXDIR
 10
1.0
 20
0.0
 30
0.0
  9
$UCSYDIR
 10
0.0
 20
1.0
 30
0.0
  9
$PUCSNAME
  2

  9
$PUCSORG
 10
0.0
 20
0.0
 30
0.0
  9
$PUCSXDIR
 10
1.0
 20
0.0
 30
0.0
  9
$PUCSYDIR
 10
0.0
 20
1.0
 30
0.0
  9
$USERI1
 70
       0
  9
$USERI2
 70
       0
  9
$USERI3
 70
       0
  9
$USERI4
 70
       0
  9
$USERI5
 70
       0
  9
$USERR1
 40
0.0
  9
$USERR2
 40
0.0
  9
$USERR3
 40
0.0
  9
$USERR4
 40
0.0
  9
$USERR5
 40
0.0
  9
$WORLDVIEW
 70
       1
  9
$SHADEDGE
 70
       3
  9
$SHADEDIF
 70
      70
  9
$TILEMODE
 70
       1
  9
$MAXACTVP
 70
      16
  9
$PINSBASE
 10
0.0
 20
0.0
 30
0.0
  9
$PLIMCHECK
 70
       0
  9
$PEXTMIN
 10
1.00000000E+20
 20
1.00000000E+20
 30
1.00000000E+20
  9
$PEXTMAX
 10
-1.00000000E+20
 20
-1.00000000E+20
 30
-1.00000000E+20
  9
$PLIMMIN
 10
0.0
 20
0.0
  9
$PLIMMAX
 10
12.0
 20
9.0
  9
$UNITMODE
 70
       0
  9
$VISRETAIN
 70
       0
  9
$PLINEGEN
 70
       1
  9
$PSLTSCALE
 70
       0
  9
$TREEDEPTH
 70
    3020
  9
$PICKSTYLE
 70
       1
  9
$CMLSTYLE
  2
STANDARD
  9
$CMLJUST
 70
       0
  9
$CMLSCALE
 40
1.0
  9
$PROXYGRAPHICS
 70
       0
  9
$MEASUREMENT
 70
       0
  0
ENDSEC
  0
SECTION
  2
CLASSES
  0
CLASS
  1
LWPOLYLINE
  2
AcDbPolyline
  3
"AutoCAD"
 90
        0
280
       0
281
       1
  0
CLASS
  1
IMAGE
  2
AcDbRasterImage
  3
ISM
 90
      127
280
       0
281
       1
  0
CLASS
  1
OLE2FRAME
  2
AcDbOle2Frame
  3
""
 90
        0
280
       0
281
       1
  0
CLASS
  1
HATCH
  2
AcDbHatch
  3
"ACAD_SEDONA"
 90
        0
280
       0
281
       1
  0
CLASS
  1
DICTIONARYVAR
  2
AcDbDictionaryVar
  3
"AutoCAD"
 90
        0
280
       0
281
       0
  0
CLASS
  1
RASTERVARIABLES
  2
AcDbRasterVariables
  3
ISM
 90
        0
280
       0
281
       0
  0
CLASS
  1
IMAGEDEF
  2
AcDbRasterImageDef
  3
ISM
 90
        0
280
       0
281
       0
  0
CLASS
  1
IMAGEDEF_REACTOR
  2
AcDbRasterImageDefReactor
  3
ISM
 90
        1
280
       0
281
       0
  0
CLASS
  1
IDBUFFER
  2
AcDbIdBuffer
  3
"Acad"
 90
        0
280
       0
281
       0
  0
CLASS
  1
SPATIAL_FILTER
  2
AcDbSpatialFilter
  3
"Acad"
 90
        0
280
       0
281
       0
  0
CLASS
  1
XRECORD
  2
AcDbXrecord
  3
"<Built In>"
 90
        0
280
       0
281
       0
  0
CLASS
  1
SORTENTSTABLE
  2
AcDbSortentsTable
  3
"AutoCAD"
 90
        0
280
       0
281
       0
  0
CLASS
  1
LAYER_INDEX
  2
AcDbLayerIndex
  3
"Acad"
 90
        0
280
       0
281
       0
  0
CLASS
  1
SPATIAL_INDEX
  2
AcDbSpatialIndex
  3
"Acad"
 90
        0
280
       0
281
       0
  0
CLASS
  1
OBJECT_PTR
  2
CAseDLPNTableRecord
  3
"ASE-LPNTableRecord"
 90
        1
280
       0
281
       0
  0
CLASS
  1
LAYOUT
  2
AcDbLayout
  3
"AutoCAD 2000"
 90
        0
280
       0
281
       0
  0
CLASS
  1
PLOTSETTINGS
  2
AcDbPlotSettings
  3
"AutoCAD 2000"
 90
        0
280
       0
281
       0
  0
CLASS
  1
ACDBDICTIONARYWDFLT
  2
AcDbDictionaryWithDefault
  3
"AutoCAD 2000"
 90
        0
280
       0
281
       0
  0
CLASS
  1
ACDBPLACEHOLDER
  2
AcDbPlaceHolder
  3
"AutoCAD 2000"
 90
        0
280
       0
281
       0
  0
CLASS
  1
VBA_PROJECT
  2
AcDbVbaProject
  3
"acadvba"
 90
        0
280
       0
281
       0
  0
CLASS
  1
WIPEOUT
  2
AcDbWipeout
  3
WipeOut|AutoCAD Express Tool|expresstools@autodesk.com
 90
      127
280
       0
281
       1
  0
CLASS
  1
WIPEOUTVARIABLES
  2
AcDbWipeoutVariables
  3
WipeOut|AutoCAD Express Tool|expresstools@autodesk.com
 90
        0
280
       0
281
       0
  0
CLASS
  1
RTEXT
  2
RText
  3
RText|AutoCAD Express Tool|expresstools@autodesk.com
 90
        0
280
       0
281
       1
  0
CLASS
  1
ARCALIGNEDTEXT
  2
AcDbArcAlignedText
  3
ATEXT|AutoCAD Express Tool|expresstools@autodesk.com
 90
        0
280
       0
281
       1
  0
ENDSEC
  0
SECTION
  2
TABLES
  0
TABLE
  2
VPORT
  5
7
100
AcDbSymbolTable
 70
       1
  0
VPORT
  5
15
100
AcDbSymbolTableRecord
100
AcDbViewportTableRecord
  2
*ACTIVE
 70
       0
 10
0.0
 20
0.0
 11
1.0
 21
1.0
 12
0.0
 22
0.0
 13
0.0
 23
0.0
 14
1.0
 24
1.0
 15
0.0
 25
0.0
 16
0.0
 26
0.0
 36
1.0
 17
0.0
 27
0.0
 37
0.0
 40
594.0
 41
0.70707071
 42
50.0
 43
0.0
 44
0.0
 50
0.0
 51
0.0
 71
       0
 72
     100
 73
       1
 74
       1
 75
       0
 76
       0
 77
       0
 78
       0
  0
ENDTAB
  0
TABLE
  2
LTYPE
  5
4
100
AcDbSymbolTable
 70
      30
  0
LTYPE
  5
11
100
AcDbSymbolTableRecord
100
AcDbLinetypeTableRecord
  2
BYBLOCK
 70
      64
  3

 72
      65
 73
       0
 40
0.0
  0
LTYPE
  5
12
100
AcDbSymbolTableRecord
100
AcDbLinetypeTableRecord
  2
BYLAYER
 70
      64
  3

 72
      65
 73
       0
 40
0.0
  0
LTYPE
  5
13
100
AcDbSymbolTableRecord
100
AcDbLinetypeTableRecord
  2
CONTINUOUS
 70
      64
  3
Solid line
 72
      65
 73
       0
 40
0.0
  0
LTYPE
  5
1D
100
AcDbSymbolTableRecord
100
AcDbLinetypeTableRecord
  2
HIDDENX2
 70
      64
  3
CADPAC LINETYPE
 72
      65
 73
       2
 40
6.68918919
 49
5.01689189
 74
       0
 49
-1.6722973
 74
       0
  0
LTYPE
  5
1E
100
AcDbSymbolTableRecord
100
AcDbLinetypeTableRecord
  2
HIDDEN
 70
      64
  3
CADPAC LINETYPE
 72
      65
 73
       2
 40
5.01689189
 49
3.34459459
 74
       0
 49
-1.6722973
 74
       0
  0
LTYPE
  5
1F
100
AcDbSymbolTableRecord
100
AcDbLinetypeTableRecord
  2
HIDDEN2
 70
      64
  3
CADPAC LINETYPE
 72
      65
 73
       2
 40
4.18074324
 49
2.50844595
 74
       0
 49
-1.6722973
 74
       0
  0
LTYPE
  5
20
100
AcDbSymbolTableRecord
100
AcDbLinetypeTableRecord
  2
DASHED
 70
      64
  3
CADPAC LINETYPE
 72
      65
 73
       2
 40
4.68243243
 49
3.34459459
 74
       0
 49
-1.33783784
 74
       0
  0
LTYPE
  5
21
100
AcDbSymbolTableRecord
100
AcDbLinetypeTableRecord
  2
DASHED2
 70
      64
  3
CADPAC LINETYPE
 72
      65
 73
       2
 40
3.01013514
 49
2.00675676
 74
       0
 49
-1.00337838
 74
       0
  0
LTYPE
  5
22
100
AcDbSymbolTableRecord
100
AcDbLinetypeTableRecord
  2
DASHEDX2
 70
      64
  3
CADPAC LINETYPE
 72
      65
 73
       2
 40
8.02702703
 49
6.68918919
 74
       0
 49
-1.33783784
 74
       0
  0
LTYPE
  5
23
100
AcDbSymbolTableRecord
100
AcDbLinetypeTableRecord
  2
DOTX2
 70
      64
  3
CADPAC LINETYPE
 72
      65
 73
       2
 40
2.92652027
 49
0.0
 74
       0
 49
-2.92652027
 74
       0
  0
LTYPE
  5
24
100
AcDbSymbolTableRecord
100
AcDbLinetypeTableRecord
  2
DOT
 70
      64
  3
CADPAC LINETYPE
 72
      65
 73
       2
 40
2.34121622
 49
0.0
 74
       0
 49
-2.34121622
 74
       0
  0
LTYPE
  5
25
100
AcDbSymbolTableRecord
100
AcDbLinetypeTableRecord
  2
DOT2
 70
      64
  3
CADPAC LINETYPE
 72
      65
 73
       2
 40
1.75591216
 49
0.0
 74
       0
 49
-1.75591216
 74
       0
  0
LTYPE
  5
26
100
AcDbSymbolTableRecord
100
AcDbLinetypeTableRecord
  2
CENTERX2
 70
      64
  3
CADPAC LINETYPE
 72
      65
 73
       4
 40
10.03378378
 49
4.18074324
 74
       0
 49
-2.09037162
 74
       0
 49
1.6722973
 74
       0
 49
-2.09037162
 74
       0
  0
LTYPE
  5
27
100
AcDbSymbolTableRecord
100
AcDbLinetypeTableRecord
  2
CENTER
 70
      64
  3
CADPAC LINETYPE
 72
      65
 73
       4
 40
7.69256757
 49
3.34459459
 74
       0
 49
-1.6722973
 74
       0
 49
1.00337838
 74
       0
 49
-1.6722973
 74
       0
  0
LTYPE
  5
28
100
AcDbSymbolTableRecord
100
AcDbLinetypeTableRecord
  2
CENTER2
 70
      64
  3
CADPAC LINETYPE
 72
      65
 73
       4
 40
5.35135135
 49
2.50844595
 74
       0
 49
-1.25422297
 74
       0
 49
0.33445946
 74
       0
 49
-1.25422297
 74
       0
  0
LTYPE
  5
29
100
AcDbSymbolTableRecord
100
AcDbLinetypeTableRecord
  2
DASHDOTX2
 70
      64
  3
CADPAC LINETYPE
 72
      65
 73
       4
 40
16.05405405
 49
8.02702703
 74
       0
 49
-2.67567568
 74
       0
 49
2.67567568
 74
       0
 49
-2.67567568
 74
       0
  0
LTYPE
  5
2A
100
AcDbSymbolTableRecord
100
AcDbLinetypeTableRecord
  2
DASHDOT
 70
      64
  3
CADPAC LINETYPE
 72
      65
 73
       4
 40
8.02702703
 49
4.01351351
 74
       0
 49
-1.33783784
 74
       0
 49
1.33783784
 74
       0
 49
-1.33783784
 74
       0
  0
LTYPE
  5
2B
100
AcDbSymbolTableRecord
100
AcDbLinetypeTableRecord
  2
DASHDOT2
 70
      64
  3
CADPAC LINETYPE
 72
      65
 73
       4
 40
5.15067568
 49
3.01013514
 74
       0
 49
-1.00337838
 74
       0
 49
0.13378378
 74
       0
 49
-1.00337838
 74
       0
  0
LTYPE
  5
2C
100
AcDbSymbolTableRecord
100
AcDbLinetypeTableRecord
  2
DIVIDEX2
 70
      64
  3
CADPAC LINETYPE
 72
      65
 73
       6
 40
21.40540541
 49
8.02702703
 74
       0
 49
-2.67567568
 74
       0
 49
2.67567568
 74
       0
 49
-2.67567568
 74
       0
 49
2.67567568
 74
       0
 49
-2.67567568
 74
       0
  0
LTYPE
  5
2D
100
AcDbSymbolTableRecord
100
AcDbLinetypeTableRecord
  2
DIVIDE
 70
      64
  3
CADPAC LINETYPE
 72
      65
 73
       6
 40
10.7027027
 49
4.01351351
 74
       0
 49
-1.33783784
 74
       0
 49
1.33783784
 74
       0
 49
-1.33783784
 74
       0
 49
1.33783784
 74
       0
 49
-1.33783784
 74
       0
  0
LTYPE
  5
2E
100
AcDbSymbolTableRecord
100
AcDbLinetypeTableRecord
  2
DIVIDE2
 70
      64
  3
CADPAC LINETYPE
 72
      65
 73
       6
 40
8.02702703
 49
3.01013514
 74
       0
 49
-1.00337838
 74
       0
 49
1.00337838
 74
       0
 49
-1.00337838
 74
       0
 49
1.00337838
 74
       0
 49
-1.00337838
 74
       0
  0
LTYPE
  5
2F
100
AcDbSymbolTableRecord
100
AcDbLinetypeTableRecord
  2
BORDERX2
 70
      64
  3
CADPAC LINETYPE
 72
      65
 73
       6
 40
14.63260135
 49
4.18074324
 74
       0
 49
-2.09037162
 74
       0
 49
4.18074324
 74
       0
 49
-2.09037162
 74
       0
 49
0.0
 74
       0
 49
-2.09037162
 74
       0
  0
LTYPE
  5
30
100
AcDbSymbolTableRecord
100
AcDbLinetypeTableRecord
  2
BORDER
 70
      64
  3
CADPAC LINETYPE
 72
      65
 73
       6
 40
11.70608108
 49
3.34459459
 74
       0
 49
-1.6722973
 74
       0
 49
3.34459459
 74
       0
 49
-1.6722973
 74
       0
 49
0.0
 74
       0
 49
-1.6722973
 74
       0
  0
LTYPE
  5
31
100
AcDbSymbolTableRecord
100
AcDbLinetypeTableRecord
  2
BORDER2
 70
      64
  3
CADPAC LINETYPE
 72
      65
 73
       6
 40
8.69594595
 49
2.67567568
 74
       0
 49
-1.6722973
 74
       0
 49
1.00337838
 74
       0
 49
-1.6722973
 74
       0
 49
0.0
 74
       0
 49
-1.6722973
 74
       0
  0
LTYPE
  5
32
100
AcDbSymbolTableRecord
100
AcDbLinetypeTableRecord
  2
PHANTOMX2
 70
      64
  3
CADPAC LINETYPE
 72
      65
 73
       6
 40
12.54222973
 49
4.18074324
 74
       0
 49
-1.6722973
 74
       0
 49
1.6722973
 74
       0
 49
-1.6722973
 74
       0
 49
1.6722973
 74
       0
 49
-1.6722973
 74
       0
  0
LTYPE
  5
33
100
AcDbSymbolTableRecord
100
AcDbLinetypeTableRecord
  2
PHANTOM
 70
      64
  3
CADPAC LINETYPE
 72
      65
 73
       6
 40
10.36824324
 49
3.34459459
 74
       0
 49
-1.6722973
 74
       0
 49
1.00337838
 74
       0
 49
-1.6722973
 74
       0
 49
1.00337838
 74
       0
 49
-1.6722973
 74
       0
  0
LTYPE
  5
34
100
AcDbSymbolTableRecord
100
AcDbLinetypeTableRecord
  2
PHANTOM2
 70
      64
  3
CADPAC LINETYPE
 72
      65
 73
       6
 40
8.86317568
 49
2.50844595
 74
       0
 49
-1.6722973
 74
       0
 49
0.66891892
 74
       0
 49
-1.6722973
 74
       0
 49
0.66891892
 74
       0
 49
-1.6722973
 74
       0
  0
LTYPE
  5
35
100
AcDbSymbolTableRecord
100
AcDbLinetypeTableRecord
  2
ACAD_ISO06W100
 70
      64
  3
CADPAC LINETYPE
 72
      65
 73
       8
 40
17.72635135
 49
8.02702703
 74
       0
 49
-1.6722973
 74
       0
 49
1.00337838
 74
       0
 49
-1.6722973
 74
       0
 49
1.00337838
 74
       0
 49
-1.6722973
 74
       0
 49
1.00337838
 74
       0
 49
-1.6722973
 74
       0
  0
LTYPE
  5
36
100
AcDbSymbolTableRecord
100
AcDbLinetypeTableRecord
  2
ACAD_ISO13W100
 70
      64
  3
CADPAC LINETYPE
 72
      65
 73
       8
 40
13.37837838
 49
3.34459459
 74
       0
 49
-1.6722973
 74
       0
 49
3.34459459
 74
       0
 49
-1.6722973
 74
       0
 49
0.0
 74
       0
 49
-1.6722973
 74
       0
 49
0.0
 74
       0
 49
-1.6722973
 74
       0
  0
LTYPE
  5
37
100
AcDbSymbolTableRecord
100
AcDbLinetypeTableRecord
  2
ACAD_ISO14W100
 70
      64
  3
CADPAC LINETYPE
 72
      65
 73
       8
 40
10.03378378
 49
3.34459459
 74
       0
 49
-1.6722973
 74
       0
 49
0.0
 74
       0
 49
-1.6722973
 74
       0
 49
0.0
 74
       0
 49
-1.6722973
 74
       0
 49
0.0
 74
       0
 49
-1.6722973
 74
       0
  0
ENDTAB
  0
TABLE
  2
LAYER
  5
2
100
AcDbSymbolTable
 70
       4
  0
LAYER
  5
14
100
AcDbSymbolTableRecord
100
AcDbLayerTableRecord
  2
0
 70
       0
 62
       7
  6
CONTINUOUS
  0
LAYER
  5
38
100
AcDbSymbolTableRecord
100
AcDbLayerTableRecord
  2
LAYER0008
 70
       0
 62
       7
  6
CONTINUOUS
  0
LAYER
  5
39
100
AcDbSymbolTableRecord
100
AcDbLayerTableRecord
  2
LAYER0240
 70
       0
 62
       7
  6
CONTINUOUS
  0
LAYER
  5
3A
100
AcDbSymbolTableRecord
100
AcDbLayerTableRecord
  2
ZUWAKU
 70
       0
 62
       7
  6
CONTINUOUS
  0
ENDTAB
  0
TABLE
  2
STYLE
  5
3
100
AcDbSymbolTable
 70
       2
  0
STYLE
  5
17
100
AcDbSymbolTableRecord
100
AcDbTextStyleTableRecord
  2
STANDARD
 70
       0
 40
8.0
 41
0.8
 50
0.0
 71
       0
 42
8.0
  3
txt.shx
  4
bigfont.shx
  0
STYLE
  5
3B
100
AcDbSymbolTableRecord
100
AcDbTextStyleTableRecord
  2
FDASTYLE1
 70
       4
 40
6.0
 41
0.8
 50
0.0
 71
       0
 42
6.0
  3
txt.shx
  4
bigfont.shx
  0
ENDTAB
  0
TABLE
  2
VIEW
  5
5
100
AcDbSymbolTable
 70
       1
  0
VIEW
  5
3C
100
AcDbSymbolTableRecord
100
AcDbViewTableRecord
  2
QQQQ
 70
       0
 40
594.0
 10
0.0
 20
0.0
 41
420.0
 11
0.0
 21
0.0
 31
1.0
 12
100.0
 22
100.0
 32
0.0
 42
50.0
 43
0.0
 44
0.0
 50
0.0
 71
       0
  0
ENDTAB
  0
TABLE
  2
UCS
  5
6
100
AcDbSymbolTable
 70
       0
  0
ENDTAB
  0
TABLE
  2
APPID
  5
8
100
AcDbSymbolTable
 70
       1
  0
APPID
  5
16
100
AcDbSymbolTableRecord
100
AcDbRegAppTableRecord
  2
ACAD
 70
       0
  0
ENDTAB
  0
TABLE
  2
DIMSTYLE
  5
9
100
AcDbSymbolTable
 70
       1
  0
DIMSTYLE
105
18
100
AcDbSymbolTableRecord
100
AcDbDimStyleTableRecord
  2
STANDARD
 70
       0
  3

  4

  5

  6

  7

 40
1.0
 41
0.18
 42
0.0625
 43
0.38
 44
0.18
 45
0.0
 46
0.0
 47
0.0
 48
0.0
 71
       0
 72
       0
 73
       1
 74
       1
 75
       0
 76
       0
 77
       0
 78
       0
140
0.18
141
0.09
142
0.0
143
25.4
144
1.0
145
0.0
146
1.0
147
0.09
170
       0
171
       2
172
       0
173
       0
174
       0
175
       0
176
       0
177
       0
178
       0
270
       2
271
       4
272
       4
273
       2
274
       2
275
       0
280
       0
281
       0
282
       0
283
       1
284
       0
285
       0
286
       0
287
       3
288
       0
340
17
  0
ENDTAB
  0
TABLE
  2
BLOCK_RECORD
  5
1
100
AcDbSymbolTable
 70
      22
  0
BLOCK_RECORD
  5
A
100
AcDbSymbolTableRecord
100
AcDbBlockTableRecord
  2
*MODEL_SPACE
  0
BLOCK_RECORD
  5
B
100
AcDbSymbolTableRecord
100
AcDbBlockTableRecord
  2
*PAPER_SPACE
  0
BLOCK_RECORD
  5
3D
100
AcDbSymbolTableRecord
100
AcDbBlockTableRecord
  2
DA_IMAGEDIMGROUP_1
  0
BLOCK_RECORD
  5
3E
100
AcDbSymbolTableRecord
100
AcDbBlockTableRecord
  2
_OPEN30
  0
BLOCK_RECORD
  5
3F
100
AcDbSymbolTableRecord
100
AcDbBlockTableRecord
  2
DA_IMAGEDIMGROUP_2
  0
BLOCK_RECORD
  5
40
100
AcDbSymbolTableRecord
100
AcDbBlockTableRecord
  2
DA_IMAGEDIMGROUP_3
  0
BLOCK_RECORD
  5
41
100
AcDbSymbolTableRecord
100
AcDbBlockTableRecord
  2
DA_IMAGEDIMGROUP_4
  0
BLOCK_RECORD
  5
42
100
AcDbSymbolTableRecord
100
AcDbBlockTableRecord
  2
DA_IMAGEDIMGROUP_5
  0
BLOCK_RECORD
  5
43
100
AcDbSymbolTableRecord
100
AcDbBlockTableRecord
  2
DA_IMAGEDIMGROUP_6
  0
BLOCK_RECORD
  5
44
100
AcDbSymbolTableRecord
100
AcDbBlockTableRecord
  2
DA_IMAGEDIMGROUP_7
  0
BLOCK_RECORD
  5
45
100
AcDbSymbolTableRecord
100
AcDbBlockTableRecord
  2
DA_IMAGEDIMGROUP_8
  0
BLOCK_RECORD
  5
46
100
AcDbSymbolTableRecord
100
AcDbBlockTableRecord
  2
DA_IMAGEDIMGROUP_9
  0
BLOCK_RECORD
  5
47
100
AcDbSymbolTableRecord
100
AcDbBlockTableRecord
  2
GROUP_1
  0
BLOCK_RECORD
  5
48
100
AcDbSymbolTableRecord
100
AcDbBlockTableRecord
  2
DA_IMAGEDIMGROUP_10
  0
BLOCK_RECORD
  5
49
100
AcDbSymbolTableRecord
100
AcDbBlockTableRecord
  2
DA_IMAGEDIMGROUP_11
  0
BLOCK_RECORD
  5
4A
100
AcDbSymbolTableRecord
100
AcDbBlockTableRecord
  2
GROUP_2
  0
BLOCK_RECORD
  5
4B
100
AcDbSymbolTableRecord
100
AcDbBlockTableRecord
  2
GROUP_3
  0
BLOCK_RECORD
  5
4C
100
AcDbSymbolTableRecord
100
AcDbBlockTableRecord
  2
GROUP_4
  0
BLOCK_RECORD
  5
4D
100
AcDbSymbolTableRecord
100
AcDbBlockTableRecord
  2
GROUP_5
  0
BLOCK_RECORD
  5
4E
100
AcDbSymbolTableRecord
100
AcDbBlockTableRecord
  2
GROUP_6
  0
BLOCK_RECORD
  5
4F
100
AcDbSymbolTableRecord
100
AcDbBlockTableRecord
  2
GROUP_7
  0
BLOCK_RECORD
  5
50
100
AcDbSymbolTableRecord
100
AcDbBlockTableRecord
  2
GROUP_8
  0
BLOCK_RECORD
  5
51
100
AcDbSymbolTableRecord
100
AcDbBlockTableRecord
  2
GROUP_9
  0
BLOCK_RECORD
  5
52
100
AcDbSymbolTableRecord
100
AcDbBlockTableRecord
  2
DA_IMAGEDIMGROUP_12
  0
ENDTAB
  0
ENDSEC
  0
SECTION
  2
BLOCKS
  0
BLOCK
  5
D
100
AcDbEntity
  8
0
100
AcDbBlockBegin
  2
*MODEL_SPACE
 70
       0
 10
0.0
 20
0.0
 30
0.0
  3
*MODEL_SPACE
  1

  0
ENDBLK
  5
E
100
AcDbEntity
  8
0
100
AcDbBlockEnd
  0
BLOCK
  5
F
100
AcDbEntity
 67
       1
  8
0
100
AcDbBlockBegin
  2
*PAPER_SPACE
 70
       0
 10
0.0
 20
0.0
 30
0.0
  3
*PAPER_SPACE
  1

  0
ENDBLK
  5
10
100
AcDbEntity
 67
       1
  8
0
100
AcDbBlockEnd
  0
BLOCK
  5
53
100
AcDbEntity
  8
0
100
AcDbBlockBegin
  2
DA_IMAGEDIMGROUP_1
 70
       0
 10
0.0
 20
0.0
 30
0.0
  3
DA_IMAGEDIMGROUP_1
  1

  0
LINE
  5
54
100
AcDbEntity
  8
0
  6
CONTINUOUS
 62
       9
100
AcDbLine
 10
-7.88492599
 20
-55.02721938
 30
0.0
 11
100.70336455
 21
-55.02721938
 31
0.0
  0
INSERT
  5
55
100
AcDbEntity
  8
0
  6
CONTINUOUS
 62
       9
100
AcDbBlockReference
  2
_OPEN30
 10
-7.88492599
 20
-55.02721938
 30
0.0
 41
6.00000558
 42
5.99997855
 50
180.0
  0
INSERT
  5
56
100
AcDbEntity
  8
0
  6
CONTINUOUS
 62
       9
100
AcDbBlockReference
  2
_OPEN30
 10
100.70336455
 20
-55.02721938
 30
0.0
 41
6.00000558
 42
5.99997855
 50
360.0
  0
LINE
  5
57
100
AcDbEntity
  8
0
  6
CONTINUOUS
 62
       9
100
AcDbLine
 10
-7.88492599
 20
123.21301458
 30
0.0
 11
-7.88492599
 21
-57.02721938
 31
0.0
  0
LINE
  5
58
100
AcDbEntity
  8
0
  6
CONTINUOUS
 62
       9
100
AcDbLine
 10
100.70336455
 20
-49.19921856
 30
0.0
 11
100.70336455
 21
-57.02721938
 31
0.0
  0
TEXT
  5
59
100
AcDbEntity
  8
0
 62
       9
100
AcDbText
 10
30.40921928
 20
-53.02721938
 30
0.0
 40
8.0
  1
(109)
 41
0.8
 72
       5
 11
62.40921928
 21
-53.02721938
 31
0.0
100
AcDbText
  0
ENDBLK
  5
5A
100
AcDbEntity
  8
0
100
AcDbBlockEnd
  0
BLOCK
  5
5B
100
AcDbEntity
  8
0
100
AcDbBlockBegin
  2
_OPEN30
 70
       0
 10
0.0
 20
0.0
 30
0.0
  3
_OPEN30
  1

  0
LINE
  5
5C
100
AcDbEntity
  8
0
  6
CONTINUOUS
 62
       0
100
AcDbLine
 10
0.0
 20
0.0
 30
0.0
 11
-0.96592583
 21
0.25881905
 31
0.0
  0
LINE
  5
5D
100
AcDbEntity
  8
0
  6
CONTINUOUS
 62
       0
100
AcDbLine
 10
0.0
 20
0.0
 30
0.0
 11
-0.96592583
 21
-0.25881905
 31
0.0
  0
LINE
  5
5E
100
AcDbEntity
  8
0
  6
CONTINUOUS
 62
       0
100
AcDbLine
 10
0.0
 20
0.0
 30
0.0
 11
-1.0
 21
0.0
 31
0.0
  0
ENDBLK
  5
5F
100
AcDbEntity
  8
0
100
AcDbBlockEnd
  0
BLOCK
  5
60
100
AcDbEntity
  8
0
100
AcDbBlockBegin
  2
DA_IMAGEDIMGROUP_2
 70
       0
 10
0.0
 20
0.0
 30
0.0
  3
DA_IMAGEDIMGROUP_2
  1

  0
LINE
  5
61
100
AcDbEntity
  8
0
  6
CONTINUOUS
 62
       9
100
AcDbLine
 10
-103.79306984
 20
185.13363914
 30
0.0
 11
-84.74306984
 21
185.13363914
 31
0.0
  0
LINE
  5
62
100
AcDbEntity
  8
0
  6
CONTINUOUS
 62
       9
100
AcDbLine
 10
-132.78862984
 20
185.13363914
 30
0.0
 11
-103.79306984
 21
185.13363914
 31
0.0
  0
INSERT
  5
63
100
AcDbEntity
  8
0
  6
CONTINUOUS
 62
       9
100
AcDbBlockReference
  2
_OPEN30
 10
-103.79306984
 20
185.13363914
 30
0.0
 41
6.00000558
 42
5.99997855
 50
360.0
  0
LINE
  5
64
100
AcDbEntity
  8
0
  6
CONTINUOUS
 62
       9
100
AcDbLine
 10
-74.74306984
 20
185.13363914
 30
0.0
 11
-84.74306984
 21
185.13363914
 31
0.0
  0
INSERT
  5
65
100
AcDbEntity
  8
0
  6
CONTINUOUS
 62
       9
100
AcDbBlockReference
  2
_OPEN30
 10
-84.74306984
 20
185.13363914
 30
0.0
 41
6.00000558
 42
5.99997855
 50
180.0
  0
TEXT
  5
66
100
AcDbEntity
  8
0
 62
       9
100
AcDbText
 10
-130.78862984
 20
187.13363914
 30
0.0
 40
8.0
  1
φ19
 41
0.8
 72
       5
 11
-111.58862984
 21
187.13363914
 31
0.0
100
AcDbText
  0
ENDBLK
  5
67
100
AcDbEntity
  8
0
100
AcDbBlockEnd
  0
BLOCK
  5
68
100
AcDbEntity
  8
0
100
AcDbBlockBegin
  2
DA_IMAGEDIMGROUP_3
 70
       0
 10
0.0
 20
0.0
 30
0.0
  3
DA_IMAGEDIMGROUP_3
  1

  0
LINE
  5
69
100
AcDbEntity
  8
0
  6
CONTINUOUS
 62
       9
100
AcDbLine
 10
83.20336455
 20
36.82756394
 30
0.0
 11
118.20336455
 21
36.82756394
 31
0.0
  0
LINE
  5
6A
100
AcDbEntity
  8
0
  6
CONTINUOUS
 62
       9
100
AcDbLine
 10
140.79892455
 20
36.82756394
 30
0.0
 11
118.20336455
 21
36.82756394
 31
0.0
  0
INSERT
  5
6B
100
AcDbEntity
  8
0
  6
CONTINUOUS
 62
       9
100
AcDbBlockReference
  2
_OPEN30
 10
118.20336455
 20
36.82756394
 30
0.0
 41
6.00000558
 42
5.99997855
 50
180.0
  0
LINE
  5
6C
100
AcDbEntity
  8
0
  6
CONTINUOUS
 62
       9
100
AcDbLine
 10
73.20336455
 20
36.82756394
 30
0.0
 11
83.20336455
 21
36.82756394
 31
0.0
  0
INSERT
  5
6D
100
AcDbEntity
  8
0
  6
CONTINUOUS
 62
       9
100
AcDbBlockReference
  2
_OPEN30
 10
83.20336455
 20
36.82756394
 30
0.0
 41
6.00000558
 42
5.99997855
 50
360.0
  0
TEXT
  5
6E
100
AcDbEntity
  8
0
 62
       7
100
AcDbText
 10
125.99892455
 20
38.82756394
 30
0.0
 40
8.0
  1
35
 41
0.8
 72
       5
 11
138.79892455
 21
38.82756394
 31
0.0
100
AcDbText
  0
ENDBLK
  5
6F
100
AcDbEntity
  8
0
100
AcDbBlockEnd
  0
BLOCK
  5
70
100
AcDbEntity
  8
0
100
AcDbBlockBegin
  2
DA_IMAGEDIMGROUP_4
 70
       0
 10
0.0
 20
0.0
 30
0.0
  3
DA_IMAGEDIMGROUP_4
  1

  0
LINE
  5
71
100
AcDbEntity
  8
0
  6
CONTINUOUS
 62
       9
100
AcDbLine
 10
-107.76806984
 20
33.7866914
 30
0.0
 11
-80.76806984
 21
33.7866914
 31
0.0
  0
LINE
  5
72
100
AcDbEntity
  8
0
  6
CONTINUOUS
 62
       9
100
AcDbLine
 10
-42.76806984
 20
48.56738742
 30
0.0
 11
-42.76806984
 21
31.7866914
 31
0.0
  0
LINE
  5
73
100
AcDbEntity
  8
0
  6
CONTINUOUS
 62
       9
100
AcDbLine
 10
-80.76806984
 20
33.7866914
 30
0.0
 11
-42.76806984
 21
33.7866914
 31
0.0
  0
INSERT
  5
74
100
AcDbEntity
  8
0
  6
CONTINUOUS
 62
       9
100
AcDbBlockReference
  2
_OPEN30
 10
-80.76806984
 20
33.7866914
 30
0.0
 41
6.00000558
 42
5.99997855
 50
180.0
  0
INSERT
  5
75
100
AcDbEntity
  8
0
  6
CONTINUOUS
 62
       9
100
AcDbBlockReference
  2
_OPEN30
 10
-42.76806984
 20
33.7866914
 30
0.0
 41
6.00000558
 42
5.99997855
 50
360.0
  0
LINE
  5
76
100
AcDbEntity
  8
0
  6
CONTINUOUS
 62
       9
100
AcDbLine
 10
-130.36362984
 20
33.7866914
 30
0.0
 11
-107.76806984
 21
33.7866914
 31
0.0
  0
INSERT
  5
77
100
AcDbEntity
  8
0
  6
CONTINUOUS
 62
       9
100
AcDbBlockReference
  2
_OPEN30
 10
-107.76806984
 20
33.7866914
 30
0.0
 41
6.00000558
 42
5.99997855
 50
360.0
  0
TEXT
  5
78
100
AcDbEntity
  8
0
 62
       7
100
AcDbText
 10
-128.36362984
 20
35.7866914
 30
0.0
 40
8.0
  1
27
 41
0.8
 72
       5
 11
-115.56362984
 21
35.7866914
 31
0.0
100
AcDbText
  0
TEXT
  5
79
100
AcDbEntity
  8
0
 62
       7
100
AcDbText
 10
-68.16806984
 20
35.7866914
 30
0.0
 40
8.0
  1
38
 41
0.8
 72
       5
 11
-55.36806984
 21
35.7866914
 31
0.0
100
AcDbText
  0
ENDBLK
  5
7A
100
AcDbEntity
  8
0
100
AcDbBlockEnd
  0
BLOCK
  5
7B
100
AcDbEntity
  8
0
100
AcDbBlockBegin
  2
DA_IMAGEDIMGROUP_5
 70
       0
 10
0.0
 20
0.0
 30
0.0
  3
DA_IMAGEDIMGROUP_5
  1

  0
LINE
  5
7C
100
AcDbEntity
  8
0
  6
CONTINUOUS
 62
       9
100
AcDbLine
 10
111.90336455
 20
-35.88261258
 30
0.0
 11
157.89457014
 21
-35.88261258
 31
0.0
  0
LINE
  5
7D
100
AcDbEntity
  8
0
  6
CONTINUOUS
 62
       9
100
AcDbLine
 10
120.20336455
 20
22.11738742
 30
0.0
 11
157.89457014
 21
22.11738742
 31
0.0
  0
LINE
  5
7E
100
AcDbEntity
  8
0
  6
CONTINUOUS
 62
       9
100
AcDbLine
 10
120.20336455
 20
99.11738742
 30
0.0
 11
157.89457014
 21
99.11738742
 31
0.0
  0
LINE
  5
7F
100
AcDbEntity
  8
0
  6
CONTINUOUS
 62
       9
100
AcDbLine
 10
155.89457014
 20
-35.88261258
 30
0.0
 11
155.89457014
 21
22.11738742
 31
0.0
  0
INSERT
  5
80
100
AcDbEntity
  8
0
  6
CONTINUOUS
 62
       9
100
AcDbBlockReference
  2
_OPEN30
 10
155.89457014
 20
-35.88261258
 30
0.0
 41
6.00000558
 42
5.99997855
 50
270.0
  0
INSERT
  5
81
100
AcDbEntity
  8
0
  6
CONTINUOUS
 62
       9
100
AcDbBlockReference
  2
_OPEN30
 10
155.89457014
 20
22.11738742
 30
0.0
 41
6.00000558
 42
5.99997855
 50
90.0
  0
LINE
  5
82
100
AcDbEntity
  8
0
  6
CONTINUOUS
 62
       9
100
AcDbLine
 10
155.89457014
 20
22.11738742
 30
0.0
 11
155.89457014
 21
99.11738742
 31
0.0
  0
INSERT
  5
83
100
AcDbEntity
  8
0
  6
CONTINUOUS
 62
       9
100
AcDbBlockReference
  2
_OPEN30
 10
155.89457014
 20
22.11738742
 30
0.0
 41
6.00000558
 42
5.99997855
 50
270.0
  0
INSERT
  5
84
100
AcDbEntity
  8
0
  6
CONTINUOUS
 62
       9
100
AcDbBlockReference
  2
_OPEN30
 10
155.89457014
 20
99.11738742
 30
0.0
 41
6.00000558
 42
5.99997855
 50
90.0
  0
TEXT
  5
85
100
AcDbEntity
  8
0
 62
       7
100
AcDbText
 10
153.89457014
 20
-13.28261258
 30
0.0
 40
8.0
  1
58
 50
90.0
 41
0.8
 72
       5
 11
153.89457014
 21
-0.48261258
 31
0.0
100
AcDbText
  0
TEXT
  5
86
100
AcDbEntity
  8
0
 62
       7
100
AcDbText
 10
153.89457014
 20
54.21738742
 30
0.0
 40
8.0
  1
77
 50
90.0
 41
0.8
 72
       5
 11
153.89457014
 21
67.01738742
 31
0.0
100
AcDbText
  0
ENDBLK
  5
87
100
AcDbEntity
  8
0
100
AcDbBlockEnd
  0
BLOCK
  5
88
100
AcDbEntity
  8
0
100
AcDbBlockBegin
  2
DA_IMAGEDIMGROUP_6
 70
       0
 10
0.0
 20
0.0
 30
0.0
  3
DA_IMAGEDIMGROUP_6
  1

  0
LINE
  5
89
100
AcDbEntity
  8
0
  6
CONTINUOUS
 62
       9
100
AcDbLine
 10
-119.4058313
 20
-142.79931818
 30
0.0
 11
-134.25398321
 21
-142.79931818
 31
0.0
  0
LINE
  5
8A
100
AcDbEntity
  8
0
  6
CONTINUOUS
 62
       9
100
AcDbLine
 10
-119.4058313
 20
-95.79931818
 30
0.0
 11
-134.25398321
 21
-95.79931818
 31
0.0
  0
LINE
  5
8B
100
AcDbEntity
  8
0
  6
CONTINUOUS
 62
       9
100
AcDbLine
 10
-132.25398321
 20
-142.79931818
 30
0.0
 11
-132.25398321
 21
-95.79931818
 31
0.0
  0
INSERT
  5
8C
100
AcDbEntity
  8
0
  6
CONTINUOUS
 62
       9
100
AcDbBlockReference
  2
_OPEN30
 10
-132.25398321
 20
-142.79931818
 30
0.0
 41
6.00000558
 42
5.99997855
 50
270.0
  0
INSERT
  5
8D
100
AcDbEntity
  8
0
  6
CONTINUOUS
 62
       9
100
AcDbBlockReference
  2
_OPEN30
 10
-132.25398321
 20
-95.79931818
 30
0.0
 41
6.00000558
 42
5.99997855
 50
90.0
  0
TEXT
  5
8E
100
AcDbEntity
  8
0
 62
       7
100
AcDbText
 10
-134.25398321
 20
-125.69931818
 30
0.0
 40
8.0
  1
47
 50
90.0
 41
0.8
 72
       5
 11
-134.25398321
 21
-112.89931818
 31
0.0
100
AcDbText
  0
ENDBLK
  5
8F
100
AcDbEntity
  8
0
100
AcDbBlockEnd
  0
BLOCK
  5
90
100
AcDbEntity
  8
0
100
AcDbBlockBegin
  2
DA_IMAGEDIMGROUP_7
 70
       0
 10
0.0
 20
0.0
 30
0.0
  3
DA_IMAGEDIMGROUP_7
  1

  0
LINE
  5
91
100
AcDbEntity
  8
0
  6
CONTINUOUS
 62
       9
100
AcDbLine
 10
-78.76806984
 20
22.11738742
 30
0.0
 11
-19.0780733
 21
22.11738742
 31
0.0
  0
LINE
  5
92
100
AcDbEntity
  8
0
  6
CONTINUOUS
 62
       9
100
AcDbLine
 10
-35.76806984
 20
64.06738742
 30
0.0
 11
-19.0780733
 21
64.06738742
 31
0.0
  0
LINE
  5
93
100
AcDbEntity
  8
0
  6
CONTINUOUS
 62
       9
100
AcDbLine
 10
-21.0780733
 20
22.11738742
 30
0.0
 11
-21.0780733
 21
64.06738742
 31
0.0
  0
INSERT
  5
94
100
AcDbEntity
  8
0
  6
CONTINUOUS
 62
       9
100
AcDbBlockReference
  2
_OPEN30
 10
-21.0780733
 20
22.11738742
 30
0.0
 41
6.00000558
 42
5.99997855
 50
270.0
  0
INSERT
  5
95
100
AcDbEntity
  8
0
  6
CONTINUOUS
 62
       9
100
AcDbBlockReference
  2
_OPEN30
 10
-21.0780733
 20
64.06738742
 30
0.0
 41
6.00000558
 42
5.99997855
 50
90.0
  0
TEXT
  5
96
100
AcDbEntity
  8
0
 62
       9
100
AcDbText
 10
-23.0780733
 20
36.69238742
 30
0.0
 40
8.0
  1
42
 50
90.0
 41
0.8
 72
       5
 11
-23.0780733
 21
49.49238742
 31
0.0
100
AcDbText
  0
ENDBLK
  5
97
100
AcDbEntity
  8
0
100
AcDbBlockEnd
  0
BLOCK
  5
98
100
AcDbEntity
  8
0
100
AcDbBlockBegin
  2
DA_IMAGEDIMGROUP_8
 70
       0
 10
0.0
 20
0.0
 30
0.0
  3
DA_IMAGEDIMGROUP_8
  1

  0
LINE
  5
99
100
AcDbEntity
  8
0
  6
CONTINUOUS
 62
       9
100
AcDbLine
 10
-4.75129001
 20
131.31217908
 30
0.0
 11
22.67337203
 21
131.31217908
 31
0.0
  0
LINE
  5
9A
100
AcDbEntity
  8
0
  6
CONTINUOUS
 62
       9
100
AcDbLine
 10
81.4598474
 20
22.11738742
 30
0.0
 11
18.67337203
 21
22.11738742
 31
0.0
  0
LINE
  5
9B
100
AcDbEntity
  8
0
  6
CONTINUOUS
 62
       9
100
AcDbLine
 10
20.67337203
 20
22.11738742
 30
0.0
 11
20.67337203
 21
131.31217908
 31
0.0
  0
INSERT
  5
9C
100
AcDbEntity
  8
0
  6
CONTINUOUS
 62
       9
100
AcDbBlockReference
  2
_OPEN30
 10
20.67337203
 20
22.11738742
 30
0.0
 41
6.00000558
 42
5.99997855
 50
270.0
  0
INSERT
  5
9D
100
AcDbEntity
  8
0
  6
CONTINUOUS
 62
       9
100
AcDbBlockReference
  2
_OPEN30
 10
20.67337203
 20
131.31217908
 30
0.0
 41
6.00000558
 42
5.99997855
 50
90.0
  0
TEXT
  5
9E
100
AcDbEntity
  8
0
 62
       9
100
AcDbText
 10
18.67337203
 20
60.71478325
 30
0.0
 40
8.0
  1
(109)
 50
90.0
 41
0.8
 72
       5
 11
18.67337203
 21
92.71478325
 31
0.0
100
AcDbText
  0
ENDBLK
  5
9F
100
AcDbEntity
  8
0
100
AcDbBlockEnd
  0
BLOCK
  5
A0
100
AcDbEntity
  8
0
100
AcDbBlockBegin
  2
DA_IMAGEDIMGROUP_9
 70
       0
 10
0.0
 20
0.0
 30
0.0
  3
DA_IMAGEDIMGROUP_9
  1

  0
LINE
  5
A1
100
AcDbEntity
  8
0
  6
CONTINUOUS
 62
       9
100
AcDbLine
 10
110.22836455
 20
207.59238742
 30
0.0
 11
176.21747591
 21
207.59238742
 31
0.0
  0
LINE
  5
A2
100
AcDbEntity
  8
0
  6
CONTINUOUS
 62
       9
100
AcDbLine
 10
157.89457014
 20
22.11738742
 30
0.0
 11
176.21747591
 21
22.11738742
 31
0.0
  0
LINE
  5
A3
100
AcDbEntity
  8
0
  6
CONTINUOUS
 62
       9
100
AcDbLine
 10
174.21747591
 20
22.11738742
 30
0.0
 11
174.21747591
 21
207.59238742
 31
0.0
  0
INSERT
  5
A4
100
AcDbEntity
  8
0
  6
CONTINUOUS
 62
       9
100
AcDbBlockReference
  2
_OPEN30
 10
174.21747591
 20
22.11738742
 30
0.0
 41
6.00000558
 42
5.99997855
 50
270.0
  0
INSERT
  5
A5
100
AcDbEntity
  8
0
  6
CONTINUOUS
 62
       9
100
AcDbBlockReference
  2
_OPEN30
 10
174.21747591
 20
207.59238742
 30
0.0
 41
6.00000558
 42
5.99997855
 50
90.0
  0
TEXT
  5
A6
100
AcDbEntity
  8
0
 62
       9
100
AcDbText
 10
172.21747591
 20
98.85488742
 30
0.0
 40
8.0
  1
185.5
 50
90.0
 41
0.8
 72
       5
 11
172.21747591
 21
130.85488742
 31
0.0
100
AcDbText
  0
ENDBLK
  5
A7
100
AcDbEntity
  8
0
100
AcDbBlockEnd
  0
BLOCK
  5
A8
100
AcDbEntity
  8
0
100
AcDbBlockBegin
  2
GROUP_1
 70
       0
 10
0.0
 20
0.0
 30
0.0
  3
GROUP_1
  1

  0
LINE
  5
A9
100
AcDbEntity
  8
ZUWAKU
  6
CONTINUOUS
 62
       9
100
AcDbLine
 10
-210.0
 20
-4.61880215
 30
0.0
 11
-202.0
 21
0.0
 31
0.0
  0
LINE
  5
AA
100
AcDbEntity
  8
ZUWAKU
  6
CONTINUOUS
 62
       9
100
AcDbLine
 10
-210.0
 20
4.61880215
 30
0.0
 11
-210.0
 21
-4.61880215
 31
0.0
  0
LINE
  5
AB
100
AcDbEntity
  8
ZUWAKU
  6
CONTINUOUS
 62
       9
100
AcDbLine
 10
-202.0
 20
0.0
 30
0.0
 11
-210.0
 21
4.61880215
 31
0.0
  0
ENDBLK
  5
AC
100
AcDbEntity
  8
0
100
AcDbBlockEnd
  0
BLOCK
  5
AD
100
AcDbEntity
  8
0
100
AcDbBlockBegin
  2
DA_IMAGEDIMGROUP_10
 70
       0
 10
0.0
 20
0.0
 30
0.0
  3
DA_IMAGEDIMGROUP_10
  1

  0
LINE
  5
AE
100
AcDbEntity
  8
0
  6
CONTINUOUS
 62
       9
100
AcDbLine
 10
-117.4058313
 20
-144.79931818
 30
0.0
 11
-117.4058313
 21
-164.31561009
 31
0.0
  0
LINE
  5
AF
100
AcDbEntity
  8
0
  6
CONTINUOUS
 62
       9
100
AcDbLine
 10
-70.4058313
 20
-144.79931818
 30
0.0
 11
-70.4058313
 21
-164.31561009
 31
0.0
  0
LINE
  5
B0
100
AcDbEntity
  8
0
  6
CONTINUOUS
 62
       9
100
AcDbLine
 10
-117.4058313
 20
-162.31561009
 30
0.0
 11
-70.4058313
 21
-162.31561009
 31
0.0
  0
INSERT
  5
B1
100
AcDbEntity
  8
0
  6
CONTINUOUS
 62
       9
100
AcDbBlockReference
  2
_OPEN30
 10
-117.4058313
 20
-162.31561009
 30
0.0
 41
6.00000558
 42
5.99997855
 50
180.0
  0
INSERT
  5
B2
100
AcDbEntity
  8
0
  6
CONTINUOUS
 62
       9
100
AcDbBlockReference
  2
_OPEN30
 10
-70.4058313
 20
-162.31561009
 30
0.0
 41
6.00000558
 42
5.99997855
 50
360.0
  0
TEXT
  5
B3
100
AcDbEntity
  8
0
 62
       7
100
AcDbText
 10
-100.3058313
 20
-160.31561009
 30
0.0
 40
8.0
  1
47
 41
0.8
 72
       5
 11
-87.5058313
 21
-160.31561009
 31
0.0
100
AcDbText
  0
ENDBLK
  5
B4
100
AcDbEntity
  8
0
100
AcDbBlockEnd
  0
BLOCK
  5
B5
100
AcDbEntity
  8
0
100
AcDbBlockBegin
  2
DA_IMAGEDIMGROUP_11
 70
       0
 10
0.0
 20
0.0
 30
0.0
  3
DA_IMAGEDIMGROUP_11
  1

  0
LINE
  5
B6
100
AcDbEntity
  8
0
  6
CONTINUOUS
 62
       9
100
AcDbLine
 10
-49.74035228
 20
-144.79931818
 30
0.0
 11
-49.74035228
 21
-164.31561009
 31
0.0
  0
LINE
  5
B7
100
AcDbEntity
  8
0
  6
CONTINUOUS
 62
       9
100
AcDbLine
 10
-46.74035228
 20
-144.79931818
 30
0.0
 11
-46.74035228
 21
-164.31561009
 31
0.0
  0
LINE
  5
B8
100
AcDbEntity
  8
0
  6
CONTINUOUS
 62
       9
100
AcDbLine
 10
-49.74035228
 20
-162.31561009
 30
0.0
 11
-46.74035228
 21
-162.31561009
 31
0.0
  0
LINE
  5
B9
100
AcDbEntity
  8
0
  6
CONTINUOUS
 62
       9
100
AcDbLine
 10
-30.54479228
 20
-162.31561009
 30
0.0
 11
-46.74035228
 21
-162.31561009
 31
0.0
  0
INSERT
  5
BA
100
AcDbEntity
  8
0
  6
CONTINUOUS
 62
       9
100
AcDbBlockReference
  2
_OPEN30
 10
-46.74035228
 20
-162.31561009
 30
0.0
 41
6.00000558
 42
5.99997855
 50
180.0
  0
LINE
  5
BB
100
AcDbEntity
  8
0
  6
CONTINUOUS
 62
       9
100
AcDbLine
 10
-59.74035228
 20
-162.31561009
 30
0.0
 11
-49.74035228
 21
-162.31561009
 31
0.0
  0
INSERT
  5
BC
100
AcDbEntity
  8
0
  6
CONTINUOUS
 62
       9
100
AcDbBlockReference
  2
_OPEN30
 10
-49.74035228
 20
-162.31561009
 30
0.0
 41
6.00000558
 42
5.99997855
 50
360.0
  0
TEXT
  5
BD
100
AcDbEntity
  8
0
 62
       7
100
AcDbText
 10
-38.94479228
 20
-160.31561009
 30
0.0
 40
8.0
  1
3
 41
0.8
 72
       5
 11
-32.54479228
 21
-160.31561009
 31
0.0
100
AcDbText
  0
ENDBLK
  5
BE
100
AcDbEntity
  8
0
100
AcDbBlockEnd
  0
BLOCK
  5
BF
100
AcDbEntity
  8
0
100
AcDbBlockBegin
  2
GROUP_2
 70
       0
 10
0.0
 20
0.0
 30
0.0
  3
GROUP_2
  1

  0
LINE
  5
C0
100
AcDbEntity
  8
LAYER0240
  6
CONTINUOUS
 62
       7
100
AcDbLine
 10
100.70336455
 20
-35.88261258
 30
0.0
 11
112.38549449
 21
-52.98999301
 31
0.0
  0
INSERT
  5
C1
100
AcDbEntity
  8
LAYER0240
  6
CONTINUOUS
 62
       7
100
AcDbBlockReference
  2
_OPEN30
 10
100.70336455
 20
-35.88261258
 30
0.0
 41
6.00000558
 42
5.99997855
 50
124.3280265
  0
LINE
  5
C2
100
AcDbEntity
  8
LAYER0240
  6
CONTINUOUS
 62
       7
100
AcDbLine
 10
112.38549449
 20
-52.98999301
 30
0.0
 11
144.38549449
 21
-52.98999301
 31
0.0
  0
TEXT
  5
C3
100
AcDbEntity
  8
LAYER0240
 62
       7
100
AcDbText
 10
112.38549449
 20
-52.98999301
 30
0.0
 40
8.0
  1
ＰＪ1/2
 41
0.6333
 72
       5
 11
144.38549449
 21
-52.98999301
 31
0.0
100
AcDbText
  0
ENDBLK
  5
C4
100
AcDbEntity
  8
0
100
AcDbBlockEnd
  0
BLOCK
  5
C5
100
AcDbEntity
  8
0
100
AcDbBlockBegin
  2
GROUP_3
 70
       0
 10
0.0
 20
0.0
 30
0.0
  3
GROUP_3
  1

  0
CIRCLE
  5
C6
100
AcDbEntity
  8
LAYER0240
  6
CONTINUOUS
 62
       4
100
AcDbCircle
 10
-156.23152547
 20
-105.9377158
 30
0.0
 40
9.0
  0
TEXT
  5
C7
100
AcDbEntity
  8
LAYER0240
 62
       4
100
AcDbText
 10
-159.43152547
 20
-109.9377158
 30
0.0
 40
8.0
  1
4
 41
0.8
 72
       5
 11
-153.03152547
 21
-109.9377158
 31
0.0
100
AcDbText
  0
ENDBLK
  5
C8
100
AcDbEntity
  8
0
100
AcDbBlockEnd
  0
BLOCK
  5
C9
100
AcDbEntity
  8
0
100
AcDbBlockBegin
  2
GROUP_4
 70
       0
 10
0.0
 20
0.0
 30
0.0
  3
GROUP_4
  1

  0
LINE
  5
CA
100
AcDbEntity
  8
0
  6
CONTINUOUS
 62
       9
100
AcDbLine
 10
-97.85072327
 20
116.68468202
 30
0.0
 11
-147.95198386
 21
138.0354215
 31
0.0
  0
INSERT
  5
CB
100
AcDbEntity
  8
0
  6
CONTINUOUS
 62
       9
100
AcDbBlockReference
  2
_OPEN30
 10
-97.85072327
 20
116.68468202
 30
0.0
 41
6.00000558
 42
5.99997855
 50
336.91863708
  0
CIRCLE
  5
CC
100
AcDbEntity
  8
0
  6
CONTINUOUS
 62
       9
100
AcDbCircle
 10
-156.23152547
 20
141.56376259
 30
0.0
 40
9.0
  0
TEXT
  5
CD
100
AcDbEntity
  8
0
 62
       4
100
AcDbText
 10
-159.43152547
 20
137.56376259
 30
0.0
 40
8.0
  1
1
 41
0.8
 72
       5
 11
-153.03152547
 21
137.56376259
 31
0.0
100
AcDbText
  0
ENDBLK
  5
CE
100
AcDbEntity
  8
0
100
AcDbBlockEnd
  0
BLOCK
  5
CF
100
AcDbEntity
  8
0
100
AcDbBlockBegin
  2
GROUP_5
 70
       0
 10
0.0
 20
0.0
 30
0.0
  3
GROUP_5
  1

  0
LINE
  5
D0
100
AcDbEntity
  8
0
  6
CONTINUOUS
 62
       9
100
AcDbLine
 10
-101.95468503
 20
85.22097522
 30
0.0
 11
-147.6137037
 21
98.96893157
 31
0.0
  0
INSERT
  5
D1
100
AcDbEntity
  8
0
  6
CONTINUOUS
 62
       9
100
AcDbBlockReference
  2
_OPEN30
 10
-101.95468503
 20
85.22097522
 30
0.0
 41
6.00000558
 42
5.99997855
 50
343.24292213
  0
CIRCLE
  5
D2
100
AcDbEntity
  8
0
  6
CONTINUOUS
 62
       9
100
AcDbCircle
 10
-156.23152547
 20
101.56376259
 30
0.0
 40
9.0
  0
TEXT
  5
D3
100
AcDbEntity
  8
0
 62
       4
100
AcDbText
 10
-159.43152547
 20
97.56376259
 30
0.0
 40
8.0
  1
2
 41
0.8
 72
       5
 11
-153.03152547
 21
97.56376259
 31
0.0
100
AcDbText
  0
ENDBLK
  5
D4
100
AcDbEntity
  8
0
100
AcDbBlockEnd
  0
BLOCK
  5
D5
100
AcDbEntity
  8
0
100
AcDbBlockBegin
  2
GROUP_6
 70
       0
 10
0.0
 20
0.0
 30
0.0
  3
GROUP_6
  1

  0
LINE
  5
D6
100
AcDbEntity
  8
0
  6
CONTINUOUS
 62
       9
100
AcDbLine
 10
-42.76806984
 20
127.06738742
 30
0.0
 11
-37.90707546
 21
152.72110845
 31
0.0
  0
INSERT
  5
D7
100
AcDbEntity
  8
0
  6
CONTINUOUS
 62
       9
100
AcDbBlockReference
  2
_OPEN30
 10
-42.76806984
 20
127.06738742
 30
0.0
 41
6.00000558
 42
5.99997855
 50
259.27051688
  0
CIRCLE
  5
D8
100
AcDbEntity
  8
0
  6
CONTINUOUS
 62
       9
100
AcDbCircle
 10
-36.23152547
 20
161.56376259
 30
0.0
 40
9.0
  0
TEXT
  5
D9
100
AcDbEntity
  8
0
 62
       4
100
AcDbText
 10
-39.43152547
 20
157.56376259
 30
0.0
 40
8.0
  1
3
 41
0.8
 72
       5
 11
-33.03152547
 21
157.56376259
 31
0.0
100
AcDbText
  0
ENDBLK
  5
DA
100
AcDbEntity
  8
0
100
AcDbBlockEnd
  0
BLOCK
  5
DB
100
AcDbEntity
  8
0
100
AcDbBlockBegin
  2
GROUP_7
 70
       0
 10
0.0
 20
0.0
 30
0.0
  3
GROUP_7
  1

  0
LINE
  5
DC
100
AcDbEntity
  8
0
  6
CONTINUOUS
 62
       9
100
AcDbLine
 10
-112.76806984
 20
-0.60233885
 30
0.0
 11
-147.90519206
 21
-15.01978138
 31
0.0
  0
INSERT
  5
DD
100
AcDbEntity
  8
0
  6
CONTINUOUS
 62
       9
100
AcDbBlockReference
  2
_OPEN30
 10
-112.76806984
 20
-0.60233885
 30
0.0
 41
6.00000558
 42
5.99997855
 50
22.30929357
  0
CIRCLE
  5
DE
100
AcDbEntity
  8
0
  6
CONTINUOUS
 62
       9
100
AcDbCircle
 10
-156.23152547
 20
-18.43623741
 30
0.0
 40
9.0
  0
TEXT
  5
DF
100
AcDbEntity
  8
0
 62
       4
100
AcDbText
 10
-159.43152547
 20
-22.43623741
 30
0.0
 40
8.0
  1
5
 41
0.8
 72
       5
 11
-153.03152547
 21
-22.43623741
 31
0.0
100
AcDbText
  0
ENDBLK
  5
E0
100
AcDbEntity
  8
0
100
AcDbBlockEnd
  0
BLOCK
  5
E1
100
AcDbEntity
  8
0
100
AcDbBlockBegin
  2
GROUP_8
 70
       0
 10
0.0
 20
0.0
 30
0.0
  3
GROUP_8
  1

  0
LINE
  5
E2
100
AcDbEntity
  8
0
  6
CONTINUOUS
 62
       9
100
AcDbLine
 10
-112.76806984
 20
-3.60233885
 30
0.0
 11
-149.20868514
 21
-32.80776393
 31
0.0
  0
INSERT
  5
E3
100
AcDbEntity
  8
0
  6
CONTINUOUS
 62
       9
100
AcDbBlockReference
  2
_OPEN30
 10
-112.76806984
 20
-3.60233885
 30
0.0
 41
6.00000558
 42
5.99997855
 50
38.71052022
  0
CIRCLE
  5
E4
100
AcDbEntity
  8
0
  6
CONTINUOUS
 62
       9
100
AcDbCircle
 10
-156.23152547
 20
-38.43623741
 30
0.0
 40
9.0
  0
TEXT
  5
E5
100
AcDbEntity
  8
0
 62
       4
100
AcDbText
 10
-159.43152547
 20
-42.43623741
 30
0.0
 40
8.0
  1
6
 41
0.8
 72
       5
 11
-153.03152547
 21
-42.43623741
 31
0.0
100
AcDbText
  0
ENDBLK
  5
E6
100
AcDbEntity
  8
0
100
AcDbBlockEnd
  0
BLOCK
  5
E7
100
AcDbEntity
  8
0
100
AcDbBlockBegin
  2
GROUP_9
 70
       0
 10
0.0
 20
0.0
 30
0.0
  3
GROUP_9
  1

  0
LINE
  5
E8
100
AcDbEntity
  8
0
  6
CONTINUOUS
 62
       9
100
AcDbLine
 10
-107.31229847
 20
-8.71077804
 30
0.0
 11
-149.9197885
 21
-52.02047741
 31
0.0
  0
INSERT
  5
E9
100
AcDbEntity
  8
0
  6
CONTINUOUS
 62
       9
100
AcDbBlockReference
  2
_OPEN30
 10
-107.31229847
 20
-8.71077804
 30
0.0
 41
6.00000558
 42
5.99997855
 50
45.46827342
  0
CIRCLE
  5
EA
100
AcDbEntity
  8
0
  6
CONTINUOUS
 62
       9
100
AcDbCircle
 10
-156.23152547
 20
-58.43623741
 30
0.0
 40
9.0
  0
TEXT
  5
EB
100
AcDbEntity
  8
0
 62
       4
100
AcDbText
 10
-159.43152547
 20
-62.43623741
 30
0.0
 40
8.0
  1
7
 41
0.8
 72
       5
 11
-153.03152547
 21
-62.43623741
 31
0.0
100
AcDbText
  0
ENDBLK
  5
EC
100
AcDbEntity
  8
0
100
AcDbBlockEnd
  0
BLOCK
  5
ED
100
AcDbEntity
  8
0
100
AcDbBlockBegin
  2
DA_IMAGEDIMGROUP_12
 70
       0
 10
0.0
 20
0.0
 30
0.0
  3
DA_IMAGEDIMGROUP_12
  1

  0
ARC
  5
EE
100
AcDbEntity
  8
0
  6
CONTINUOUS
 62
       9
100
AcDbCircle
 10
100.70336455
 20
64.06738742
 30
0.0
 40
66.07184964
100
AcDbArc
 50
90.0
 51
180.0
  0
INSERT
  5
EF
100
AcDbEntity
  8
0
  6
CONTINUOUS
 62
       9
100
AcDbBlockReference
  2
_OPEN30
 10
100.70336455
 20
130.13923706
 30
0.0
 41
6.00000558
 42
5.99997855
 50
2.60152315
  0
INSERT
  5
F0
100
AcDbEntity
  8
0
  6
CONTINUOUS
 62
       9
100
AcDbBlockReference
  2
_OPEN30
 10
34.63151492
 20
64.06738742
 30
0.0
 41
6.00000558
 42
5.99997855
 50
267.39847685
  0
TEXT
  5
F1
100
AcDbEntity
  8
0
 62
       7
100
AcDbText
 10
33.76025769
 20
94.80662709
 30
0.0
 40
8.0
  1
（110°以内）
 50
45.0
 41
0.7273
 72
       5
 11
69.96412488
 21
131.01049429
 31
0.0
100
AcDbText
  0
ENDBLK
  5
F2
100
AcDbEntity
  8
0
100
AcDbBlockEnd
  0
ENDSEC
  0
SECTION
  2
ENTITIES
  0
LINE
  5
F3
100
AcDbEntity
  8
0
  6
CONTINUOUS
 62
       3
100
AcDbLine
 10
-75.76806984
 20
-0.60233885
 30
0.0
 11
-112.76806984
 21
-0.60233885
 31
0.0
  0
LINE
  5
F4
100
AcDbEntity
  8
0
  6
CONTINUOUS
 62
       3
100
AcDbLine
 10
-82.26806984
 20
6.39766115
 30
0.0
 11
-106.26806984
 21
6.39766115
 31
0.0
  0
LINE
  5
F5
100
AcDbEntity
  8
0
  6
CONTINUOUS
 62
       3
100
AcDbLine
 10
-82.76806984
 20
-9.60233885
 30
0.0
 11
-105.76806984
 21
-9.60233885
 31
0.0
  0
ARC
  5
F6
100
AcDbEntity
  8
0
  6
CONTINUOUS
 62
       3
100
AcDbCircle
 10
-94.26806984
 20
13.61453951
 30
0.0
 40
22.92820323
100
AcDbArc
 50
252.41204623
 51
287.58795377
  0
LINE
  5
F7
100
AcDbEntity
  8
0
  6
CONTINUOUS
 62
       3
100
AcDbLine
 10
-75.76806984
 20
-3.60233885
 30
0.0
 11
-112.76806984
 21
-3.60233885
 31
0.0
  0
LINE
  5
F8
100
AcDbEntity
  8
0
  6
CONTINUOUS
 62
       3
100
AcDbLine
 10
-75.76806984
 20
-2.60233885
 30
0.0
 11
-112.76806984
 21
-2.60233885
 31
0.0
  0
LINE
  5
F9
100
AcDbEntity
  8
0
  6
CONTINUOUS
 62
       3
100
AcDbLine
 10
-103.46806984
 20
-35.88261258
 30
0.0
 11
-85.06806984
 21
-35.88261258
 31
0.0
  0
LINE
  5
FA
100
AcDbEntity
  8
0
  6
CONTINUOUS
 62
       3
100
AcDbLine
 10
-104.66806984
 20
-34.68261258
 30
0.0
 11
-83.86806984
 21
-34.68261258
 31
0.0
  0
LINE
  5
FB
100
AcDbEntity
  8
0
  6
CONTINUOUS
 62
       3
100
AcDbLine
 10
-104.66806984
 20
-9.60233885
 30
0.0
 11
-104.66806984
 21
-34.68261258
 31
0.0
  0
ARC
  5
FC
100
AcDbEntity
  8
0
  6
CONTINUOUS
 62
       3
100
AcDbCircle
 10
-104.66037468
 20
-3.17968912
 30
0.0
 40
6.1339746
100
AcDbArc
 50
244.38424747
 51
304.38424747
  0
LINE
  5
FD
100
AcDbEntity
  8
0
  6
CONTINUOUS
 62
       3
100
AcDbLine
 10
-105.76806984
 20
-9.60233885
 30
0.0
 11
-108.1244763
 21
-8.24186695
 31
0.0
  0
LINE
  5
FE
100
AcDbEntity
  8
0
  6
CONTINUOUS
 62
       3
100
AcDbLine
 10
-106.26806984
 20
6.39766115
 30
0.0
 11
-112.76806984
 21
-0.60232885
 31
0.0
  0
LINE
  5
FF
100
AcDbEntity
  8
0
  6
CONTINUOUS
 62
       3
100
AcDbLine
 10
-112.76806984
 20
-0.60233885
 30
0.0
 11
-112.76806984
 21
-3.60233885
 31
0.0
  0
LINE
  5
100
100
AcDbEntity
  8
0
  6
CONTINUOUS
 62
       3
100
AcDbLine
 10
-101.19627307
 20
-3.60233885
 30
0.0
 11
-101.19627307
 21
-8.24186695
 31
0.0
  0
LINE
  5
101
100
AcDbEntity
  8
0
  6
CONTINUOUS
 62
       3
100
AcDbLine
 10
-108.1244763
 20
-3.60233885
 30
0.0
 11
-108.1244763
 21
-8.24186695
 31
0.0
  0
LINE
  5
102
100
AcDbEntity
  8
0
  6
CONTINUOUS
 62
       3
100
AcDbLine
 10
-85.06806984
 20
-35.88261258
 30
0.0
 11
-83.86806984
 21
-34.68261258
 31
0.0
  0
LINE
  5
103
100
AcDbEntity
  8
0
  6
CONTINUOUS
 62
       3
100
AcDbLine
 10
-104.66806984
 20
14.11738742
 30
0.0
 11
-83.86806984
 21
14.11738742
 31
0.0
  0
LINE
  5
104
100
AcDbEntity
  8
0
  6
CONTINUOUS
 62
       3
100
AcDbLine
 10
-104.76806984
 20
22.11738742
 30
0.0
 11
-104.76806984
 21
16.19584839
 31
0.0
  0
LINE
  5
105
100
AcDbEntity
  8
0
  6
CONTINUOUS
 62
       3
100
AcDbLine
 10
-104.76806984
 20
16.19584839
 30
0.0
 11
-104.66806984
 21
16.02264331
 31
0.0
  0
LINE
  5
106
100
AcDbEntity
  8
0
  6
CONTINUOUS
 62
       3
100
AcDbLine
 10
-42.76806984
 20
127.06738742
 30
0.0
 11
-42.76806984
 21
50.56738742
 31
0.0
  0
LINE
  5
107
100
AcDbEntity
  8
0
  6
CONTINUOUS
 62
       3
100
AcDbLine
 10
-53.76806984
 20
127.06738742
 30
0.0
 11
-53.76806984
 21
77.32436671
 31
0.0
  0
LINE
  5
108
100
AcDbEntity
  8
0
  6
CONTINUOUS
 62
       3
100
AcDbLine
 10
-103.79306984
 20
99.11738742
 30
0.0
 11
-103.79306984
 21
207.59238742
 31
0.0
  0
LINE
  5
109
100
AcDbEntity
  8
0
  6
CONTINUOUS
 62
       3
100
AcDbLine
 10
-84.74306984
 20
99.11738742
 30
0.0
 11
-84.74306984
 21
207.59238742
 31
0.0
  0
LINE
  5
10A
100
AcDbEntity
  8
0
  6
CONTINUOUS
 62
       3
100
AcDbLine
 10
-53.76806984
 20
127.06738742
 30
0.0
 11
-42.76806984
 21
127.06738742
 31
0.0
  0
LINE
  5
10B
100
AcDbEntity
  8
0
  6
CONTINUOUS
 62
       3
100
AcDbLine
 10
-107.76806984
 20
99.11738742
 30
0.0
 11
-107.76806984
 21
22.11738742
 31
0.0
  0
LINE
  5
10C
100
AcDbEntity
  8
0
  6
CONTINUOUS
 62
       3
100
AcDbLine
 10
-80.76806984
 20
99.11738742
 30
0.0
 11
-80.76806984
 21
22.11738742
 31
0.0
  0
LINE
  5
10D
100
AcDbEntity
  8
0
  6
CONTINUOUS
 62
       3
100
AcDbLine
 10
-42.76806984
 20
77.32436671
 30
0.0
 11
-53.76806984
 21
77.32436671
 31
0.0
  0
LINE
  5
10E
100
AcDbEntity
  8
0
  6
CONTINUOUS
 62
       3
100
AcDbLine
 10
-42.76806984
 20
77.33388658
 30
0.0
 11
-53.26806984
 21
77.33388658
 31
0.0
  0
LINE
  5
10F
100
AcDbEntity
  8
0
  6
CONTINUOUS
 62
       3
100
AcDbLine
 10
-74.76806984
 20
50.56738742
 30
0.0
 11
-42.76806984
 21
50.56738742
 31
0.0
  0
LINE
  5
110
100
AcDbEntity
  8
0
  6
CONTINUOUS
 62
       3
100
AcDbLine
 10
-75.96806984
 20
50.56738742
 30
0.0
 11
-80.76806984
 21
50.56738742
 31
0.0
  0
LINE
  5
111
100
AcDbEntity
  8
0
  6
CONTINUOUS
 62
       3
100
AcDbLine
 10
-75.76806984
 20
50.76738742
 30
0.0
 11
-75.96806984
 21
50.56738742
 31
0.0
  0
LINE
  5
112
100
AcDbEntity
  8
0
  6
CONTINUOUS
 62
       3
100
AcDbLine
 10
-74.76806984
 20
77.56738742
 30
0.0
 11
-53.76806984
 21
77.56738742
 31
0.0
  0
LINE
  5
113
100
AcDbEntity
  8
0
  6
CONTINUOUS
 62
       3
100
AcDbLine
 10
-75.76806984
 20
77.36738742
 30
0.0
 11
-75.76806984
 21
50.76738742
 31
0.0
  0
LINE
  5
114
100
AcDbEntity
  8
0
  6
CONTINUOUS
 62
       3
100
AcDbLine
 10
-75.96806984
 20
77.56738742
 30
0.0
 11
-80.76806984
 21
77.56738742
 31
0.0
  0
LINE
  5
115
100
AcDbEntity
  8
0
  6
CONTINUOUS
 62
       3
100
AcDbLine
 10
-75.96806984
 20
77.56738742
 30
0.0
 11
-75.76806984
 21
77.36738742
 31
0.0
  0
LINE
  5
116
100
AcDbEntity
  8
0
  6
CONTINUOUS
 62
       3
100
AcDbLine
 10
-74.76806984
 20
77.56738742
 30
0.0
 11
-74.76806984
 21
50.56738742
 31
0.0
  0
LINE
  5
117
100
AcDbEntity
  8
0
  6
CONTINUOUS
 62
       3
100
AcDbLine
 10
-107.76806984
 20
99.11738742
 30
0.0
 11
-80.76806984
 21
99.11738742
 31
0.0
  0
LINE
  5
118
100
AcDbEntity
  8
0
  6
CONTINUOUS
 62
       3
100
AcDbLine
 10
-104.66806984
 20
16.02264331
 30
0.0
 11
-104.66806984
 21
6.39766115
 31
0.0
  0
LINE
  5
119
100
AcDbEntity
  8
0
  6
CONTINUOUS
 62
       3
100
AcDbLine
 10
118.20336455
 20
99.11738742
 30
0.0
 11
118.20336455
 21
22.11738742
 31
0.0
  0
LINE
  5
11A
100
AcDbEntity
  8
0
  6
CONTINUOUS
 62
       3
100
AcDbLine
 10
83.20336455
 20
99.11738742
 30
0.0
 11
83.20336455
 21
22.11738742
 31
0.0
  0
LINE
  5
11B
100
AcDbEntity
  8
0
  6
CONTINUOUS
 62
       3
100
AcDbLine
 10
83.20336455
 20
99.11738742
 30
0.0
 11
98.15336455
 21
99.11738742
 31
0.0
  0
ARC
  5
11C
100
AcDbEntity
  8
0
  6
CONTINUOUS
 62
       3
100
AcDbCircle
 10
100.70336455
 20
64.06738742
 30
0.0
 40
13.5
100
AcDbArc
 50
100.88794813
 51
439.11205187
  0
LINE
  5
11D
100
AcDbEntity
  8
0
  6
CONTINUOUS
 62
       3
100
AcDbLine
 10
98.15336455
 20
127.06738742
 30
0.0
 11
98.15336455
 21
77.32436671
 31
0.0
  0
LINE
  5
11E
100
AcDbEntity
  8
0
  6
CONTINUOUS
 62
       3
100
AcDbLine
 10
103.25336455
 20
127.06738742
 30
0.0
 11
103.25336455
 21
77.32436671
 31
0.0
  0
LINE
  5
11F
100
AcDbEntity
  8
0
  6
CONTINUOUS
 62
       3
100
AcDbLine
 10
98.15336455
 20
127.06738742
 30
0.0
 11
103.25336455
 21
127.06738742
 31
0.0
  0
LINE
  5
120
100
AcDbEntity
  8
0
  6
CONTINUOUS
 62
       3
100
AcDbLine
 10
103.25336455
 20
99.11738742
 30
0.0
 11
118.20336455
 21
99.11738742
 31
0.0
  0
LINE
  5
121
100
AcDbEntity
  8
0
  6
CONTINUOUS
 62
       3
100
AcDbLine
 10
-83.76806984
 20
22.11738742
 30
0.0
 11
-83.76806984
 21
16.19584839
 31
0.0
  0
LINE
  5
122
100
AcDbEntity
  8
0
  6
CONTINUOUS
 62
       3
100
AcDbLine
 10
-83.76806984
 20
16.19584839
 30
0.0
 11
-83.86806984
 21
16.02264331
 31
0.0
  0
LINE
  5
123
100
AcDbEntity
  8
0
  6
CONTINUOUS
 62
       3
100
AcDbLine
 10
-83.86806984
 20
16.02264331
 30
0.0
 11
-83.86806984
 21
6.39766115
 31
0.0
  0
LINE
  5
124
100
AcDbEntity
  8
0
  6
CONTINUOUS
 62
       3
100
AcDbLine
 10
-82.76806984
 20
-9.60233885
 30
0.0
 11
-80.41166338
 21
-8.24186695
 31
0.0
  0
LINE
  5
125
100
AcDbEntity
  8
0
  6
CONTINUOUS
 62
       3
100
AcDbLine
 10
-82.26806984
 20
6.39766115
 30
0.0
 11
-75.76806984
 21
-0.60232885
 31
0.0
  0
LINE
  5
126
100
AcDbEntity
  8
0
  6
CONTINUOUS
 62
       3
100
AcDbLine
 10
-75.76806984
 20
-0.60233885
 30
0.0
 11
-75.76806984
 21
-3.60233885
 31
0.0
  0
LINE
  5
127
100
AcDbEntity
  8
0
  6
CONTINUOUS
 62
       3
100
AcDbLine
 10
-80.41166338
 20
-3.60233885
 30
0.0
 11
-80.41166338
 21
-8.24186695
 31
0.0
  0
LINE
  5
128
100
AcDbEntity
  8
0
  6
CONTINUOUS
 62
       3
100
AcDbLine
 10
-83.86806984
 20
-9.60233885
 30
0.0
 11
-83.86806984
 21
-34.68261258
 31
0.0
  0
LINE
  5
129
100
AcDbEntity
  8
0
  6
CONTINUOUS
 62
       3
100
AcDbLine
 10
-83.86806984
 20
-34.68261258
 30
0.0
 11
-85.06806984
 21
-35.88261258
 31
0.0
  0
ARC
  5
12A
100
AcDbEntity
  8
0
  6
CONTINUOUS
 62
       3
100
AcDbCircle
 10
-83.87576499
 20
-3.17968912
 30
0.0
 40
6.1339746
100
AcDbArc
 50
235.61575253
 51
295.61575253
  0
LINE
  5
12B
100
AcDbEntity
  8
0
  6
CONTINUOUS
 62
       3
100
AcDbLine
 10
-87.33986661
 20
-3.60233885
 30
0.0
 11
-87.33986661
 21
-8.24186695
 31
0.0
  0
LINE
  5
12C
100
AcDbEntity
  8
0
  6
CONTINUOUS
 62
       3
100
AcDbLine
 10
119.20336455
 20
-0.60233885
 30
0.0
 11
82.20336455
 21
-0.60233885
 31
0.0
  0
LINE
  5
12D
100
AcDbEntity
  8
0
  6
CONTINUOUS
 62
       3
100
AcDbLine
 10
112.70336455
 20
6.39766115
 30
0.0
 11
88.70336455
 21
6.39766115
 31
0.0
  0
LINE
  5
12E
100
AcDbEntity
  8
0
  6
CONTINUOUS
 62
       3
100
AcDbLine
 10
112.20336455
 20
-9.60233885
 30
0.0
 11
89.20336455
 21
-9.60233885
 31
0.0
  0
ARC
  5
12F
100
AcDbEntity
  8
0
  6
CONTINUOUS
 62
       3
100
AcDbCircle
 10
100.70336455
 20
13.61453951
 30
0.0
 40
22.92820323
100
AcDbArc
 50
252.41204623
 51
287.58795377
  0
LINE
  5
130
100
AcDbEntity
  8
0
  6
CONTINUOUS
 62
       3
100
AcDbLine
 10
119.20336455
 20
-3.60233885
 30
0.0
 11
82.20336455
 21
-3.60233885
 31
0.0
  0
LINE
  5
131
100
AcDbEntity
  8
0
  6
CONTINUOUS
 62
       3
100
AcDbLine
 10
119.20336455
 20
-2.60233885
 30
0.0
 11
82.20336455
 21
-2.60233885
 31
0.0
  0
LINE
  5
132
100
AcDbEntity
  8
0
  6
CONTINUOUS
 62
       3
100
AcDbLine
 10
91.50336455
 20
-35.88261258
 30
0.0
 11
109.90336455
 21
-35.88261258
 31
0.0
  0
LINE
  5
133
100
AcDbEntity
  8
0
  6
CONTINUOUS
 62
       3
100
AcDbLine
 10
90.30336455
 20
-34.68261258
 30
0.0
 11
111.10336455
 21
-34.68261258
 31
0.0
  0
LINE
  5
134
100
AcDbEntity
  8
0
  6
CONTINUOUS
 62
       3
100
AcDbLine
 10
90.30336455
 20
-9.60233885
 30
0.0
 11
90.30336455
 21
-34.68261258
 31
0.0
  0
LINE
  5
135
100
AcDbEntity
  8
0
  6
CONTINUOUS
 62
       3
100
AcDbLine
 10
90.30336455
 20
-34.68261258
 30
0.0
 11
91.50336455
 21
-35.88261258
 31
0.0
  0
ARC
  5
136
100
AcDbEntity
  8
0
  6
CONTINUOUS
 62
       3
100
AcDbCircle
 10
90.31105971
 20
-3.17968912
 30
0.0
 40
6.1339746
100
AcDbArc
 50
244.38424747
 51
304.38424747
  0
LINE
  5
137
100
AcDbEntity
  8
0
  6
CONTINUOUS
 62
       3
100
AcDbLine
 10
89.20336455
 20
-9.60233885
 30
0.0
 11
86.84695809
 21
-8.24186695
 31
0.0
  0
LINE
  5
138
100
AcDbEntity
  8
0
  6
CONTINUOUS
 62
       3
100
AcDbLine
 10
88.70336455
 20
6.39766115
 30
0.0
 11
82.20336455
 21
-0.60232885
 31
0.0
  0
LINE
  5
139
100
AcDbEntity
  8
0
  6
CONTINUOUS
 62
       3
100
AcDbLine
 10
82.20336455
 20
-0.60233885
 30
0.0
 11
82.20336455
 21
-3.60233885
 31
0.0
  0
LINE
  5
13A
100
AcDbEntity
  8
0
  6
CONTINUOUS
 62
       3
100
AcDbLine
 10
93.77516132
 20
-3.60233885
 30
0.0
 11
93.77516132
 21
-8.24186695
 31
0.0
  0
LINE
  5
13B
100
AcDbEntity
  8
0
  6
CONTINUOUS
 62
       3
100
AcDbLine
 10
86.84695809
 20
-3.60233885
 30
0.0
 11
86.84695809
 21
-8.24186695
 31
0.0
  0
LINE
  5
13C
100
AcDbEntity
  8
0
  6
CONTINUOUS
 62
       3
100
AcDbLine
 10
109.90336455
 20
-35.88261258
 30
0.0
 11
111.10336455
 21
-34.68261258
 31
0.0
  0
LINE
  5
13D
100
AcDbEntity
  8
0
  6
CONTINUOUS
 62
       3
100
AcDbLine
 10
90.30336455
 20
16.02264331
 30
0.0
 11
90.30336455
 21
6.39766115
 31
0.0
  0
LINE
  5
13E
100
AcDbEntity
  8
0
  6
CONTINUOUS
 62
       3
100
AcDbLine
 10
111.10336455
 20
16.02264331
 30
0.0
 11
111.10336455
 21
6.39766115
 31
0.0
  0
LINE
  5
13F
100
AcDbEntity
  8
0
  6
CONTINUOUS
 62
       3
100
AcDbLine
 10
112.20336455
 20
-9.60233885
 30
0.0
 11
114.55977101
 21
-8.24186695
 31
0.0
  0
LINE
  5
140
100
AcDbEntity
  8
0
  6
CONTINUOUS
 62
       3
100
AcDbLine
 10
112.70336455
 20
6.39766115
 30
0.0
 11
119.20336455
 21
-0.60232885
 31
0.0
  0
LINE
  5
141
100
AcDbEntity
  8
0
  6
CONTINUOUS
 62
       3
100
AcDbLine
 10
119.20336455
 20
-0.60233885
 30
0.0
 11
119.20336455
 21
-3.60233885
 31
0.0
  0
LINE
  5
142
100
AcDbEntity
  8
0
  6
CONTINUOUS
 62
       3
100
AcDbLine
 10
114.55977101
 20
-3.60233885
 30
0.0
 11
114.55977101
 21
-8.24186695
 31
0.0
  0
LINE
  5
143
100
AcDbEntity
  8
0
  6
CONTINUOUS
 62
       3
100
AcDbLine
 10
111.10336455
 20
-9.60233885
 30
0.0
 11
111.10336455
 21
-34.68261258
 31
0.0
  0
LINE
  5
144
100
AcDbEntity
  8
0
  6
CONTINUOUS
 62
       3
100
AcDbLine
 10
111.10336455
 20
-34.68261258
 30
0.0
 11
109.90336455
 21
-35.88261258
 31
0.0
  0
ARC
  5
145
100
AcDbEntity
  8
0
  6
CONTINUOUS
 62
       3
100
AcDbCircle
 10
111.0956694
 20
-3.17968912
 30
0.0
 40
6.1339746
100
AcDbArc
 50
235.61575253
 51
295.61575253
  0
LINE
  5
146
100
AcDbEntity
  8
0
  6
CONTINUOUS
 62
       3
100
AcDbLine
 10
107.63156778
 20
-3.60233885
 30
0.0
 11
107.63156778
 21
-8.24186695
 31
0.0
  0
LINE
  5
147
100
AcDbEntity
  8
0
  6
CONTINUOUS
 62
       3
100
AcDbLine
 10
90.30336455
 20
14.11738742
 30
0.0
 11
111.10336455
 21
14.11738742
 31
0.0
  0
LINE
  5
148
100
AcDbEntity
  8
0
  6
CONTINUOUS
 62
       3
100
AcDbLine
 10
90.20336455
 20
22.11738742
 30
0.0
 11
90.20336455
 21
16.19584839
 31
0.0
  0
LINE
  5
149
100
AcDbEntity
  8
0
  6
CONTINUOUS
 62
       3
100
AcDbLine
 10
90.20336455
 20
16.19584839
 30
0.0
 11
90.30336455
 21
16.02264331
 31
0.0
  0
LINE
  5
14A
100
AcDbEntity
  8
0
  6
CONTINUOUS
 62
       3
100
AcDbLine
 10
111.20336455
 20
22.11738742
 30
0.0
 11
111.20336455
 21
16.19584839
 31
0.0
  0
LINE
  5
14B
100
AcDbEntity
  8
0
  6
CONTINUOUS
 62
       3
100
AcDbLine
 10
111.20336455
 20
16.19584839
 30
0.0
 11
111.10336455
 21
16.02264331
 31
0.0
  0
ARC
  5
14C
100
AcDbEntity
  8
0
  6
CONTINUOUS
 62
       3
100
AcDbCircle
 10
50.70336455
 20
157.59238742
 30
0.0
 40
59.525
100
AcDbArc
 50
360.0
 51
526.89553571
  0
LINE
  5
14D
100
AcDbEntity
  8
0
  6
CONTINUOUS
 62
       3
100
AcDbLine
 10
6.46904376
 20
146.20254018
 30
0.0
 11
2.61466976
 21
129.64524559
 31
0.0
  0
LINE
  5
14E
100
AcDbEntity
  8
0
  6
CONTINUOUS
 62
       3
100
AcDbLine
 10
-12.03616269
 20
150.51036262
 30
0.0
 11
-15.89053533
 21
133.95307384
 31
0.0
  0
LINE
  5
14F
100
AcDbEntity
  8
0
  6
CONTINUOUS
 62
       3
100
AcDbLine
 10
91.17836455
 20
99.11738742
 30
0.0
 11
91.17836455
 21
157.59238742
 31
0.0
  0
LINE
  5
150
100
AcDbEntity
  8
0
  6
CONTINUOUS
 62
       3
100
AcDbLine
 10
-15.51692015
 20
133.35273086
 30
0.0
 11
2.01432678
 21
129.27163041
 31
0.0
  0
LINE
  5
151
100
AcDbEntity
  8
0
  6
CONTINUOUS
 62
       3
100
AcDbLine
 10
-15.89053533
 20
133.95307384
 30
0.0
 11
-15.51692015
 21
133.35273086
 31
0.0
  0
LINE
  5
152
100
AcDbEntity
  8
0
  6
CONTINUOUS
 62
       3
100
AcDbLine
 10
2.01432678
 20
129.27163041
 30
0.0
 11
2.61466976
 21
129.64524559
 31
0.0
  0
ARC
  5
153
100
AcDbEntity
  8
0
  6
CONTINUOUS
 62
       3
100
AcDbCircle
 10
50.70336455
 20
157.59238742
 30
0.0
 40
40.475
100
AcDbArc
 50
360.0
 51
526.89553571
  0
LINE
  5
154
100
AcDbEntity
  8
0
  6
CONTINUOUS
 62
       3
100
AcDbLine
 10
-12.06051695
 20
150.5160259
 30
0.0
 11
-7.27150352
 21
171.08832374
 31
0.0
  0
LINE
  5
155
100
AcDbEntity
  8
0
  6
CONTINUOUS
 62
       3
100
AcDbLine
 10
-12.03616404
 20
150.5103568
 30
0.0
 11
6.46904376
 21
146.20254018
 31
0.0
  0
LINE
  5
156
100
AcDbEntity
  8
0
  6
CONTINUOUS
 62
       3
100
AcDbLine
 10
6.49338877
 20
146.19687292
 30
0.0
 11
11.28240218
 21
166.76917066
 31
0.0
  0
LINE
  5
157
100
AcDbEntity
  8
0
  6
CONTINUOUS
 62
       3
100
AcDbLine
 10
110.22836455
 20
99.11738742
 30
0.0
 11
110.22836455
 21
157.59238742
 31
0.0
  0
ARC
  5
158
100
AcDbEntity
  8
0
  6
CONTINUOUS
 62
       3
100
AcDbCircle
 10
-94.26806984
 20
207.59238742
 30
0.0
 40
9.525
100
AcDbArc
 50
360.0
 51
540.0
  0
LINE
  5
159
100
AcDbEntity
  8
0
  6
CONTINUOUS
 62
       3
100
AcDbLine
 10
-70.4058313
 20
-142.79931818
 30
0.0
 11
-70.4058313
 21
-95.79931818
 31
0.0
  0
LINE
  5
15A
100
AcDbEntity
  8
0
  6
CONTINUOUS
 62
       3
100
AcDbLine
 10
-117.4058313
 20
-142.79931818
 30
0.0
 11
-117.4058313
 21
-95.79931818
 31
0.0
  0
LINE
  5
15B
100
AcDbEntity
  8
0
  6
CONTINUOUS
 62
       3
100
AcDbLine
 10
-117.4058313
 20
-142.79931818
 30
0.0
 11
-70.4058313
 21
-142.79931818
 31
0.0
  0
CIRCLE
  5
15C
100
AcDbEntity
  8
0
  6
CONTINUOUS
 62
       3
100
AcDbCircle
 10
-93.9058313
 20
-119.29931818
 30
0.0
 40
11.0
  0
LINE
  5
15D
100
AcDbEntity
  8
0
  6
CONTINUOUS
 62
       3
100
AcDbLine
 10
-117.4058313
 20
-95.79931818
 30
0.0
 11
-70.4058313
 21
-95.79931818
 31
0.0
  0
CIRCLE
  5
15E
100
AcDbEntity
  8
0
  6
CONTINUOUS
 62
       3
100
AcDbCircle
 10
-102.9058313
 20
-105.79931818
 30
0.0
 40
3.0
  0
CIRCLE
  5
15F
100
AcDbEntity
  8
0
  6
CONTINUOUS
 62
       3
100
AcDbCircle
 10
-84.9058313
 20
-132.79931818
 30
0.0
 40
3.0
  0
CIRCLE
  5
160
100
AcDbEntity
  8
0
  6
CONTINUOUS
 62
       3
100
AcDbCircle
 10
-102.9058313
 20
-105.79931818
 30
0.0
 40
1.6
  0
CIRCLE
  5
161
100
AcDbEntity
  8
0
  6
CONTINUOUS
 62
       3
100
AcDbCircle
 10
-84.9058313
 20
-132.79931818
 30
0.0
 40
1.6
  0
LINE
  5
162
100
AcDbEntity
  8
0
  6
CONTINUOUS
 62
       3
100
AcDbLine
 10
-80.76806984
 20
22.11738742
 30
0.0
 11
-107.76806984
 21
22.11738742
 31
0.0
  0
LINE
  5
163
100
AcDbEntity
  8
0
  6
CONTINUOUS
 62
       3
100
AcDbLine
 10
83.20336455
 20
22.11738742
 30
0.0
 11
118.20336455
 21
22.11738742
 31
0.0
  0
LINE
  5
164
100
AcDbEntity
  8
0
  6
CONTINUOUS
 62
       3
100
AcDbLine
 10
-49.74035228
 20
-142.79931818
 30
0.0
 11
-46.74035228
 21
-142.79931818
 31
0.0
  0
LINE
  5
165
100
AcDbEntity
  8
0
  6
CONTINUOUS
 62
       3
100
AcDbLine
 10
-46.74035228
 20
-95.79931818
 30
0.0
 11
-49.74035228
 21
-95.79931818
 31
0.0
  0
LINE
  5
166
100
AcDbEntity
  8
0
  6
CONTINUOUS
 62
       3
100
AcDbLine
 10
-49.74035228
 20
-95.79931818
 30
0.0
 11
-49.74035228
 21
-142.79931818
 31
0.0
  0
LINE
  5
167
100
AcDbEntity
  8
0
  6
CONTINUOUS
 62
       3
100
AcDbLine
 10
-46.74035228
 20
-142.79931818
 30
0.0
 11
-46.74035228
 21
-95.79931818
 31
0.0
  0
ELLIPSE
  5
168
100
AcDbEntity
  8
0
  6
CONTINUOUS
 62
       3
100
AcDbEllipse
 10
-94.26806984
 20
131.31217908
 30
0.0
 11
9.5250000000000909
 21
0.0
 31
0.0
210
0.0
220
0.0
230
1.0
 40
0.27725929
 41
0.0
 42
6.2831853071796004
  0
ELLIPSE
  5
169
100
AcDbEntity
  8
0
  6
CONTINUOUS
 62
       3
100
AcDbEllipse
 10
-94.26806984
 20
131.31217908
 30
0.0
 11
-8.5781131201014205
 21
0.0
 31
0.0
210
0.0
220
0.0
230
1.0
 40
0.28182051
 41
0.0
 42
6.2831853071796004
  0
ELLIPSE
  5
16A
100
AcDbEntity
  8
0
  6
CONTINUOUS
 62
       3
100
AcDbEllipse
 10
-94.26806984
 20
148.3564514
 30
0.0
 11
9.5249999999995794
 21
0.0
 31
0.0
210
0.0
220
0.0
230
1.0
 40
0.22613241
 41
6.2831853071795827
 42
9.4247779607693758
  0
LINE
  5
16B
100
AcDbEntity
  8
0
  6
CONTINUOUS
 62
       9
100
AcDbLine
 10
-103.56806984
 20
-9.60233885
 30
0.0
 11
-103.56806984
 21
-35.78261258
 31
0.0
  0
LINE
  5
16C
100
AcDbEntity
  8
0
  6
CONTINUOUS
 62
       9
100
AcDbLine
 10
-104.66806984
 20
16.02264331
 30
0.0
 11
-103.56806984
 21
14.11738742
 31
0.0
  0
LINE
  5
16D
100
AcDbEntity
  8
0
  6
CONTINUOUS
 62
       9
100
AcDbLine
 10
-103.56806984
 20
14.11738742
 30
0.0
 11
-103.56806984
 21
6.39766115
 31
0.0
  0
LINE
  5
16E
100
AcDbEntity
  8
0
  6
CONTINUOUS
 62
       9
100
AcDbLine
 10
-83.86806984
 20
16.02264331
 30
0.0
 11
-84.96806984
 21
14.11738742
 31
0.0
  0
LINE
  5
16F
100
AcDbEntity
  8
0
  6
CONTINUOUS
 62
       9
100
AcDbLine
 10
-84.96806984
 20
14.11738742
 30
0.0
 11
-84.96806984
 21
6.39766115
 31
0.0
  0
LINE
  5
170
100
AcDbEntity
  8
0
  6
CONTINUOUS
 62
       9
100
AcDbLine
 10
-84.96806984
 20
-9.60233885
 30
0.0
 11
-84.96806984
 21
-35.78261258
 31
0.0
  0
LINE
  5
171
100
AcDbEntity
  8
0
  6
CONTINUOUS
 62
       9
100
AcDbLine
 10
91.40336455
 20
-9.60233885
 30
0.0
 11
91.40336455
 21
-35.78261258
 31
0.0
  0
LINE
  5
172
100
AcDbEntity
  8
0
  6
CONTINUOUS
 62
       9
100
AcDbLine
 10
91.40336455
 20
14.11738742
 30
0.0
 11
91.40336455
 21
6.39766115
 31
0.0
  0
LINE
  5
173
100
AcDbEntity
  8
0
  6
CONTINUOUS
 62
       9
100
AcDbLine
 10
110.00336455
 20
14.11738742
 30
0.0
 11
110.00336455
 21
6.39766115
 31
0.0
  0
LINE
  5
174
100
AcDbEntity
  8
0
  6
CONTINUOUS
 62
       9
100
AcDbLine
 10
110.00336455
 20
-9.60233885
 30
0.0
 11
110.00336455
 21
-35.78261258
 31
0.0
  0
LINE
  5
175
100
AcDbEntity
  8
0
  6
CONTINUOUS
 62
       9
100
AcDbLine
 10
90.30336455
 20
16.02264331
 30
0.0
 11
91.40336455
 21
14.11738742
 31
0.0
  0
LINE
  5
176
100
AcDbEntity
  8
0
  6
CONTINUOUS
 62
       9
100
AcDbLine
 10
111.10336455
 20
16.02264331
 30
0.0
 11
110.00336455
 21
14.11738742
 31
0.0
  0
LINE
  5
177
100
AcDbEntity
  8
0
  6
CENTER
 62
       9
100
AcDbLine
 10
-94.26806984
 20
220.36921524
 30
0.0
 11
-94.26806984
 21
-44.7404726
 31
0.0
  0
LINE
  5
178
100
AcDbEntity
  8
0
  6
CENTER
 62
       9
100
AcDbLine
 10
-37.76806984
 20
64.06738742
 30
0.0
 11
-114.76806984
 21
64.06738742
 31
0.0
  0
LINE
  5
179
100
AcDbEntity
  8
0
  6
CENTER
 62
       9
100
AcDbLine
 10
100.70336455
 20
221.85649021
 30
0.0
 11
100.70336455
 21
-45.96984558
 31
0.0
  0
LINE
  5
17A
100
AcDbEntity
  8
0
  6
CENTER
 62
       9
100
AcDbLine
 10
121.20336455
 20
64.06738742
 30
0.0
 11
32.70336455
 21
64.06738742
 31
0.0
  0
ARC
  5
17B
100
AcDbEntity
  8
0
  6
CENTER
 62
       9
100
AcDbCircle
 10
50.70336455
 20
157.59238742
 30
0.0
 40
50.0
100
AcDbArc
 50
360.0
 51
526.89553571
  0
LINE
  5
17C
100
AcDbEntity
  8
0
  6
CENTER
 62
       9
100
AcDbLine
 10
-7.88492599
 20
126.44238756
 30
0.0
 11
2.00544933
 21
168.9287472
 31
0.0
  0
LINE
  5
17D
100
AcDbEntity
  8
0
  6
CENTER
 62
       9
100
AcDbLine
 10
-83.46721673
 20
131.31217908
 30
0.0
 11
-105.52183111
 21
131.31217908
 31
0.0
  0
LINE
  5
17E
100
AcDbEntity
  8
0
  6
DASHED2
 62
       9
100
AcDbLine
 10
-93.9058313
 20
-146.79931818
 30
0.0
 11
-93.9058313
 21
-91.79931818
 31
0.0
  0
LINE
  5
17F
100
AcDbEntity
  8
0
  6
DASHED2
 62
       9
100
AcDbLine
 10
-102.9058313
 20
-99.79931818
 30
0.0
 11
-102.9058313
 21
-111.79931818
 31
0.0
  0
LINE
  5
180
100
AcDbEntity
  8
0
  6
DASHED2
 62
       9
100
AcDbLine
 10
-84.9058313
 20
-126.79931818
 30
0.0
 11
-84.9058313
 21
-138.79931818
 31
0.0
  0
LINE
  5
181
100
AcDbEntity
  8
0
  6
DASHED2
 62
       9
100
AcDbLine
 10
-108.9058313
 20
-105.79931818
 30
0.0
 11
-96.9058313
 21
-105.79931818
 31
0.0
  0
LINE
  5
182
100
AcDbEntity
  8
0
  6
DASHED2
 62
       9
100
AcDbLine
 10
-90.9058313
 20
-132.79931818
 30
0.0
 11
-78.9058313
 21
-132.79931818
 31
0.0
  0
LINE
  5
183
100
AcDbEntity
  8
0
  6
DASHED2
 62
       9
100
AcDbLine
 10
-120.9058313
 20
-119.29931818
 30
0.0
 11
-66.9058313
 21
-119.29931818
 31
0.0
  0
ELLIPSE
  5
184
100
AcDbEntity
  8
0
  6
CONTINUOUS
 62
       9
100
AcDbEllipse
 10
100.70336455
 20
140.1256616
 30
0.0
 11
19.748243842784817
 21
-0.1473403483658444
 31
0.0
210
0.0
220
0.0
230
1.0
 40
0.34278124
 41
2.2859203868260147
 42
7.0944241110233559
  0
INSERT
  5
185
100
AcDbEntity
  8
0
  6
CONTINUOUS
 62
       9
100
AcDbBlockReference
  2
_OPEN30
 10
87.79235434
 20
145.33319714
 30
0.0
 41
6.00000558
 42
5.99997855
 50
24.77951771
  0
INSERT
  5
186
100
AcDbEntity
  8
0
  6
CONTINUOUS
 62
       9
100
AcDbBlockReference
  2
_OPEN30
 10
114.33864179
 20
144.93291834
 30
0.0
 41
6.00000558
 42
5.99997855
 50
152.20849445
  0
LINE
  5
187
100
AcDbEntity
  8
0
  6
DIVIDE
 62
       6
100
AcDbLine
 10
37.70336455
 20
61.51738742
 30
0.0
 11
37.70336455
 21
66.61738742
 31
0.0
  0
LINE
  5
188
100
AcDbEntity
  8
0
  6
DIVIDE
 62
       6
100
AcDbLine
 10
37.70336455
 20
66.61738742
 30
0.0
 11
87.44638526
 21
66.61738742
 31
0.0
  0
LINE
  5
189
100
AcDbEntity
  8
0
  6
DIVIDE
 62
       6
100
AcDbLine
 10
37.70336455
 20
61.51738742
 30
0.0
 11
87.44638526
 21
61.51738742
 31
0.0
  0
POINT
  5
18A
100
AcDbEntity
  8
0
  6
CONTINUOUS
 62
       6
100
AcDbPoint
 10
-94.26806984
 20
99.11738742
 30
0.0
  0
POINT
  5
18B
100
AcDbEntity
  8
LAYER0008
  6
DIVIDE
 62
       6
100
AcDbPoint
 10
32.70336455
 20
64.06738742
 30
0.0
  0
INSERT
  5
18C
100
AcDbEntity
  8
0
  6
CONTINUOUS
100
AcDbBlockReference
  2
DA_IMAGEDIMGROUP_1
 10
0.0
 20
0.0
 30
0.0
  0
INSERT
  5
18D
100
AcDbEntity
  8
0
  6
CONTINUOUS
100
AcDbBlockReference
  2
DA_IMAGEDIMGROUP_2
 10
0.0
 20
0.0
 30
0.0
  0
INSERT
  5
18E
100
AcDbEntity
  8
0
  6
CONTINUOUS
100
AcDbBlockReference
  2
DA_IMAGEDIMGROUP_3
 10
0.0
 20
0.0
 30
0.0
  0
INSERT
  5
18F
100
AcDbEntity
  8
0
  6
CONTINUOUS
100
AcDbBlockReference
  2
DA_IMAGEDIMGROUP_4
 10
0.0
 20
0.0
 30
0.0
  0
INSERT
  5
190
100
AcDbEntity
  8
0
  6
CONTINUOUS
100
AcDbBlockReference
  2
DA_IMAGEDIMGROUP_5
 10
0.0
 20
0.0
 30
0.0
  0
INSERT
  5
191
100
AcDbEntity
  8
0
  6
CONTINUOUS
100
AcDbBlockReference
  2
DA_IMAGEDIMGROUP_6
 10
0.0
 20
0.0
 30
0.0
  0
INSERT
  5
192
100
AcDbEntity
  8
0
  6
CONTINUOUS
100
AcDbBlockReference
  2
DA_IMAGEDIMGROUP_7
 10
0.0
 20
0.0
 30
0.0
  0
INSERT
  5
193
100
AcDbEntity
  8
0
  6
CONTINUOUS
100
AcDbBlockReference
  2
DA_IMAGEDIMGROUP_8
 10
0.0
 20
0.0
 30
0.0
  0
INSERT
  5
194
100
AcDbEntity
  8
0
  6
CONTINUOUS
100
AcDbBlockReference
  2
DA_IMAGEDIMGROUP_9
 10
0.0
 20
0.0
 30
0.0
  0
INSERT
  5
195
100
AcDbEntity
  8
0
  6
CONTINUOUS
100
AcDbBlockReference
  2
GROUP_1
 10
0.0
 20
0.0
 30
0.0
  0
INSERT
  5
196
100
AcDbEntity
  8
0
  6
CONTINUOUS
100
AcDbBlockReference
  2
DA_IMAGEDIMGROUP_10
 10
0.0
 20
0.0
 30
0.0
  0
INSERT
  5
197
100
AcDbEntity
  8
0
  6
CONTINUOUS
100
AcDbBlockReference
  2
DA_IMAGEDIMGROUP_11
 10
0.0
 20
0.0
 30
0.0
  0
INSERT
  5
198
100
AcDbEntity
  8
0
  6
CONTINUOUS
100
AcDbBlockReference
  2
GROUP_2
 10
0.0
 20
0.0
 30
0.0
  0
INSERT
  5
199
100
AcDbEntity
  8
0
  6
CONTINUOUS
100
AcDbBlockReference
  2
GROUP_3
 10
0.0
 20
0.0
 30
0.0
  0
INSERT
  5
19A
100
AcDbEntity
  8
0
  6
CONTINUOUS
100
AcDbBlockReference
  2
GROUP_4
 10
0.0
 20
0.0
 30
0.0
  0
INSERT
  5
19B
100
AcDbEntity
  8
0
  6
CONTINUOUS
100
AcDbBlockReference
  2
GROUP_5
 10
0.0
 20
0.0
 30
0.0
  0
INSERT
  5
19C
100
AcDbEntity
  8
0
  6
CONTINUOUS
100
AcDbBlockReference
  2
GROUP_6
 10
0.0
 20
0.0
 30
0.0
  0
INSERT
  5
19D
100
AcDbEntity
  8
0
  6
CONTINUOUS
100
AcDbBlockReference
  2
GROUP_7
 10
0.0
 20
0.0
 30
0.0
  0
INSERT
  5
19E
100
AcDbEntity
  8
0
  6
CONTINUOUS
100
AcDbBlockReference
  2
GROUP_8
 10
0.0
 20
0.0
 30
0.0
  0
INSERT
  5
19F
100
AcDbEntity
  8
0
  6
CONTINUOUS
100
AcDbBlockReference
  2
GROUP_9
 10
0.0
 20
0.0
 30
0.0
  0
INSERT
  5
1A0
100
AcDbEntity
  8
0
  6
CONTINUOUS
100
AcDbBlockReference
  2
DA_IMAGEDIMGROUP_12
 10
0.0
 20
0.0
 30
0.0
  0
TEXT
  5
1A1
100
AcDbEntity
  8
0
 62
       4
100
AcDbText
 10
25.15992643
 20
71.4558613
 30
0.0
 40
8.0
  1
開
 41
0.8
 72
       5
 11
31.55992643
 21
71.4558613
 31
0.0
100
AcDbText
  0
TEXT
  5
1A2
100
AcDbEntity
  8
0
 62
       4
100
AcDbText
 10
81.93973844
 20
116.3816217
 30
0.0
 40
8.0
  1
閉
 41
0.8
 72
       5
 11
88.33973844
 21
116.3816217
 31
0.0
100
AcDbText
  0
LINE
  5
1A3
100
AcDbEntity
  8
LAYER0240
  6
CENTER
 62
       9
100
AcDbLine
 10
80.65772155
 20
207.59238742
 30
0.0
 11
117.2805539
 21
207.59238742
 31
0.0
  0
POINT
  5
1A4
100
AcDbEntity
  8
ZUWAKU
  6
CONTINUOUS
 62
       9
100
AcDbPoint
 10
-210.0
 20
0.0
 30
0.0
  0
LINE
  5
1A5
100
AcDbEntity
  8
ZUWAKU
  6
CONTINUOUS
 62
       9
100
AcDbLine
 10
-209.77794549
 20
-4.49059892
 30
0.0
 11
-210.0
 21
-4.49059892
 31
0.0
  0
LINE
  5
1A6
100
AcDbEntity
  8
ZUWAKU
  6
CONTINUOUS
 62
       9
100
AcDbLine
 10
-209.43153533
 20
-4.29059892
 30
0.0
 11
-210.0
 21
-4.29059892
 31
0.0
  0
LINE
  5
1A7
100
AcDbEntity
  8
ZUWAKU
  6
CONTINUOUS
 62
       9
100
AcDbLine
 10
-209.08512517
 20
-4.09059892
 30
0.0
 11
-210.0
 21
-4.09059892
 31
0.0
  0
LINE
  5
1A8
100
AcDbEntity
  8
ZUWAKU
  6
CONTINUOUS
 62
       9
100
AcDbLine
 10
-208.73871501
 20
-3.89059892
 30
0.0
 11
-210.0
 21
-3.89059892
 31
0.0
  0
LINE
  5
1A9
100
AcDbEntity
  8
ZUWAKU
  6
CONTINUOUS
 62
       9
100
AcDbLine
 10
-208.39230485
 20
-3.69059892
 30
0.0
 11
-210.0
 21
-3.69059892
 31
0.0
  0
LINE
  5
1AA
100
AcDbEntity
  8
ZUWAKU
  6
CONTINUOUS
 62
       9
100
AcDbLine
 10
-208.04589468
 20
-3.49059892
 30
0.0
 11
-210.0
 21
-3.49059892
 31
0.0
  0
LINE
  5
1AB
100
AcDbEntity
  8
ZUWAKU
  6
CONTINUOUS
 62
       9
100
AcDbLine
 10
-207.69948452
 20
-3.29059892
 30
0.0
 11
-210.0
 21
-3.29059892
 31
0.0
  0
LINE
  5
1AC
100
AcDbEntity
  8
ZUWAKU
  6
CONTINUOUS
 62
       9
100
AcDbLine
 10
-207.35307436
 20
-3.09059892
 30
0.0
 11
-210.0
 21
-3.09059892
 31
0.0
  0
LINE
  5
1AD
100
AcDbEntity
  8
ZUWAKU
  6
CONTINUOUS
 62
       9
100
AcDbLine
 10
-207.0066642
 20
-2.89059892
 30
0.0
 11
-210.0
 21
-2.89059892
 31
0.0
  0
LINE
  5
1AE
100
AcDbEntity
  8
ZUWAKU
  6
CONTINUOUS
 62
       9
100
AcDbLine
 10
-206.66025404
 20
-2.69059892
 30
0.0
 11
-210.0
 21
-2.69059892
 31
0.0
  0
LINE
  5
1AF
100
AcDbEntity
  8
ZUWAKU
  6
CONTINUOUS
 62
       9
100
AcDbLine
 10
-206.31384388
 20
-2.49059892
 30
0.0
 11
-210.0
 21
-2.49059892
 31
0.0
  0
LINE
  5
1B0
100
AcDbEntity
  8
ZUWAKU
  6
CONTINUOUS
 62
       9
100
AcDbLine
 10
-205.96743371
 20
-2.29059892
 30
0.0
 11
-210.0
 21
-2.29059892
 31
0.0
  0
LINE
  5
1B1
100
AcDbEntity
  8
ZUWAKU
  6
CONTINUOUS
 62
       9
100
AcDbLine
 10
-205.62102355
 20
-2.09059892
 30
0.0
 11
-210.0
 21
-2.09059892
 31
0.0
  0
LINE
  5
1B2
100
AcDbEntity
  8
ZUWAKU
  6
CONTINUOUS
 62
       9
100
AcDbLine
 10
-205.27461339
 20
-1.89059892
 30
0.0
 11
-210.0
 21
-1.89059892
 31
0.0
  0
LINE
  5
1B3
100
AcDbEntity
  8
ZUWAKU
  6
CONTINUOUS
 62
       9
100
AcDbLine
 10
-204.92820323
 20
-1.69059892
 30
0.0
 11
-210.0
 21
-1.69059892
 31
0.0
  0
LINE
  5
1B4
100
AcDbEntity
  8
ZUWAKU
  6
CONTINUOUS
 62
       9
100
AcDbLine
 10
-204.58179307
 20
-1.49059892
 30
0.0
 11
-210.0
 21
-1.49059892
 31
0.0
  0
LINE
  5
1B5
100
AcDbEntity
  8
ZUWAKU
  6
CONTINUOUS
 62
       9
100
AcDbLine
 10
-204.23538291
 20
-1.29059892
 30
0.0
 11
-210.0
 21
-1.29059892
 31
0.0
  0
LINE
  5
1B6
100
AcDbEntity
  8
ZUWAKU
  6
CONTINUOUS
 62
       9
100
AcDbLine
 10
-203.88897275
 20
-1.09059892
 30
0.0
 11
-210.0
 21
-1.09059892
 31
0.0
  0
LINE
  5
1B7
100
AcDbEntity
  8
ZUWAKU
  6
CONTINUOUS
 62
       9
100
AcDbLine
 10
-203.54256258
 20
-0.89059892
 30
0.0
 11
-210.0
 21
-0.89059892
 31
0.0
  0
LINE
  5
1B8
100
AcDbEntity
  8
ZUWAKU
  6
CONTINUOUS
 62
       9
100
AcDbLine
 10
-203.19615242
 20
-0.69059892
 30
0.0
 11
-210.0
 21
-0.69059892
 31
0.0
  0
LINE
  5
1B9
100
AcDbEntity
  8
ZUWAKU
  6
CONTINUOUS
 62
       9
100
AcDbLine
 10
-202.84974226
 20
-0.49059892
 30
0.0
 11
-210.0
 21
-0.49059892
 31
0.0
  0
LINE
  5
1BA
100
AcDbEntity
  8
ZUWAKU
  6
CONTINUOUS
 62
       9
100
AcDbLine
 10
-202.5033321
 20
-0.29059892
 30
0.0
 11
-210.0
 21
-0.29059892
 31
0.0
  0
LINE
  5
1BB
100
AcDbEntity
  8
ZUWAKU
  6
CONTINUOUS
 62
       9
100
AcDbLine
 10
-202.15692194
 20
-0.09059892
 30
0.0
 11
-210.0
 21
-0.09059892
 31
0.0
  0
LINE
  5
1BC
100
AcDbEntity
  8
ZUWAKU
  6
CONTINUOUS
 62
       9
100
AcDbLine
 10
-202.18948822
 20
0.10940108
 30
0.0
 11
-210.0
 21
0.10940108
 31
0.0
  0
LINE
  5
1BD
100
AcDbEntity
  8
ZUWAKU
  6
CONTINUOUS
 62
       9
100
AcDbLine
 10
-202.53589838
 20
0.30940108
 30
0.0
 11
-210.0
 21
0.30940108
 31
0.0
  0
LINE
  5
1BE
100
AcDbEntity
  8
ZUWAKU
  6
CONTINUOUS
 62
       9
100
AcDbLine
 10
-202.88230855
 20
0.50940108
 30
0.0
 11
-210.0
 21
0.50940108
 31
0.0
  0
LINE
  5
1BF
100
AcDbEntity
  8
ZUWAKU
  6
CONTINUOUS
 62
       9
100
AcDbLine
 10
-203.22871871
 20
0.70940108
 30
0.0
 11
-210.0
 21
0.70940108
 31
0.0
  0
LINE
  5
1C0
100
AcDbEntity
  8
ZUWAKU
  6
CONTINUOUS
 62
       9
100
AcDbLine
 10
-203.57512887
 20
0.90940108
 30
0.0
 11
-210.0
 21
0.90940108
 31
0.0
  0
LINE
  5
1C1
100
AcDbEntity
  8
ZUWAKU
  6
CONTINUOUS
 62
       9
100
AcDbLine
 10
-203.92153903
 20
1.10940108
 30
0.0
 11
-210.0
 21
1.10940108
 31
0.0
  0
LINE
  5
1C2
100
AcDbEntity
  8
ZUWAKU
  6
CONTINUOUS
 62
       9
100
AcDbLine
 10
-204.26794919
 20
1.30940108
 30
0.0
 11
-210.0
 21
1.30940108
 31
0.0
  0
LINE
  5
1C3
100
AcDbEntity
  8
ZUWAKU
  6
CONTINUOUS
 62
       9
100
AcDbLine
 10
-204.61435935
 20
1.50940108
 30
0.0
 11
-210.0
 21
1.50940108
 31
0.0
  0
LINE
  5
1C4
100
AcDbEntity
  8
ZUWAKU
  6
CONTINUOUS
 62
       9
100
AcDbLine
 10
-204.96076952
 20
1.70940108
 30
0.0
 11
-210.0
 21
1.70940108
 31
0.0
  0
LINE
  5
1C5
100
AcDbEntity
  8
ZUWAKU
  6
CONTINUOUS
 62
       9
100
AcDbLine
 10
-205.30717968
 20
1.90940108
 30
0.0
 11
-210.0
 21
1.90940108
 31
0.0
  0
LINE
  5
1C6
100
AcDbEntity
  8
ZUWAKU
  6
CONTINUOUS
 62
       9
100
AcDbLine
 10
-205.65358984
 20
2.10940108
 30
0.0
 11
-210.0
 21
2.10940108
 31
0.0
  0
LINE
  5
1C7
100
AcDbEntity
  8
ZUWAKU
  6
CONTINUOUS
 62
       9
100
AcDbLine
 10
-206.0
 20
2.30940108
 30
0.0
 11
-210.0
 21
2.30940108
 31
0.0
  0
LINE
  5
1C8
100
AcDbEntity
  8
ZUWAKU
  6
CONTINUOUS
 62
       9
100
AcDbLine
 10
-206.34641016
 20
2.50940108
 30
0.0
 11
-210.0
 21
2.50940108
 31
0.0
  0
LINE
  5
1C9
100
AcDbEntity
  8
ZUWAKU
  6
CONTINUOUS
 62
       9
100
AcDbLine
 10
-206.69282032
 20
2.70940108
 30
0.0
 11
-210.0
 21
2.70940108
 31
0.0
  0
LINE
  5
1CA
100
AcDbEntity
  8
ZUWAKU
  6
CONTINUOUS
 62
       9
100
AcDbLine
 10
-207.03923048
 20
2.90940108
 30
0.0
 11
-210.0
 21
2.90940108
 31
0.0
  0
LINE
  5
1CB
100
AcDbEntity
  8
ZUWAKU
  6
CONTINUOUS
 62
       9
100
AcDbLine
 10
-207.38564065
 20
3.10940108
 30
0.0
 11
-210.0
 21
3.10940108
 31
0.0
  0
LINE
  5
1CC
100
AcDbEntity
  8
ZUWAKU
  6
CONTINUOUS
 62
       9
100
AcDbLine
 10
-207.73205081
 20
3.30940108
 30
0.0
 11
-210.0
 21
3.30940108
 31
0.0
  0
LINE
  5
1CD
100
AcDbEntity
  8
ZUWAKU
  6
CONTINUOUS
 62
       9
100
AcDbLine
 10
-208.07846097
 20
3.50940108
 30
0.0
 11
-210.0
 21
3.50940108
 31
0.0
  0
LINE
  5
1CE
100
AcDbEntity
  8
ZUWAKU
  6
CONTINUOUS
 62
       9
100
AcDbLine
 10
-208.42487113
 20
3.70940108
 30
0.0
 11
-210.0
 21
3.70940108
 31
0.0
  0
LINE
  5
1CF
100
AcDbEntity
  8
ZUWAKU
  6
CONTINUOUS
 62
       9
100
AcDbLine
 10
-208.77128129
 20
3.90940108
 30
0.0
 11
-210.0
 21
3.90940108
 31
0.0
  0
LINE
  5
1D0
100
AcDbEntity
  8
ZUWAKU
  6
CONTINUOUS
 62
       9
100
AcDbLine
 10
-209.11769145
 20
4.10940108
 30
0.0
 11
-210.0
 21
4.10940108
 31
0.0
  0
LINE
  5
1D1
100
AcDbEntity
  8
ZUWAKU
  6
CONTINUOUS
 62
       9
100
AcDbLine
 10
-209.46410162
 20
4.30940108
 30
0.0
 11
-210.0
 21
4.30940108
 31
0.0
  0
LINE
  5
1D2
100
AcDbEntity
  8
ZUWAKU
  6
CONTINUOUS
 62
       9
100
AcDbLine
 10
-209.81051178
 20
4.50940108
 30
0.0
 11
-210.0
 21
4.50940108
 31
0.0
  0
LINE
  5
1D3
100
AcDbEntity
  8
ZUWAKU
  6
CONTINUOUS
 62
       9
100
AcDbLine
 10
210.0
 20
-297.0
 30
0.0
 11
220.0
 21
-297.0
 31
0.0
  0
LINE
  5
1D4
100
AcDbEntity
  8
ZUWAKU
  6
CONTINUOUS
 62
       9
100
AcDbLine
 10
-210.0
 20
-297.0
 30
0.0
 11
-210.0
 21
-307.0
 31
0.0
  0
LINE
  5
1D5
100
AcDbEntity
  8
ZUWAKU
  6
CONTINUOUS
 62
       9
100
AcDbLine
 10
-210.0
 20
-297.0
 30
0.0
 11
-220.0
 21
-297.0
 31
0.0
  0
LINE
  5
1D6
100
AcDbEntity
  8
ZUWAKU
  6
CONTINUOUS
 62
       9
100
AcDbLine
 10
210.0
 20
-297.0
 30
0.0
 11
210.0
 21
-307.0
 31
0.0
  0
LINE
  5
1D7
100
AcDbEntity
  8
ZUWAKU
  6
CONTINUOUS
 62
       9
100
AcDbLine
 10
210.0
 20
297.0
 30
0.0
 11
220.0
 21
297.0
 31
0.0
  0
LINE
  5
1D8
100
AcDbEntity
  8
ZUWAKU
  6
CONTINUOUS
 62
       9
100
AcDbLine
 10
-210.0
 20
297.0
 30
0.0
 11
-220.0
 21
297.0
 31
0.0
  0
LINE
  5
1D9
100
AcDbEntity
  8
ZUWAKU
  6
CONTINUOUS
 62
       9
100
AcDbLine
 10
-210.0
 20
297.0
 30
0.0
 11
-210.0
 21
307.0
 31
0.0
  0
POINT
  5
1DA
100
AcDbEntity
  8
ZUWAKU
  6
CONTINUOUS
 62
       9
100
AcDbPoint
 10
125.625
 20
276.72777628
 30
0.0
  0
POINT
  5
1DB
100
AcDbEntity
  8
ZUWAKU
  6
CONTINUOUS
 62
       9
100
AcDbPoint
 10
124.375
 20
-270.17858659
 30
0.0
  0
POINT
  5
1DC
100
AcDbEntity
  8
ZUWAKU
  6
CONTINUOUS
 62
       9
100
AcDbPoint
 10
-10.5625
 20
-270.17858659
 30
0.0
  0
POINT
  5
1DD
100
AcDbEntity
  8
ZUWAKU
  6
CONTINUOUS
 62
       9
100
AcDbPoint
 10
42.25
 20
-239.74108659
 30
0.0
  0
POINT
  5
1DE
100
AcDbEntity
  8
ZUWAKU
  6
CONTINUOUS
 62
       9
100
AcDbPoint
 10
-166.25
 20
-239.74108659
 30
0.0
  0
POINT
  5
1DF
100
AcDbEntity
  8
ZUWAKU
  6
CONTINUOUS
 62
       9
100
AcDbPoint
 10
-73.125
 20
-239.74108659
 30
0.0
  0
POINT
  5
1E0
100
AcDbEntity
  8
ZUWAKU
  6
CONTINUOUS
 62
       9
100
AcDbPoint
 10
55.375
 20
-239.74108659
 30
0.0
  0
POINT
  5
1E1
100
AcDbEntity
  8
ZUWAKU
  6
CONTINUOUS
 62
       9
100
AcDbPoint
 10
42.25
 20
-229.74108659
 30
0.0
  0
POINT
  5
1E2
100
AcDbEntity
  8
ZUWAKU
  6
CONTINUOUS
 62
       9
100
AcDbPoint
 10
-166.25
 20
-229.74108659
 30
0.0
  0
POINT
  5
1E3
100
AcDbEntity
  8
ZUWAKU
  6
CONTINUOUS
 62
       9
100
AcDbPoint
 10
-73.125
 20
-229.74108659
 30
0.0
  0
POINT
  5
1E4
100
AcDbEntity
  8
ZUWAKU
  6
CONTINUOUS
 62
       9
100
AcDbPoint
 10
55.375
 20
-229.74108659
 30
0.0
  0
POINT
  5
1E5
100
AcDbEntity
  8
ZUWAKU
  6
CONTINUOUS
 62
       9
100
AcDbPoint
 10
42.25
 20
-219.74108659
 30
0.0
  0
POINT
  5
1E6
100
AcDbEntity
  8
ZUWAKU
  6
CONTINUOUS
 62
       9
100
AcDbPoint
 10
-166.25
 20
-219.74108659
 30
0.0
  0
POINT
  5
1E7
100
AcDbEntity
  8
ZUWAKU
  6
CONTINUOUS
 62
       9
100
AcDbPoint
 10
-73.125
 20
-219.74108659
 30
0.0
  0
POINT
  5
1E8
100
AcDbEntity
  8
ZUWAKU
  6
CONTINUOUS
 62
       9
100
AcDbPoint
 10
55.375
 20
-219.74108659
 30
0.0
  0
POINT
  5
1E9
100
AcDbEntity
  8
ZUWAKU
  6
CONTINUOUS
 62
       9
100
AcDbPoint
 10
42.25
 20
-209.74108659
 30
0.0
  0
POINT
  5
1EA
100
AcDbEntity
  8
ZUWAKU
  6
CONTINUOUS
 62
       9
100
AcDbPoint
 10
-166.25
 20
-209.74108659
 30
0.0
  0
POINT
  5
1EB
100
AcDbEntity
  8
ZUWAKU
  6
CONTINUOUS
 62
       9
100
AcDbPoint
 10
-73.125
 20
-209.74108659
 30
0.0
  0
POINT
  5
1EC
100
AcDbEntity
  8
ZUWAKU
  6
CONTINUOUS
 62
       9
100
AcDbPoint
 10
55.375
 20
-209.74108659
 30
0.0
  0
POINT
  5
1ED
100
AcDbEntity
  8
ZUWAKU
  6
CONTINUOUS
 62
       9
100
AcDbPoint
 10
42.25
 20
-199.74108659
 30
0.0
  0
POINT
  5
1EE
100
AcDbEntity
  8
ZUWAKU
  6
CONTINUOUS
 62
       9
100
AcDbPoint
 10
-166.25
 20
-199.74108659
 30
0.0
  0
POINT
  5
1EF
100
AcDbEntity
  8
ZUWAKU
  6
CONTINUOUS
 62
       9
100
AcDbPoint
 10
-73.125
 20
-199.74108659
 30
0.0
  0
POINT
  5
1F0
100
AcDbEntity
  8
ZUWAKU
  6
CONTINUOUS
 62
       9
100
AcDbPoint
 10
55.375
 20
-199.74108659
 30
0.0
  0
POINT
  5
1F1
100
AcDbEntity
  8
ZUWAKU
  6
CONTINUOUS
 62
       9
100
AcDbPoint
 10
42.25
 20
-189.74108659
 30
0.0
  0
POINT
  5
1F2
100
AcDbEntity
  8
ZUWAKU
  6
CONTINUOUS
 62
       9
100
AcDbPoint
 10
-166.25
 20
-189.74108659
 30
0.0
  0
POINT
  5
1F3
100
AcDbEntity
  8
ZUWAKU
  6
CONTINUOUS
 62
       9
100
AcDbPoint
 10
-73.125
 20
-189.74108659
 30
0.0
  0
POINT
  5
1F4
100
AcDbEntity
  8
ZUWAKU
  6
CONTINUOUS
 62
       9
100
AcDbPoint
 10
55.375
 20
-189.74108659
 30
0.0
  0
POINT
  5
1F5
100
AcDbEntity
  8
ZUWAKU
  6
CONTINUOUS
 62
       9
100
AcDbPoint
 10
42.25
 20
-179.74108659
 30
0.0
  0
POINT
  5
1F6
100
AcDbEntity
  8
ZUWAKU
  6
CONTINUOUS
 62
       9
100
AcDbPoint
 10
-166.25
 20
-179.74108659
 30
0.0
  0
POINT
  5
1F7
100
AcDbEntity
  8
ZUWAKU
  6
CONTINUOUS
 62
       9
100
AcDbPoint
 10
-73.125
 20
-179.74108659
 30
0.0
  0
POINT
  5
1F8
100
AcDbEntity
  8
ZUWAKU
  6
CONTINUOUS
 62
       9
100
AcDbPoint
 10
55.375
 20
-179.74108659
 30
0.0
  0
POINT
  5
1F9
100
AcDbEntity
  8
0
  6
CONTINUOUS
 62
       5
100
AcDbPoint
 10
-64.04065114
 20
-101.57950045
 30
0.0
  0
POINT
  5
1FA
100
AcDbEntity
  8
0
  6
CONTINUOUS
 62
       5
100
AcDbPoint
 10
126.00787225
 20
150.58769139
 30
0.0
  0
POINT
  5
1FB
100
AcDbEntity
  8
0
  6
CONTINUOUS
 62
       5
100
AcDbPoint
 10
98.31927657
 20
135.82865509
 30
0.0
  0
LINE
  5
1FC
100
AcDbEntity
  8
ZUWAKU
  6
CONTINUOUS
 62
      43
100
AcDbLine
 10
-182.625
 20
266.82163914
 30
0.0
 11
188.75
 21
266.82163914
 31
0.0
  0
ELLIPSE
  5
1FD
100
AcDbEntity
  8
ZUWAKU
  6
CONTINUOUS
 62
      43
100
AcDbEllipse
 10
-153.6875
 20
280.81698873
 30
0.0
 11
-25.5625
 21
0.0
 31
0.0
210
0.0
220
0.0
230
1.0
 40
0.40365317
 41
0.0
 42
6.2831853071796004
  0
LINE
  5
1FE
100
AcDbEntity
  8
ZUWAKU
  6
CONTINUOUS
 62
      43
100
AcDbLine
 10
-174.25
 20
285.75891341
 30
0.0
 11
-174.25
 21
276.00891341
 31
0.0
  0
LINE
  5
1FF
100
AcDbEntity
  8
ZUWAKU
  6
CONTINUOUS
 62
      43
100
AcDbLine
 10
-133.0
 20
285.75891341
 30
0.0
 11
-133.0
 21
276.00891341
 31
0.0
  0
LINE
  5
200
100
AcDbEntity
  8
ZUWAKU
  6
CONTINUOUS
 62
      43
100
AcDbLine
 10
-174.25
 20
285.75891341
 30
0.0
 11
-133.0
 21
285.75891341
 31
0.0
  0
LINE
  5
201
100
AcDbEntity
  8
ZUWAKU
  6
CONTINUOUS
 62
      43
100
AcDbLine
 10
-174.25
 20
276.00891341
 30
0.0
 11
-133.0
 21
276.00891341
 31
0.0
  0
LINE
  5
202
100
AcDbEntity
  8
ZUWAKU
  6
CONTINUOUS
 62
      43
100
AcDbLine
 10
-156.23520357
 20
291.0839975
 30
0.0
 11
-161.56028766
 21
285.75891341
 31
0.0
  0
LINE
  5
203
100
AcDbEntity
  8
ZUWAKU
  6
CONTINUOUS
 62
      43
100
AcDbLine
 10
-156.82766327
 20
291.05722323
 30
0.0
 11
-162.12597308
 21
285.75891341
 31
0.0
  0
LINE
  5
204
100
AcDbEntity
  8
ZUWAKU
  6
CONTINUOUS
 62
      43
100
AcDbLine
 10
-157.42615401
 20
291.02441791
 30
0.0
 11
-162.69165851
 21
285.75891341
 31
0.0
  0
LINE
  5
205
100
AcDbEntity
  8
ZUWAKU
  6
CONTINUOUS
 62
      43
100
AcDbLine
 10
-158.03092503
 20
290.98533232
 30
0.0
 11
-163.25734393
 21
285.75891341
 31
0.0
  0
LINE
  5
206
100
AcDbEntity
  8
ZUWAKU
  6
CONTINUOUS
 62
      43
100
AcDbLine
 10
-158.64225467
 20
290.9396881
 30
0.0
 11
-163.82302936
 21
285.75891341
 31
0.0
  0
LINE
  5
207
100
AcDbEntity
  8
ZUWAKU
  6
CONTINUOUS
 62
      43
100
AcDbLine
 10
-159.26045486
 20
290.88717334
 30
0.0
 11
-164.38871478
 21
285.75891341
 31
0.0
  0
LINE
  5
208
100
AcDbEntity
  8
ZUWAKU
  6
CONTINUOUS
 62
      43
100
AcDbLine
 10
-159.88587652
 20
290.8274371
 30
0.0
 11
-164.95440021
 21
285.75891341
 31
0.0
  0
LINE
  5
209
100
AcDbEntity
  8
ZUWAKU
  6
CONTINUOUS
 62
      43
100
AcDbLine
 10
-160.51891622
 20
290.76008282
 30
0.0
 11
-165.52008563
 21
285.75891341
 31
0.0
  0
LINE
  5
20A
100
AcDbEntity
  8
ZUWAKU
  6
CONTINUOUS
 62
      43
100
AcDbLine
 10
-161.16002442
 20
290.68466005
 30
0.0
 11
-166.08577106
 21
285.75891341
 31
0.0
  0
LINE
  5
20B
100
AcDbEntity
  8
ZUWAKU
  6
CONTINUOUS
 62
      43
100
AcDbLine
 10
-161.80971576
 20
290.60065413
 30
0.0
 11
-166.65145648
 21
285.75891341
 31
0.0
  0
LINE
  5
20C
100
AcDbEntity
  8
ZUWAKU
  6
CONTINUOUS
 62
      43
100
AcDbLine
 10
-162.46858211
 20
290.50747321
 30
0.0
 11
-167.21714191
 21
285.75891341
 31
0.0
  0
LINE
  5
20D
100
AcDbEntity
  8
ZUWAKU
  6
CONTINUOUS
 62
      43
100
AcDbLine
 10
-163.1373093
 20
290.40443145
 30
0.0
 11
-167.78282733
 21
285.75891341
 31
0.0
  0
LINE
  5
20E
100
AcDbEntity
  8
ZUWAKU
  6
CONTINUOUS
 62
      43
100
AcDbLine
 10
-163.81669893
 20
290.29072724
 30
0.0
 11
-168.34851276
 21
285.75891341
 31
0.0
  0
LINE
  5
20F
100
AcDbEntity
  8
ZUWAKU
  6
CONTINUOUS
 62
      43
100
AcDbLine
 10
-164.50769722
 20
290.16541438
 30
0.0
 11
-168.91419818
 21
285.75891341
 31
0.0
  0
LINE
  5
210
100
AcDbEntity
  8
ZUWAKU
  6
CONTINUOUS
 62
      43
100
AcDbLine
 10
-165.21143396
 20
290.02736306
 30
0.0
 11
-169.47988361
 21
285.75891341
 31
0.0
  0
LINE
  5
211
100
AcDbEntity
  8
ZUWAKU
  6
CONTINUOUS
 62
      43
100
AcDbLine
 10
-174.25
 20
280.98879702
 30
0.0
 11
-174.35488361
 21
280.88391341
 31
0.0
  0
LINE
  5
212
100
AcDbEntity
  8
ZUWAKU
  6
CONTINUOUS
 62
      43
100
AcDbLine
 10
-165.92927622
 20
289.87520622
 30
0.0
 11
-170.04556903
 21
285.75891341
 31
0.0
  0
LINE
  5
213
100
AcDbEntity
  8
ZUWAKU
  6
CONTINUOUS
 62
      43
100
AcDbLine
 10
-174.25
 20
281.55448244
 30
0.0
 11
-174.92056903
 21
280.88391341
 31
0.0
  0
LINE
  5
214
100
AcDbEntity
  8
ZUWAKU
  6
CONTINUOUS
 62
      43
100
AcDbLine
 10
-166.66290442
 20
289.70726345
 30
0.0
 11
-170.61125446
 21
285.75891341
 31
0.0
  0
LINE
  5
215
100
AcDbEntity
  8
ZUWAKU
  6
CONTINUOUS
 62
      43
100
AcDbLine
 10
-174.25
 20
282.12016787
 30
0.0
 11
-175.48625446
 21
280.88391341
 31
0.0
  0
LINE
  5
216
100
AcDbEntity
  8
ZUWAKU
  6
CONTINUOUS
 62
      43
100
AcDbLine
 10
-167.41442306
 20
289.52143023
 30
0.0
 11
-171.17693988
 21
285.75891341
 31
0.0
  0
LINE
  5
217
100
AcDbEntity
  8
ZUWAKU
  6
CONTINUOUS
 62
      43
100
AcDbLine
 10
-174.25
 20
282.68585329
 30
0.0
 11
-176.05193988
 21
280.88391341
 31
0.0
  0
LINE
  5
218
100
AcDbEntity
  8
ZUWAKU
  6
CONTINUOUS
 62
      43
100
AcDbLine
 10
-168.18652817
 20
289.31501055
 30
0.0
 11
-171.74262531
 21
285.75891341
 31
0.0
  0
LINE
  5
219
100
AcDbEntity
  8
ZUWAKU
  6
CONTINUOUS
 62
      43
100
AcDbLine
 10
-174.25
 20
283.25153872
 30
0.0
 11
-176.61762531
 21
280.88391341
 31
0.0
  0
LINE
  5
21A
100
AcDbEntity
  8
ZUWAKU
  6
CONTINUOUS
 62
      43
100
AcDbLine
 10
-168.98277117
 20
289.08445298
 30
0.0
 11
-172.30831073
 21
285.75891341
 31
0.0
  0
LINE
  5
21B
100
AcDbEntity
  8
ZUWAKU
  6
CONTINUOUS
 62
      43
100
AcDbLine
 10
-174.25
 20
283.81722414
 30
0.0
 11
-177.18331073
 21
280.88391341
 31
0.0
  0
LINE
  5
21C
100
AcDbEntity
  8
ZUWAKU
  6
CONTINUOUS
 62
      43
100
AcDbLine
 10
-169.80799782
 20
288.82491175
 30
0.0
 11
-172.87399616
 21
285.75891341
 31
0.0
  0
LINE
  5
21D
100
AcDbEntity
  8
ZUWAKU
  6
CONTINUOUS
 62
      43
100
AcDbLine
 10
-174.25
 20
284.38290957
 30
0.0
 11
-177.74899616
 21
280.88391341
 31
0.0
  0
LINE
  5
21E
100
AcDbEntity
  8
ZUWAKU
  6
CONTINUOUS
 62
      43
100
AcDbLine
 10
-170.66912964
 20
288.52946536
 30
0.0
 11
-173.43968158
 21
285.75891341
 31
0.0
  0
LINE
  5
21F
100
AcDbEntity
  8
ZUWAKU
  6
CONTINUOUS
 62
      43
100
AcDbLine
 10
-174.25
 20
284.94859499
 30
0.0
 11
-178.31468158
 21
280.88391341
 31
0.0
  0
LINE
  5
220
100
AcDbEntity
  8
ZUWAKU
  6
CONTINUOUS
 62
      43
100
AcDbLine
 10
-171.57668622
 20
288.1875942
 30
0.0
 11
-174.00536701
 21
285.75891341
 31
0.0
  0
LINE
  5
221
100
AcDbEntity
  8
ZUWAKU
  6
CONTINUOUS
 62
      43
100
AcDbLine
 10
-174.25
 20
285.51428042
 30
0.0
 11
-178.88036701
 21
280.88391341
 31
0.0
  0
LINE
  5
222
100
AcDbEntity
  8
ZUWAKU
  6
CONTINUOUS
 62
      43
100
AcDbLine
 10
-172.54814842
 20
287.78181743
 30
0.0
 11
-179.2411267
 21
281.08883915
 31
0.0
  0
LINE
  5
223
100
AcDbEntity
  8
ZUWAKU
  6
CONTINUOUS
 62
      43
100
AcDbLine
 10
-173.61695554
 20
287.27869572
 30
0.0
 11
-179.14517703
 21
281.75047424
 31
0.0
  0
LINE
  5
224
100
AcDbEntity
  8
ZUWAKU
  6
CONTINUOUS
 62
      43
100
AcDbLine
 10
-174.866365
 20
286.5949717
 30
0.0
 11
-178.86862504
 21
282.59271166
 31
0.0
  0
LINE
  5
225
100
AcDbEntity
  8
ZUWAKU
  6
CONTINUOUS
 62
      43
100
AcDbLine
 10
-176.81389684
 20
285.21312527
 30
0.0
 11
-177.89395065
 21
284.13307147
 31
0.0
  0
LINE
  5
226
100
AcDbEntity
  8
ZUWAKU
  6
CONTINUOUS
 62
      43
100
AcDbLine
 10
-155.64855111
 20
291.10496454
 30
0.0
 11
-160.99460223
 21
285.75891341
 31
0.0
  0
LINE
  5
227
100
AcDbEntity
  8
ZUWAKU
  6
CONTINUOUS
 62
      43
100
AcDbLine
 10
-155.0675044
 20
291.12032582
 30
0.0
 11
-160.42891681
 21
285.75891341
 31
0.0
  0
LINE
  5
228
100
AcDbEntity
  8
ZUWAKU
  6
CONTINUOUS
 62
      43
100
AcDbLine
 10
-154.49188171
 20
291.13026308
 30
0.0
 11
-159.86323138
 21
285.75891341
 31
0.0
  0
LINE
  5
229
100
AcDbEntity
  8
ZUWAKU
  6
CONTINUOUS
 62
      43
100
AcDbLine
 10
-153.92151885
 20
291.13494052
 30
0.0
 11
-159.29754596
 21
285.75891341
 31
0.0
  0
LINE
  5
22A
100
AcDbEntity
  8
ZUWAKU
  6
CONTINUOUS
 62
      43
100
AcDbLine
 10
-153.35626731
 20
291.13450664
 30
0.0
 11
-158.73186053
 21
285.75891341
 31
0.0
  0
LINE
  5
22B
100
AcDbEntity
  8
ZUWAKU
  6
CONTINUOUS
 62
      43
100
AcDbLine
 10
-152.79599267
 20
291.12909585
 30
0.0
 11
-158.16617511
 21
285.75891341
 31
0.0
  0
LINE
  5
22C
100
AcDbEntity
  8
ZUWAKU
  6
CONTINUOUS
 62
      43
100
AcDbLine
 10
-152.24057326
 20
291.11882984
 30
0.0
 11
-157.60048968
 21
285.75891341
 31
0.0
  0
LINE
  5
22D
100
AcDbEntity
  8
ZUWAKU
  6
CONTINUOUS
 62
      43
100
AcDbLine
 10
-151.68989895
 20
291.10381872
 30
0.0
 11
-157.03480426
 21
285.75891341
 31
0.0
  0
LINE
  5
22E
100
AcDbEntity
  8
ZUWAKU
  6
CONTINUOUS
 62
      43
100
AcDbLine
 10
-151.14387017
 20
291.08416208
 30
0.0
 11
-156.46911883
 21
285.75891341
 31
0.0
  0
LINE
  5
22F
100
AcDbEntity
  8
ZUWAKU
  6
CONTINUOUS
 62
      43
100
AcDbLine
 10
-150.60239703
 20
291.05994979
 30
0.0
 11
-155.90343341
 21
285.75891341
 31
0.0
  0
LINE
  5
230
100
AcDbEntity
  8
ZUWAKU
  6
CONTINUOUS
 62
      43
100
AcDbLine
 10
-150.06539856
 20
291.03126284
 30
0.0
 11
-155.33774798
 21
285.75891341
 31
0.0
  0
LINE
  5
231
100
AcDbEntity
  8
ZUWAKU
  6
CONTINUOUS
 62
      43
100
AcDbLine
 10
-149.53280204
 20
290.99817393
 30
0.0
 11
-154.77206256
 21
285.75891341
 31
0.0
  0
LINE
  5
232
100
AcDbEntity
  8
ZUWAKU
  6
CONTINUOUS
 62
      43
100
AcDbLine
 10
-149.00454248
 20
290.96074807
 30
0.0
 11
-154.20637713
 21
285.75891341
 31
0.0
  0
LINE
  5
233
100
AcDbEntity
  8
ZUWAKU
  6
CONTINUOUS
 62
      43
100
AcDbLine
 10
-148.48056206
 20
290.91904306
 30
0.0
 11
-153.64069171
 21
285.75891341
 31
0.0
  0
LINE
  5
234
100
AcDbEntity
  8
ZUWAKU
  6
CONTINUOUS
 62
      43
100
AcDbLine
 10
-147.96080979
 20
290.87310991
 30
0.0
 11
-153.07500628
 21
285.75891341
 31
0.0
  0
LINE
  5
235
100
AcDbEntity
  8
ZUWAKU
  6
CONTINUOUS
 62
      43
100
AcDbLine
 10
-147.44524105
 20
290.82299322
 30
0.0
 11
-152.50932086
 21
285.75891341
 31
0.0
  0
LINE
  5
236
100
AcDbEntity
  8
ZUWAKU
  6
CONTINUOUS
 62
      43
100
AcDbLine
 10
-146.93381738
 20
290.76873147
 30
0.0
 11
-151.94363543
 21
285.75891341
 31
0.0
  0
LINE
  5
237
100
AcDbEntity
  8
ZUWAKU
  6
CONTINUOUS
 62
      43
100
AcDbLine
 10
-146.42650613
 20
290.71035729
 30
0.0
 11
-151.37795001
 21
285.75891341
 31
0.0
  0
LINE
  5
238
100
AcDbEntity
  8
ZUWAKU
  6
CONTINUOUS
 62
      43
100
AcDbLine
 10
-145.92328031
 20
290.64789769
 30
0.0
 11
-150.81226458
 21
285.75891341
 31
0.0
  0
LINE
  5
239
100
AcDbEntity
  8
ZUWAKU
  6
CONTINUOUS
 62
      43
100
AcDbLine
 10
-145.42411836
 20
290.58137421
 30
0.0
 11
-150.24657916
 21
285.75891341
 31
0.0
  0
LINE
  5
23A
100
AcDbEntity
  8
ZUWAKU
  6
CONTINUOUS
 62
      43
100
AcDbLine
 10
-144.92900406
 20
290.51080309
 30
0.0
 11
-149.68089373
 21
285.75891341
 31
0.0
  0
LINE
  5
23B
100
AcDbEntity
  8
ZUWAKU
  6
CONTINUOUS
 62
      43
100
AcDbLine
 10
-144.43792637
 20
290.43619535
 30
0.0
 11
-149.11520831
 21
285.75891341
 31
0.0
  0
LINE
  5
23C
100
AcDbEntity
  8
ZUWAKU
  6
CONTINUOUS
 62
      43
100
AcDbLine
 10
-143.95087942
 20
290.35755687
 30
0.0
 11
-148.54952288
 21
285.75891341
 31
0.0
  0
LINE
  5
23D
100
AcDbEntity
  8
ZUWAKU
  6
CONTINUOUS
 62
      43
100
AcDbLine
 10
-143.46786243
 20
290.27488845
 30
0.0
 11
-147.98383746
 21
285.75891341
 31
0.0
  0
LINE
  5
23E
100
AcDbEntity
  8
ZUWAKU
  6
CONTINUOUS
 62
      43
100
AcDbLine
 10
-142.9888797
 20
290.18818575
 30
0.0
 11
-147.41815203
 21
285.75891341
 31
0.0
  0
LINE
  5
23F
100
AcDbEntity
  8
ZUWAKU
  6
CONTINUOUS
 62
      43
100
AcDbLine
 10
-142.51394068
 20
290.09743934
 30
0.0
 11
-146.85246661
 21
285.75891341
 31
0.0
  0
LINE
  5
240
100
AcDbEntity
  8
ZUWAKU
  6
CONTINUOUS
 62
      43
100
AcDbLine
 10
-142.04306
 20
290.00263459
 30
0.0
 11
-146.28678118
 21
285.75891341
 31
0.0
  0
LINE
  5
241
100
AcDbEntity
  8
ZUWAKU
  6
CONTINUOUS
 62
      43
100
AcDbLine
 10
-141.57625756
 20
289.90375161
 30
0.0
 11
-145.72109576
 21
285.75891341
 31
0.0
  0
LINE
  5
242
100
AcDbEntity
  8
ZUWAKU
  6
CONTINUOUS
 62
      43
100
AcDbLine
 10
-141.11355867
 20
289.80076507
 30
0.0
 11
-145.15541033
 21
285.75891341
 31
0.0
  0
LINE
  5
243
100
AcDbEntity
  8
ZUWAKU
  6
CONTINUOUS
 62
      43
100
AcDbLine
 10
-140.65499422
 20
289.6936441
 30
0.0
 11
-144.58972491
 21
285.75891341
 31
0.0
  0
LINE
  5
244
100
AcDbEntity
  8
ZUWAKU
  6
CONTINUOUS
 62
      43
100
AcDbLine
 10
-140.20060086
 20
289.58235204
 30
0.0
 11
-144.02403948
 21
285.75891341
 31
0.0
  0
LINE
  5
245
100
AcDbEntity
  8
ZUWAKU
  6
CONTINUOUS
 62
      43
100
AcDbLine
 10
-139.75042129
 20
289.46684618
 30
0.0
 11
-143.45835406
 21
285.75891341
 31
0.0
  0
LINE
  5
246
100
AcDbEntity
  8
ZUWAKU
  6
CONTINUOUS
 62
      43
100
AcDbLine
 10
-139.30450451
 20
289.34707754
 30
0.0
 11
-142.89266863
 21
285.75891341
 31
0.0
  0
LINE
  5
247
100
AcDbEntity
  8
ZUWAKU
  6
CONTINUOUS
 62
      43
100
AcDbLine
 10
-138.8629062
 20
289.22299042
 30
0.0
 11
-142.32698321
 21
285.75891341
 31
0.0
  0
LINE
  5
248
100
AcDbEntity
  8
ZUWAKU
  6
CONTINUOUS
 62
      43
100
AcDbLine
 10
-138.4256891
 20
289.09452209
 30
0.0
 11
-141.76129778
 21
285.75891341
 31
0.0
  0
LINE
  5
249
100
AcDbEntity
  8
ZUWAKU
  6
CONTINUOUS
 62
      43
100
AcDbLine
 10
-137.99292352
 20
288.96160226
 30
0.0
 11
-141.19561236
 21
285.75891341
 31
0.0
  0
LINE
  5
24A
100
AcDbEntity
  8
ZUWAKU
  6
CONTINUOUS
 62
      43
100
AcDbLine
 10
-137.5646878
 20
288.82415254
 30
0.0
 11
-140.62992693
 21
285.75891341
 31
0.0
  0
LINE
  5
24B
100
AcDbEntity
  8
ZUWAKU
  6
CONTINUOUS
 62
      43
100
AcDbLine
 10
-137.14106905
 20
288.68208588
 30
0.0
 11
-140.06424151
 21
285.75891341
 31
0.0
  0
LINE
  5
24C
100
AcDbEntity
  8
ZUWAKU
  6
CONTINUOUS
 62
      43
100
AcDbLine
 10
-136.72216376
 20
288.53530574
 30
0.0
 11
-139.49855608
 21
285.75891341
 31
0.0
  0
LINE
  5
24D
100
AcDbEntity
  8
ZUWAKU
  6
CONTINUOUS
 62
      43
100
AcDbLine
 10
-136.30807873
 20
288.38370534
 30
0.0
 11
-138.93287066
 21
285.75891341
 31
0.0
  0
LINE
  5
24E
100
AcDbEntity
  8
ZUWAKU
  6
CONTINUOUS
 62
      43
100
AcDbLine
 10
-135.89893197
 20
288.22716668
 30
0.0
 11
-138.36718523
 21
285.75891341
 31
0.0
  0
LINE
  5
24F
100
AcDbEntity
  8
ZUWAKU
  6
CONTINUOUS
 62
      43
100
AcDbLine
 10
-135.49485385
 20
288.06555937
 30
0.0
 11
-137.80149981
 21
285.75891341
 31
0.0
  0
LINE
  5
250
100
AcDbEntity
  8
ZUWAKU
  6
CONTINUOUS
 62
      43
100
AcDbLine
 10
-135.0959884
 20
287.8987394
 30
0.0
 11
-137.23581438
 21
285.75891341
 31
0.0
  0
LINE
  5
251
100
AcDbEntity
  8
ZUWAKU
  6
CONTINUOUS
 62
      43
100
AcDbLine
 10
-134.70249481
 20
287.72654757
 30
0.0
 11
-136.67012896
 21
285.75891341
 31
0.0
  0
LINE
  5
252
100
AcDbEntity
  8
ZUWAKU
  6
CONTINUOUS
 62
      43
100
AcDbLine
 10
-134.31454922
 20
287.54880773
 30
0.0
 11
-136.10444353
 21
285.75891341
 31
0.0
  0
LINE
  5
253
100
AcDbEntity
  8
ZUWAKU
  6
CONTINUOUS
 62
      43
100
AcDbLine
 10
-133.93234679
 20
287.36532473
 30
0.0
 11
-135.53875811
 21
285.75891341
 31
0.0
  0
LINE
  5
254
100
AcDbEntity
  8
ZUWAKU
  6
CONTINUOUS
 62
      43
100
AcDbLine
 10
-133.55610419
 20
287.17588191
 30
0.0
 11
-134.97307269
 21
285.75891341
 31
0.0
  0
LINE
  5
255
100
AcDbEntity
  8
ZUWAKU
  6
CONTINUOUS
 62
      43
100
AcDbLine
 10
-133.18606247
 20
286.9802382
 30
0.0
 11
-134.40738726
 21
285.75891341
 31
0.0
  0
LINE
  5
256
100
AcDbEntity
  8
ZUWAKU
  6
CONTINUOUS
 62
      43
100
AcDbLine
 10
-132.82249062
 20
286.77812463
 30
0.0
 11
-133.84170184
 21
285.75891341
 31
0.0
  0
LINE
  5
257
100
AcDbEntity
  8
ZUWAKU
  6
CONTINUOUS
 62
      43
100
AcDbLine
 10
-132.46568973
 20
286.5692401
 30
0.0
 11
-133.27601641
 21
285.75891341
 31
0.0
  0
LINE
  5
258
100
AcDbEntity
  8
ZUWAKU
  6
CONTINUOUS
 62
      43
100
AcDbLine
 10
-132.1159981
 20
286.3532463
 30
0.0
 11
-133.0
 21
285.4692444
 31
0.0
  0
LINE
  5
259
100
AcDbEntity
  8
ZUWAKU
  6
CONTINUOUS
 62
      43
100
AcDbLine
 10
-131.77379752
 20
286.12976145
 30
0.0
 11
-133.0
 21
284.90355897
 31
0.0
  0
LINE
  5
25A
100
AcDbEntity
  8
ZUWAKU
  6
CONTINUOUS
 62
      43
100
AcDbLine
 10
-131.43952091
 20
285.89835263
 30
0.0
 11
-133.0
 21
284.33787355
 31
0.0
  0
LINE
  5
25B
100
AcDbEntity
  8
ZUWAKU
  6
CONTINUOUS
 62
      43
100
AcDbLine
 10
-131.11366198
 20
285.65852614
 30
0.0
 11
-133.0
 21
283.77218812
 31
0.0
  0
LINE
  5
25C
100
AcDbEntity
  8
ZUWAKU
  6
CONTINUOUS
 62
      43
100
AcDbLine
 10
-130.79678731
 20
285.40971539
 30
0.0
 11
-133.0
 21
283.2065027
 31
0.0
  0
LINE
  5
25D
100
AcDbEntity
  8
ZUWAKU
  6
CONTINUOUS
 62
      43
100
AcDbLine
 10
-130.48955184
 20
285.15126543
 30
0.0
 11
-133.0
 21
282.64081727
 31
0.0
  0
LINE
  5
25E
100
AcDbEntity
  8
ZUWAKU
  6
CONTINUOUS
 62
      43
100
AcDbLine
 10
-130.19271897
 20
284.88241287
 30
0.0
 11
-133.0
 21
282.07513185
 31
0.0
  0
LINE
  5
25F
100
AcDbEntity
  8
ZUWAKU
  6
CONTINUOUS
 62
      43
100
AcDbLine
 10
-129.90718694
 20
284.60225949
 30
0.0
 11
-133.0
 21
281.50944642
 31
0.0
  0
LINE
  5
260
100
AcDbEntity
  8
ZUWAKU
  6
CONTINUOUS
 62
      43
100
AcDbLine
 10
-129.63402428
 20
284.30973672
 30
0.0
 11
-133.0
 21
280.943761
 31
0.0
  0
LINE
  5
261
100
AcDbEntity
  8
ZUWAKU
  6
CONTINUOUS
 62
      43
100
AcDbLine
 10
-129.37451841
 20
284.00355716
 30
0.0
 11
-132.49416216
 21
280.88391341
 31
0.0
  0
LINE
  5
262
100
AcDbEntity
  8
ZUWAKU
  6
CONTINUOUS
 62
      43
100
AcDbLine
 10
-129.13024373
 20
283.68214642
 30
0.0
 11
-131.92847674
 21
280.88391341
 31
0.0
  0
LINE
  5
263
100
AcDbEntity
  8
ZUWAKU
  6
CONTINUOUS
 62
      43
100
AcDbLine
 10
-128.90316
 20
283.34354473
 30
0.0
 11
-131.36279131
 21
280.88391341
 31
0.0
  0
LINE
  5
264
100
AcDbEntity
  8
ZUWAKU
  6
CONTINUOUS
 62
      43
100
AcDbLine
 10
-128.69575922
 20
282.98526008
 30
0.0
 11
-130.79710589
 21
280.88391341
 31
0.0
  0
LINE
  5
265
100
AcDbEntity
  8
ZUWAKU
  6
CONTINUOUS
 62
      43
100
AcDbLine
 10
-128.51129392
 20
282.60403995
 30
0.0
 11
-130.23142046
 21
280.88391341
 31
0.0
  0
LINE
  5
266
100
AcDbEntity
  8
ZUWAKU
  6
CONTINUOUS
 62
      43
100
AcDbLine
 10
-128.35415028
 20
282.19549817
 30
0.0
 11
-129.66573504
 21
280.88391341
 31
0.0
  0
LINE
  5
267
100
AcDbEntity
  8
ZUWAKU
  6
CONTINUOUS
 62
      43
100
AcDbLine
 10
-128.23049728
 20
281.75346574
 30
0.0
 11
-129.10004961
 21
280.88391341
 31
0.0
  0
LINE
  5
268
100
AcDbEntity
  8
ZUWAKU
  6
CONTINUOUS
 62
      43
100
AcDbLine
 10
-128.1495134
 20
281.2687642
 30
0.0
 11
-128.53436419
 21
280.88391341
 31
0.0
  0
LINE
  5
269
100
AcDbEntity
  8
ZUWAKU
  6
CONTINUOUS
 62
      43
100
AcDbLine
 10
-145.74778825
 20
276.00891341
 30
0.0
 11
-151.20950105
 21
270.54720061
 31
0.0
  0
LINE
  5
26A
100
AcDbEntity
  8
ZUWAKU
  6
CONTINUOUS
 62
      43
100
AcDbLine
 10
-146.31347367
 20
276.00891341
 30
0.0
 11
-151.7954802
 21
270.52690688
 31
0.0
  0
LINE
  5
26B
100
AcDbEntity
  8
ZUWAKU
  6
CONTINUOUS
 62
      43
100
AcDbLine
 10
-146.8791591
 20
276.00891341
 30
0.0
 11
-152.37587608
 21
270.51219643
 31
0.0
  0
LINE
  5
26C
100
AcDbEntity
  8
ZUWAKU
  6
CONTINUOUS
 62
      43
100
AcDbLine
 10
-147.44484452
 20
276.00891341
 30
0.0
 11
-152.95086825
 21
270.50288969
 31
0.0
  0
LINE
  5
26D
100
AcDbEntity
  8
ZUWAKU
  6
CONTINUOUS
 62
      43
100
AcDbLine
 10
-148.01052995
 20
276.00891341
 30
0.0
 11
-153.52061894
 21
270.49882442
 31
0.0
  0
LINE
  5
26E
100
AcDbEntity
  8
ZUWAKU
  6
CONTINUOUS
 62
      43
100
AcDbLine
 10
-148.57621537
 20
276.00891341
 30
0.0
 11
-154.08527492
 21
270.49985386
 31
0.0
  0
LINE
  5
26F
100
AcDbEntity
  8
ZUWAKU
  6
CONTINUOUS
 62
      43
100
AcDbLine
 10
-149.1419008
 20
276.00891341
 30
0.0
 11
-154.64496903
 21
270.50584518
 31
0.0
  0
LINE
  5
270
100
AcDbEntity
  8
ZUWAKU
  6
CONTINUOUS
 62
      43
100
AcDbLine
 10
-149.70758622
 20
276.00891341
 30
0.0
 11
-155.19982153
 21
270.5166781
 31
0.0
  0
LINE
  5
271
100
AcDbEntity
  8
ZUWAKU
  6
CONTINUOUS
 62
      43
100
AcDbLine
 10
-150.27327165
 20
276.00891341
 30
0.0
 11
-155.74994124
 21
270.53224382
 31
0.0
  0
LINE
  5
272
100
AcDbEntity
  8
ZUWAKU
  6
CONTINUOUS
 62
      43
100
AcDbLine
 10
-150.83895707
 20
276.00891341
 30
0.0
 11
-156.29542654
 21
270.55244394
 31
0.0
  0
LINE
  5
273
100
AcDbEntity
  8
ZUWAKU
  6
CONTINUOUS
 62
      43
100
AcDbLine
 10
-151.4046425
 20
276.00891341
 30
0.0
 11
-156.83636623
 21
270.57718968
 31
0.0
  0
LINE
  5
274
100
AcDbEntity
  8
ZUWAKU
  6
CONTINUOUS
 62
      43
100
AcDbLine
 10
-151.97032792
 20
276.00891341
 30
0.0
 11
-157.37284028
 21
270.60640105
 31
0.0
  0
LINE
  5
275
100
AcDbEntity
  8
ZUWAKU
  6
CONTINUOUS
 62
      43
100
AcDbLine
 10
-152.53601335
 20
276.00891341
 30
0.0
 11
-157.90492045
 21
270.64000631
 31
0.0
  0
LINE
  5
276
100
AcDbEntity
  8
ZUWAKU
  6
CONTINUOUS
 62
      43
100
AcDbLine
 10
-153.10169877
 20
276.00891341
 30
0.0
 11
-158.43267088
 21
270.67794131
 31
0.0
  0
LINE
  5
277
100
AcDbEntity
  8
ZUWAKU
  6
CONTINUOUS
 62
      43
100
AcDbLine
 10
-153.6673842
 20
276.00891341
 30
0.0
 11
-158.95614853
 21
270.72014907
 31
0.0
  0
LINE
  5
278
100
AcDbEntity
  8
ZUWAKU
  6
CONTINUOUS
 62
      43
100
AcDbLine
 10
-154.23306962
 20
276.00891341
 30
0.0
 11
-159.47540366
 21
270.76657938
 31
0.0
  0
LINE
  5
279
100
AcDbEntity
  8
ZUWAKU
  6
CONTINUOUS
 62
      43
100
AcDbLine
 10
-154.79875505
 20
276.00891341
 30
0.0
 11
-159.99048011
 21
270.81718835
 31
0.0
  0
LINE
  5
27A
100
AcDbEntity
  8
ZUWAKU
  6
CONTINUOUS
 62
      43
100
AcDbLine
 10
-155.36444047
 20
276.00891341
 30
0.0
 11
-160.50141566
 21
270.87193823
 31
0.0
  0
LINE
  5
27B
100
AcDbEntity
  8
ZUWAKU
  6
CONTINUOUS
 62
      43
100
AcDbLine
 10
-155.9301259
 20
276.00891341
 30
0.0
 11
-161.00824226
 21
270.93079704
 31
0.0
  0
LINE
  5
27C
100
AcDbEntity
  8
ZUWAKU
  6
CONTINUOUS
 62
      43
100
AcDbLine
 10
-156.49581132
 20
276.00891341
 30
0.0
 11
-161.51098628
 21
270.99373846
 31
0.0
  0
LINE
  5
27D
100
AcDbEntity
  8
ZUWAKU
  6
CONTINUOUS
 62
      43
100
AcDbLine
 10
-157.06149675
 20
276.00891341
 30
0.0
 11
-162.00966861
 21
271.06074155
 31
0.0
  0
LINE
  5
27E
100
AcDbEntity
  8
ZUWAKU
  6
CONTINUOUS
 62
      43
100
AcDbLine
 10
-157.62718217
 20
276.00891341
 30
0.0
 11
-162.50430488
 21
271.13179071
 31
0.0
  0
LINE
  5
27F
100
AcDbEntity
  8
ZUWAKU
  6
CONTINUOUS
 62
      43
100
AcDbLine
 10
-158.1928676
 20
276.00891341
 30
0.0
 11
-162.99490548
 21
271.20687552
 31
0.0
  0
LINE
  5
280
100
AcDbEntity
  8
ZUWAKU
  6
CONTINUOUS
 62
      43
100
AcDbLine
 10
-158.75855302
 20
276.00891341
 30
0.0
 11
-163.48147571
 21
271.28599072
 31
0.0
  0
LINE
  5
281
100
AcDbEntity
  8
ZUWAKU
  6
CONTINUOUS
 62
      43
100
AcDbLine
 10
-159.32423845
 20
276.00891341
 30
0.0
 11
-163.96401575
 21
271.36913611
 31
0.0
  0
LINE
  5
282
100
AcDbEntity
  8
ZUWAKU
  6
CONTINUOUS
 62
      43
100
AcDbLine
 10
-159.88992387
 20
276.00891341
 30
0.0
 11
-164.44252066
 21
271.45631662
 31
0.0
  0
LINE
  5
283
100
AcDbEntity
  8
ZUWAKU
  6
CONTINUOUS
 62
      43
100
AcDbLine
 10
-160.4556093
 20
276.00891341
 30
0.0
 11
-164.91698041
 21
271.5475423
 31
0.0
  0
LINE
  5
284
100
AcDbEntity
  8
ZUWAKU
  6
CONTINUOUS
 62
      43
100
AcDbLine
 10
-161.02129472
 20
276.00891341
 30
0.0
 11
-165.38737974
 21
271.64282839
 31
0.0
  0
LINE
  5
285
100
AcDbEntity
  8
ZUWAKU
  6
CONTINUOUS
 62
      43
100
AcDbLine
 10
-161.58698015
 20
276.00891341
 30
0.0
 11
-165.85369812
 21
271.74219543
 31
0.0
  0
LINE
  5
286
100
AcDbEntity
  8
ZUWAKU
  6
CONTINUOUS
 62
      43
100
AcDbLine
 10
-162.15266557
 20
276.00891341
 30
0.0
 11
-166.3159096
 21
271.84566939
 31
0.0
  0
LINE
  5
287
100
AcDbEntity
  8
ZUWAKU
  6
CONTINUOUS
 62
      43
100
AcDbLine
 10
-162.718351
 20
276.00891341
 30
0.0
 11
-166.7739826
 21
271.95328181
 31
0.0
  0
LINE
  5
288
100
AcDbEntity
  8
ZUWAKU
  6
CONTINUOUS
 62
      43
100
AcDbLine
 10
-163.28403642
 20
276.00891341
 30
0.0
 11
-167.22787978
 21
272.06507005
 31
0.0
  0
LINE
  5
289
100
AcDbEntity
  8
ZUWAKU
  6
CONTINUOUS
 62
      43
100
AcDbLine
 10
-163.84972185
 20
276.00891341
 30
0.0
 11
-167.67755771
 21
272.18107755
 31
0.0
  0
LINE
  5
28A
100
AcDbEntity
  8
ZUWAKU
  6
CONTINUOUS
 62
      43
100
AcDbLine
 10
-164.41540727
 20
276.00891341
 30
0.0
 11
-168.12296662
 21
272.30135406
 31
0.0
  0
LINE
  5
28B
100
AcDbEntity
  8
ZUWAKU
  6
CONTINUOUS
 62
      43
100
AcDbLine
 10
-164.9810927
 20
276.00891341
 30
0.0
 11
-168.56405001
 21
272.4259561
 31
0.0
  0
LINE
  5
28C
100
AcDbEntity
  8
ZUWAKU
  6
CONTINUOUS
 62
      43
100
AcDbLine
 10
-165.54677812
 20
276.00891341
 30
0.0
 11
-169.00074427
 21
272.55494726
 31
0.0
  0
LINE
  5
28D
100
AcDbEntity
  8
ZUWAKU
  6
CONTINUOUS
 62
      43
100
AcDbLine
 10
-166.11246355
 20
276.00891341
 30
0.0
 11
-169.43297819
 21
272.68839877
 31
0.0
  0
LINE
  5
28E
100
AcDbEntity
  8
ZUWAKU
  6
CONTINUOUS
 62
      43
100
AcDbLine
 10
-166.67814897
 20
276.00891341
 30
0.0
 11
-169.86067239
 21
272.82638999
 31
0.0
  0
LINE
  5
28F
100
AcDbEntity
  8
ZUWAKU
  6
CONTINUOUS
 62
      43
100
AcDbLine
 10
-167.24383439
 20
276.00891341
 30
0.0
 11
-170.28373873
 21
272.96900907
 31
0.0
  0
LINE
  5
290
100
AcDbEntity
  8
ZUWAKU
  6
CONTINUOUS
 62
      43
100
AcDbLine
 10
-167.80951982
 20
276.00891341
 30
0.0
 11
-170.70207952
 21
273.11635371
 31
0.0
  0
LINE
  5
291
100
AcDbEntity
  8
ZUWAKU
  6
CONTINUOUS
 62
      43
100
AcDbLine
 10
-168.37520524
 20
276.00891341
 30
0.0
 11
-171.1155867
 21
273.26853196
 31
0.0
  0
LINE
  5
292
100
AcDbEntity
  8
ZUWAKU
  6
CONTINUOUS
 62
      43
100
AcDbLine
 10
-168.94089067
 20
276.00891341
 30
0.0
 11
-171.52414085
 21
273.42566323
 31
0.0
  0
LINE
  5
293
100
AcDbEntity
  8
ZUWAKU
  6
CONTINUOUS
 62
      43
100
AcDbLine
 10
-169.50657609
 20
276.00891341
 30
0.0
 11
-171.92761006
 21
273.58787945
 31
0.0
  0
LINE
  5
294
100
AcDbEntity
  8
ZUWAKU
  6
CONTINUOUS
 62
      43
100
AcDbLine
 10
-170.07226152
 20
276.00891341
 30
0.0
 11
-172.32584859
 21
273.75532634
 31
0.0
  0
LINE
  5
295
100
AcDbEntity
  8
ZUWAKU
  6
CONTINUOUS
 62
      43
100
AcDbLine
 10
-170.63794694
 20
276.00891341
 30
0.0
 11
-172.71869534
 21
273.92816501
 31
0.0
  0
LINE
  5
296
100
AcDbEntity
  8
ZUWAKU
  6
CONTINUOUS
 62
      43
100
AcDbLine
 10
-171.20363237
 20
276.00891341
 30
0.0
 11
-173.10597204
 21
274.10657374
 31
0.0
  0
LINE
  5
297
100
AcDbEntity
  8
ZUWAKU
  6
CONTINUOUS
 62
      43
100
AcDbLine
 10
-171.76931779
 20
276.00891341
 30
0.0
 11
-173.48748111
 21
274.29075009
 31
0.0
  0
LINE
  5
298
100
AcDbEntity
  8
ZUWAKU
  6
CONTINUOUS
 62
      43
100
AcDbLine
 10
-172.33500322
 20
276.00891341
 30
0.0
 11
-173.86300318
 21
274.48091345
 31
0.0
  0
LINE
  5
299
100
AcDbEntity
  8
ZUWAKU
  6
CONTINUOUS
 62
      43
100
AcDbLine
 10
-172.90068864
 20
276.00891341
 30
0.0
 11
-174.23229407
 21
274.67730798
 31
0.0
  0
LINE
  5
29A
100
AcDbEntity
  8
ZUWAKU
  6
CONTINUOUS
 62
      43
100
AcDbLine
 10
-173.46637407
 20
276.00891341
 30
0.0
 11
-174.59508124
 21
274.88020624
 31
0.0
  0
LINE
  5
29B
100
AcDbEntity
  8
ZUWAKU
  6
CONTINUOUS
 62
      43
100
AcDbLine
 10
-174.03205949
 20
276.00891341
 30
0.0
 11
-174.95105948
 21
275.08991343
 31
0.0
  0
LINE
  5
29C
100
AcDbEntity
  8
ZUWAKU
  6
CONTINUOUS
 62
      43
100
AcDbLine
 10
-174.25
 20
276.35665833
 30
0.0
 11
-175.29988568
 21
275.30677265
 31
0.0
  0
LINE
  5
29D
100
AcDbEntity
  8
ZUWAKU
  6
CONTINUOUS
 62
      43
100
AcDbLine
 10
-174.25
 20
276.92234376
 30
0.0
 11
-175.64117245
 21
275.5311713
 31
0.0
  0
LINE
  5
29E
100
AcDbEntity
  8
ZUWAKU
  6
CONTINUOUS
 62
      43
100
AcDbLine
 10
-174.25
 20
277.48802918
 30
0.0
 11
-175.97448022
 21
275.76354896
 31
0.0
  0
LINE
  5
29F
100
AcDbEntity
  8
ZUWAKU
  6
CONTINUOUS
 62
      43
100
AcDbLine
 10
-174.25
 20
278.05371461
 30
0.0
 11
-176.29930736
 21
276.00440725
 31
0.0
  0
LINE
  5
2A0
100
AcDbEntity
  8
ZUWAKU
  6
CONTINUOUS
 62
      43
100
AcDbLine
 10
-174.25
 20
278.61940003
 30
0.0
 11
-176.6150777
 21
276.25432234
 31
0.0
  0
LINE
  5
2A1
100
AcDbEntity
  8
ZUWAKU
  6
CONTINUOUS
 62
      43
100
AcDbLine
 10
-174.25
 20
279.18508546
 30
0.0
 11
-176.92112461
 21
276.51396084
 31
0.0
  0
LINE
  5
2A2
100
AcDbEntity
  8
ZUWAKU
  6
CONTINUOUS
 62
      43
100
AcDbLine
 10
-174.25
 20
279.75077088
 30
0.0
 11
-177.21667029
 21
276.78410059
 31
0.0
  0
LINE
  5
2A3
100
AcDbEntity
  8
ZUWAKU
  6
CONTINUOUS
 62
      43
100
AcDbLine
 10
-174.25
 20
280.31645631
 30
0.0
 11
-177.50079841
 21
277.0656579
 31
0.0
  0
LINE
  5
2A4
100
AcDbEntity
  8
ZUWAKU
  6
CONTINUOUS
 62
      43
100
AcDbLine
 10
-174.24822832
 20
280.88391341
 30
0.0
 11
-177.77241736
 21
277.35972437
 31
0.0
  0
LINE
  5
2A5
100
AcDbEntity
  8
ZUWAKU
  6
CONTINUOUS
 62
      43
100
AcDbLine
 10
-174.81391374
 20
280.88391341
 30
0.0
 11
-178.03020982
 21
277.66761734
 31
0.0
  0
LINE
  5
2A6
100
AcDbEntity
  8
ZUWAKU
  6
CONTINUOUS
 62
      43
100
AcDbLine
 10
-175.37959917
 20
280.88391341
 30
0.0
 11
-178.27256165
 21
277.99095093
 31
0.0
  0
LINE
  5
2A7
100
AcDbEntity
  8
ZUWAKU
  6
CONTINUOUS
 62
      43
100
AcDbLine
 10
-175.94528459
 20
280.88391341
 30
0.0
 11
-178.49745899
 21
278.33173902
 31
0.0
  0
LINE
  5
2A8
100
AcDbEntity
  8
ZUWAKU
  6
CONTINUOUS
 62
      43
100
AcDbLine
 10
-176.51097002
 20
280.88391341
 30
0.0
 11
-178.70233383
 21
278.6925496
 31
0.0
  0
LINE
  5
2A9
100
AcDbEntity
  8
ZUWAKU
  6
CONTINUOUS
 62
      43
100
AcDbLine
 10
-177.07665544
 20
280.88391341
 30
0.0
 11
-178.88382277
 21
279.07674609
 31
0.0
  0
LINE
  5
2AA
100
AcDbEntity
  8
ZUWAKU
  6
CONTINUOUS
 62
      43
100
AcDbLine
 10
-177.64234087
 20
280.88391341
 30
0.0
 11
-179.03737005
 21
279.48888423
 31
0.0
  0
LINE
  5
2AB
100
AcDbEntity
  8
ZUWAKU
  6
CONTINUOUS
 62
      43
100
AcDbLine
 10
-178.20802629
 20
280.88391341
 30
0.0
 11
-179.1565309
 21
279.9354088
 31
0.0
  0
LINE
  5
2AC
100
AcDbEntity
  8
ZUWAKU
  6
CONTINUOUS
 62
      43
100
AcDbLine
 10
-178.77371172
 20
280.88391341
 30
0.0
 11
-179.2316402
 21
280.42598493
 31
0.0
  0
LINE
  5
2AD
100
AcDbEntity
  8
ZUWAKU
  6
CONTINUOUS
 62
      43
100
AcDbLine
 10
-145.18210282
 20
276.00891341
 30
0.0
 11
-150.61773961
 21
270.57327663
 31
0.0
  0
LINE
  5
2AE
100
AcDbEntity
  8
ZUWAKU
  6
CONTINUOUS
 62
      43
100
AcDbLine
 10
-144.6164174
 20
276.00891341
 30
0.0
 11
-150.01997486
 21
270.60535595
 31
0.0
  0
LINE
  5
2AF
100
AcDbEntity
  8
ZUWAKU
  6
CONTINUOUS
 62
      43
100
AcDbLine
 10
-144.05073197
 20
276.00891341
 30
0.0
 11
-149.41596076
 21
270.64368462
 31
0.0
  0
LINE
  5
2B0
100
AcDbEntity
  8
ZUWAKU
  6
CONTINUOUS
 62
      43
100
AcDbLine
 10
-143.48504655
 20
276.00891341
 30
0.0
 11
-148.80542263
 21
270.68853733
 31
0.0
  0
LINE
  5
2B1
100
AcDbEntity
  8
ZUWAKU
  6
CONTINUOUS
 62
      43
100
AcDbLine
 10
-142.91936112
 20
276.00891341
 30
0.0
 11
-148.18805278
 21
270.74022176
 31
0.0
  0
LINE
  5
2B2
100
AcDbEntity
  8
ZUWAKU
  6
CONTINUOUS
 62
      43
100
AcDbLine
 10
-142.3536757
 20
276.00891341
 30
0.0
 11
-147.5635052
 21
270.79908391
 31
0.0
  0
LINE
  5
2B3
100
AcDbEntity
  8
ZUWAKU
  6
CONTINUOUS
 62
      43
100
AcDbLine
 10
-141.78799027
 20
276.00891341
 30
0.0
 11
-146.93138914
 21
270.86551454
 31
0.0
  0
LINE
  5
2B4
100
AcDbEntity
  8
ZUWAKU
  6
CONTINUOUS
 62
      43
100
AcDbLine
 10
-141.22230485
 20
276.00891341
 30
0.0
 11
-146.291261
 21
270.93995726
 31
0.0
  0
LINE
  5
2B5
100
AcDbEntity
  8
ZUWAKU
  6
CONTINUOUS
 62
      43
100
AcDbLine
 10
-140.65661942
 20
276.00891341
 30
0.0
 11
-145.64261434
 21
271.02291849
 31
0.0
  0
LINE
  5
2B6
100
AcDbEntity
  8
ZUWAKU
  6
CONTINUOUS
 62
      43
100
AcDbLine
 10
-140.090934
 20
276.00891341
 30
0.0
 11
-144.98486724
 21
271.11498017
 31
0.0
  0
LINE
  5
2B7
100
AcDbEntity
  8
ZUWAKU
  6
CONTINUOUS
 62
      43
100
AcDbLine
 10
-139.52524857
 20
276.00891341
 30
0.0
 11
-144.317346
 21
271.21681599
 31
0.0
  0
LINE
  5
2B8
100
AcDbEntity
  8
ZUWAKU
  6
CONTINUOUS
 62
      43
100
AcDbLine
 10
-138.95956315
 20
276.00891341
 30
0.0
 11
-143.63926405
 21
271.32921251
 31
0.0
  0
LINE
  5
2B9
100
AcDbEntity
  8
ZUWAKU
  6
CONTINUOUS
 62
      43
100
AcDbLine
 10
-138.39387772
 20
276.00891341
 30
0.0
 11
-142.9496941
 21
271.45309704
 31
0.0
  0
LINE
  5
2BA
100
AcDbEntity
  8
ZUWAKU
  6
CONTINUOUS
 62
      43
100
AcDbLine
 10
-132.9531923
 20
280.88391341
 30
0.0
 11
-133.0
 21
280.83710571
 31
0.0
  0
LINE
  5
2BB
100
AcDbEntity
  8
ZUWAKU
  6
CONTINUOUS
 62
      43
100
AcDbLine
 10
-137.8281923
 20
276.00891341
 30
0.0
 11
-142.24753052
 21
271.58957519
 31
0.0
  0
LINE
  5
2BC
100
AcDbEntity
  8
ZUWAKU
  6
CONTINUOUS
 62
      43
100
AcDbLine
 10
-132.38750687
 20
280.88391341
 30
0.0
 11
-133.0
 21
280.27142029
 31
0.0
  0
LINE
  5
2BD
100
AcDbEntity
  8
ZUWAKU
  6
CONTINUOUS
 62
      43
100
AcDbLine
 10
-137.26250687
 20
276.00891341
 30
0.0
 11
-141.53143775
 21
271.73998253
 31
0.0
  0
LINE
  5
2BE
100
AcDbEntity
  8
ZUWAKU
  6
CONTINUOUS
 62
      43
100
AcDbLine
 10
-131.82182145
 20
280.88391341
 30
0.0
 11
-133.0
 21
279.70573486
 31
0.0
  0
LINE
  5
2BF
100
AcDbEntity
  8
ZUWAKU
  6
CONTINUOUS
 62
      43
100
AcDbLine
 10
-136.69682145
 20
276.00891341
 30
0.0
 11
-140.79977742
 21
271.90595744
 31
0.0
  0
LINE
  5
2C0
100
AcDbEntity
  8
ZUWAKU
  6
CONTINUOUS
 62
      43
100
AcDbLine
 10
-131.25613602
 20
280.88391341
 30
0.0
 11
-133.0
 21
279.14004944
 31
0.0
  0
LINE
  5
2C1
100
AcDbEntity
  8
ZUWAKU
  6
CONTINUOUS
 62
      43
100
AcDbLine
 10
-136.13113602
 20
276.00891341
 30
0.0
 11
-140.05050255
 21
272.08954689
 31
0.0
  0
LINE
  5
2C2
100
AcDbEntity
  8
ZUWAKU
  6
CONTINUOUS
 62
      43
100
AcDbLine
 10
-130.6904506
 20
280.88391341
 30
0.0
 11
-133.0
 21
278.57436401
 31
0.0
  0
LINE
  5
2C3
100
AcDbEntity
  8
ZUWAKU
  6
CONTINUOUS
 62
      43
100
AcDbLine
 10
-135.5654506
 20
276.00891341
 30
0.0
 11
-139.28099845
 21
272.29336556
 31
0.0
  0
LINE
  5
2C4
100
AcDbEntity
  8
ZUWAKU
  6
CONTINUOUS
 62
      43
100
AcDbLine
 10
-130.12476517
 20
280.88391341
 30
0.0
 11
-133.0
 21
278.00867859
 31
0.0
  0
LINE
  5
2C5
100
AcDbEntity
  8
ZUWAKU
  6
CONTINUOUS
 62
      43
100
AcDbLine
 10
-134.99976517
 20
276.00891341
 30
0.0
 11
-138.48783337
 21
272.52084521
 31
0.0
  0
LINE
  5
2C6
100
AcDbEntity
  8
ZUWAKU
  6
CONTINUOUS
 62
      43
100
AcDbLine
 10
-129.55907975
 20
280.88391341
 30
0.0
 11
-133.0
 21
277.44299316
 31
0.0
  0
LINE
  5
2C7
100
AcDbEntity
  8
ZUWAKU
  6
CONTINUOUS
 62
      43
100
AcDbLine
 10
-134.43407975
 20
276.00891341
 30
0.0
 11
-137.66634647
 21
272.7766467
 31
0.0
  0
LINE
  5
2C8
100
AcDbEntity
  8
ZUWAKU
  6
CONTINUOUS
 62
      43
100
AcDbLine
 10
-128.99339432
 20
280.88391341
 30
0.0
 11
-133.0
 21
276.87730774
 31
0.0
  0
LINE
  5
2C9
100
AcDbEntity
  8
ZUWAKU
  6
CONTINUOUS
 62
      43
100
AcDbLine
 10
-133.86839432
 20
276.00891341
 30
0.0
 11
-136.80992096
 21
273.06738678
 31
0.0
  0
LINE
  5
2CA
100
AcDbEntity
  8
ZUWAKU
  6
CONTINUOUS
 62
      43
100
AcDbLine
 10
-128.4277089
 20
280.88391341
 30
0.0
 11
-133.0
 21
276.31162231
 31
0.0
  0
LINE
  5
2CB
100
AcDbEntity
  8
ZUWAKU
  6
CONTINUOUS
 62
      43
100
AcDbLine
 10
-133.3027089
 20
276.00891341
 30
0.0
 11
-135.90858534
 21
273.40303697
 31
0.0
  0
LINE
  5
2CC
100
AcDbEntity
  8
ZUWAKU
  6
CONTINUOUS
 62
      43
100
AcDbLine
 10
-128.12984551
 20
280.61609138
 30
0.0
 11
-134.94597648
 21
273.79996041
 31
0.0
  0
LINE
  5
2CD
100
AcDbEntity
  8
ZUWAKU
  6
CONTINUOUS
 62
      43
100
AcDbLine
 10
-128.21152607
 20
279.96872539
 30
0.0
 11
-133.89143846
 21
274.288813
 31
0.0
  0
LINE
  5
2CE
100
AcDbEntity
  8
ZUWAKU
  6
CONTINUOUS
 62
      43
100
AcDbLine
 10
-128.45823447
 20
279.15633157
 30
0.0
 11
-132.6718726
 21
274.94269344
 31
0.0
  0
LINE
  5
2CF
100
AcDbEntity
  8
ZUWAKU
  6
CONTINUOUS
 62
      43
100
AcDbLine
 10
-129.22135211
 20
277.8275285
 30
0.0
 11
-130.9358975
 21
276.11298311
 31
0.0
  0
LINE
  5
2D0
100
AcDbEntity
  8
ZUWAKU
  6
CONTINUOUS
 62
      43
100
AcDbLine
 10
-182.125
 20
-282.24108659
 30
0.0
 11
186.75
 21
-282.24108659
 31
0.0
  0
LINE
  5
2D1
100
AcDbEntity
  8
ZUWAKU
  6
CONTINUOUS
 62
      43
100
AcDbLine
 10
-182.125
 20
-258.11608659
 30
0.0
 11
186.75
 21
-258.11608659
 31
0.0
  0
LINE
  5
2D2
100
AcDbEntity
  8
ZUWAKU
  6
CONTINUOUS
 62
      43
100
AcDbLine
 10
-182.125
 20
-254.74108659
 30
0.0
 11
186.75
 21
-254.74108659
 31
0.0
  0
LINE
  5
2D3
100
AcDbEntity
  8
ZUWAKU
  6
CONTINUOUS
 62
      43
100
AcDbLine
 10
-182.125
 20
-254.74108659
 30
0.0
 11
-182.125
 21
-174.74108659
 31
0.0
  0
LINE
  5
2D4
100
AcDbEntity
  8
ZUWAKU
  6
CONTINUOUS
 62
      43
100
AcDbLine
 10
186.75
 20
-254.74108659
 30
0.0
 11
186.75
 21
-174.74108659
 31
0.0
  0
LINE
  5
2D5
100
AcDbEntity
  8
ZUWAKU
  6
CONTINUOUS
 62
      43
100
AcDbLine
 10
-182.125
 20
-174.74108659
 30
0.0
 11
186.75
 21
-174.74108659
 31
0.0
  0
LINE
  5
2D6
100
AcDbEntity
  8
ZUWAKU
  6
CONTINUOUS
 62
       3
100
AcDbLine
 10
62.5
 20
286.63391341
 30
0.0
 11
188.75
 21
286.63391341
 31
0.0
  0
LINE
  5
2D7
100
AcDbEntity
  8
ZUWAKU
  6
CONTINUOUS
 62
       3
100
AcDbLine
 10
62.5
 20
286.63391341
 30
0.0
 11
62.5
 21
266.82163914
 31
0.0
  0
LINE
  5
2D8
100
AcDbEntity
  8
ZUWAKU
  6
CONTINUOUS
 62
       3
100
AcDbLine
 10
188.75
 20
286.63391341
 30
0.0
 11
188.75
 21
266.82163914
 31
0.0
  0
LINE
  5
2D9
100
AcDbEntity
  8
ZUWAKU
  6
CONTINUOUS
 62
       3
100
AcDbLine
 10
-168.25
 20
-254.74108659
 30
0.0
 11
-168.25
 21
-174.74108659
 31
0.0
  0
LINE
  5
2DA
100
AcDbEntity
  8
ZUWAKU
  6
CONTINUOUS
 62
       3
100
AcDbLine
 10
-75.125
 20
-254.74108659
 30
0.0
 11
-75.125
 21
-174.74108659
 31
0.0
  0
LINE
  5
2DB
100
AcDbEntity
  8
ZUWAKU
  6
CONTINUOUS
 62
       3
100
AcDbLine
 10
31.125
 20
-254.74108659
 30
0.0
 11
31.125
 21
-174.74108659
 31
0.0
  0
LINE
  5
2DC
100
AcDbEntity
  8
ZUWAKU
  6
CONTINUOUS
 62
       3
100
AcDbLine
 10
53.375
 20
-254.74108659
 30
0.0
 11
53.375
 21
-174.74108659
 31
0.0
  0
LINE
  5
2DD
100
AcDbEntity
  8
ZUWAKU
  6
CONTINUOUS
 62
       3
100
AcDbLine
 10
62.0
 20
-282.24108659
 30
0.0
 11
62.0
 21
-258.11608659
 31
0.0
  0
LINE
  5
2DE
100
AcDbEntity
  8
ZUWAKU
  6
CONTINUOUS
 62
       3
100
AcDbLine
 10
52.0
 20
-282.24108659
 30
0.0
 11
52.0
 21
-258.11608659
 31
0.0
  0
LINE
  5
2DF
100
AcDbEntity
  8
ZUWAKU
  6
CONTINUOUS
 62
       3
100
AcDbLine
 10
-73.125
 20
-282.24108659
 30
0.0
 11
-73.125
 21
-258.11608659
 31
0.0
  0
LINE
  5
2E0
100
AcDbEntity
  8
ZUWAKU
  6
CONTINUOUS
 62
       3
100
AcDbLine
 10
-83.125
 20
-282.24108659
 30
0.0
 11
-83.125
 21
-258.11608659
 31
0.0
  0
LINE
  5
2E1
100
AcDbEntity
  8
ZUWAKU
  6
CONTINUOUS
 62
       3
100
AcDbLine
 10
-182.125
 20
-244.74108659
 30
0.0
 11
186.75
 21
-244.74108659
 31
0.0
  0
LINE
  5
2E2
100
AcDbEntity
  8
ZUWAKU
  6
CONTINUOUS
 62
       3
100
AcDbLine
 10
-182.125
 20
-234.74108659
 30
0.0
 11
186.75
 21
-234.74108659
 31
0.0
  0
LINE
  5
2E3
100
AcDbEntity
  8
ZUWAKU
  6
CONTINUOUS
 62
       3
100
AcDbLine
 10
-182.125
 20
-224.74108659
 30
0.0
 11
186.75
 21
-224.74108659
 31
0.0
  0
LINE
  5
2E4
100
AcDbEntity
  8
ZUWAKU
  6
CONTINUOUS
 62
       3
100
AcDbLine
 10
-182.125
 20
-214.74108659
 30
0.0
 11
186.75
 21
-214.74108659
 31
0.0
  0
LINE
  5
2E5
100
AcDbEntity
  8
ZUWAKU
  6
CONTINUOUS
 62
       3
100
AcDbLine
 10
-182.125
 20
-204.74108659
 30
0.0
 11
186.75
 21
-204.74108659
 31
0.0
  0
LINE
  5
2E6
100
AcDbEntity
  8
ZUWAKU
  6
CONTINUOUS
 62
       3
100
AcDbLine
 10
-182.125
 20
-194.74108659
 30
0.0
 11
186.75
 21
-194.74108659
 31
0.0
  0
LINE
  5
2E7
100
AcDbEntity
  8
ZUWAKU
  6
CONTINUOUS
 62
       3
100
AcDbLine
 10
-182.125
 20
-184.74108659
 30
0.0
 11
186.75
 21
-184.74108659
 31
0.0
  0
LINE
  5
2E8
100
AcDbEntity
  8
ZUWAKU
  6
CONTINUOUS
 62
      32
100
AcDbLine
 10
-161.5
 20
278.38391341
 30
0.0
 11
-163.19508696
 21
281.38291341
 31
0.0
  0
LINE
  5
2E9
100
AcDbEntity
  8
ZUWAKU
  6
CONTINUOUS
 62
      32
100
AcDbLine
 10
-169.95111165
 20
284.00891341
 30
0.0
 11
-169.74277832
 21
284.63391341
 31
0.0
  0
LINE
  5
2EA
100
AcDbEntity
  8
ZUWAKU
  6
CONTINUOUS
 62
      32
100
AcDbLine
 10
-154.02059538
 20
279.12361572
 30
0.0
 11
-154.248
 21
279.00991341
 31
0.0
  0
LINE
  5
2EB
100
AcDbEntity
  8
ZUWAKU
  6
CONTINUOUS
 62
      32
100
AcDbLine
 10
-153.875
 20
278.38391341
 30
0.0
 11
-152.825
 21
279.43391341
 31
0.0
  0
LINE
  5
2EC
100
AcDbEntity
  8
ZUWAKU
  6
CONTINUOUS
 62
      32
100
AcDbLine
 10
-153.0
 20
278.38391341
 30
0.0
 11
-152.825
 21
279.43391341
 31
0.0
  0
LINE
  5
2ED
100
AcDbEntity
  8
ZUWAKU
  6
CONTINUOUS
 62
      32
100
AcDbLine
 10
-148.375
 20
279.25891341
 30
0.0
 11
-148.375
 21
279.00991341
 31
0.0
  0
LINE
  5
2EE
100
AcDbEntity
  8
ZUWAKU
  6
CONTINUOUS
 62
      32
100
AcDbLine
 10
-142.84495891
 20
278.38391341
 30
0.0
 11
-145.125
 21
278.38391341
 31
0.0
  0
LINE
  5
2EF
100
AcDbEntity
  8
ZUWAKU
  6
CONTINUOUS
 62
      32
100
AcDbLine
 10
-146.35693505
 20
279.27472025
 30
0.0
 11
-147.375
 21
278.38391341
 31
0.0
  0
LINE
  5
2F0
100
AcDbEntity
  8
ZUWAKU
  6
CONTINUOUS
 62
      32
100
AcDbLine
 10
-139.13350399
 20
278.38391341
 30
0.0
 11
-141.75
 21
278.38391341
 31
0.0
  0
LINE
  5
2F1
100
AcDbEntity
  8
ZUWAKU
  6
CONTINUOUS
 62
      32
100
AcDbLine
 10
-165.20275
 20
279.00991341
 30
0.0
 11
-163.328125
 21
284.00891341
 31
0.0
  0
LINE
  5
2F2
100
AcDbEntity
  8
ZUWAKU
  6
CONTINUOUS
 62
      32
100
AcDbLine
 10
-163.40955671
 20
282.00891341
 30
0.0
 11
-160.48364431
 21
282.00891341
 31
0.0
  0
LINE
  5
2F3
100
AcDbEntity
  8
ZUWAKU
  6
CONTINUOUS
 62
      32
100
AcDbLine
 10
-144.57954545
 20
279.88391341
 30
0.0
 11
-145.0
 21
279.88391341
 31
0.0
  0
LINE
  5
2F4
100
AcDbEntity
  8
ZUWAKU
  6
CONTINUOUS
 62
      32
100
AcDbLine
 10
-145.0
 20
279.88391341
 30
0.0
 11
-145.41322822
 21
279.88391341
 31
0.0
  0
LINE
  5
2F5
100
AcDbEntity
  8
ZUWAKU
  6
CONTINUOUS
 62
      32
100
AcDbLine
 10
-149.0694896
 20
278.38391341
 30
0.0
 11
-147.375
 21
278.38391341
 31
0.0
  0
CIRCLE
  5
2F6
100
AcDbEntity
  8
ZUWAKU
  6
CONTINUOUS
 62
      32
100
AcDbCircle
 10
-151.81615048
 20
281.88391341
 30
0.0
 40
0.37865048
  0
LINE
  5
2F7
100
AcDbEntity
  8
ZUWAKU
  6
CONTINUOUS
 62
      32
100
AcDbLine
 10
-164.734375
 20
284.00891341
 30
0.0
 11
-163.328125
 21
284.00891341
 31
0.0
  0
LINE
  5
2F8
100
AcDbEntity
  8
ZUWAKU
  6
CONTINUOUS
 62
      32
100
AcDbLine
 10
-162.65955671
 20
284.00891341
 30
0.0
 11
-160.48364431
 21
284.00891341
 31
0.0
  0
LINE
  5
2F9
100
AcDbEntity
  8
ZUWAKU
  6
CONTINUOUS
 62
      32
100
AcDbLine
 10
-166.875
 20
278.38391341
 30
0.0
 11
-166.64025
 21
279.00991341
 31
0.0
  0
LINE
  5
2FA
100
AcDbEntity
  8
ZUWAKU
  6
CONTINUOUS
 62
      32
100
AcDbLine
 10
-164.734375
 20
284.00891341
 30
0.0
 11
-164.5
 21
284.63391341
 31
0.0
  0
LINE
  5
2FB
100
AcDbEntity
  8
ZUWAKU
  6
CONTINUOUS
 62
      32
100
AcDbLine
 10
-165.04717694
 20
284.00891341
 30
0.0
 11
-164.81280194
 21
284.63391341
 31
0.0
  0
LINE
  5
2FC
100
AcDbEntity
  8
ZUWAKU
  6
CONTINUOUS
 62
      32
100
AcDbLine
 10
-160.48364431
 20
284.63391341
 30
0.0
 11
-164.5
 21
284.63391341
 31
0.0
  0
LINE
  5
2FD
100
AcDbEntity
  8
ZUWAKU
  6
CONTINUOUS
 62
      32
100
AcDbLine
 10
-164.81280194
 20
284.63391341
 30
0.0
 11
-165.4066207
 21
284.63391341
 31
0.0
  0
LINE
  5
2FE
100
AcDbEntity
  8
ZUWAKU
  6
CONTINUOUS
 62
      32
100
AcDbLine
 10
-165.6409957
 20
284.00891341
 30
0.0
 11
-165.04717694
 21
284.00891341
 31
0.0
  0
LINE
  5
2FF
100
AcDbEntity
  8
ZUWAKU
  6
CONTINUOUS
 62
      32
100
AcDbLine
 10
-165.86870059
 20
284.00891341
 30
0.0
 11
-165.63432559
 21
284.63391341
 31
0.0
  0
LINE
  5
300
100
AcDbEntity
  8
ZUWAKU
  6
CONTINUOUS
 62
      32
100
AcDbLine
 10
-165.63432559
 20
284.63391341
 30
0.0
 11
-166.1320847
 21
284.63391341
 31
0.0
  0
LINE
  5
301
100
AcDbEntity
  8
ZUWAKU
  6
CONTINUOUS
 62
      32
100
AcDbLine
 10
-166.3664597
 20
284.00891341
 30
0.0
 11
-165.86870059
 21
284.00891341
 31
0.0
  0
LINE
  5
302
100
AcDbEntity
  8
ZUWAKU
  6
CONTINUOUS
 62
      32
100
AcDbLine
 10
-166.3664597
 20
284.00891341
 30
0.0
 11
-166.1320847
 21
284.63391341
 31
0.0
  0
LINE
  5
303
100
AcDbEntity
  8
ZUWAKU
  6
CONTINUOUS
 62
      32
100
AcDbLine
 10
-166.55705836
 20
284.63391341
 30
0.0
 11
-167.0448246
 21
284.63391341
 31
0.0
  0
LINE
  5
304
100
AcDbEntity
  8
ZUWAKU
  6
CONTINUOUS
 62
      32
100
AcDbLine
 10
-167.2791996
 20
284.00891341
 30
0.0
 11
-166.79143336
 21
284.00891341
 31
0.0
  0
LINE
  5
305
100
AcDbEntity
  8
ZUWAKU
  6
CONTINUOUS
 62
      32
100
AcDbLine
 10
-167.2791996
 20
284.00891341
 30
0.0
 11
-167.0448246
 21
284.63391341
 31
0.0
  0
LINE
  5
306
100
AcDbEntity
  8
ZUWAKU
  6
CONTINUOUS
 62
      32
100
AcDbLine
 10
-165.6409957
 20
284.00891341
 30
0.0
 11
-165.4066207
 21
284.63391341
 31
0.0
  0
LINE
  5
307
100
AcDbEntity
  8
ZUWAKU
  6
CONTINUOUS
 62
      32
100
AcDbLine
 10
-166.79143336
 20
284.00891341
 30
0.0
 11
-166.55705836
 21
284.63391341
 31
0.0
  0
LINE
  5
308
100
AcDbEntity
  8
ZUWAKU
  6
CONTINUOUS
 62
      32
100
AcDbLine
 10
-167.64452903
 20
284.00891341
 30
0.0
 11
-167.41015403
 21
284.63391341
 31
0.0
  0
LINE
  5
309
100
AcDbEntity
  8
ZUWAKU
  6
CONTINUOUS
 62
      32
100
AcDbLine
 10
-167.41015403
 20
284.63391341
 30
0.0
 11
-167.8611413
 21
284.63391341
 31
0.0
  0
LINE
  5
30A
100
AcDbEntity
  8
ZUWAKU
  6
CONTINUOUS
 62
      32
100
AcDbLine
 10
-168.0955163
 20
284.00891341
 30
0.0
 11
-167.64452903
 21
284.00891341
 31
0.0
  0
LINE
  5
30B
100
AcDbEntity
  8
ZUWAKU
  6
CONTINUOUS
 62
      32
100
AcDbLine
 10
-168.0955163
 20
284.00891341
 30
0.0
 11
-167.8611413
 21
284.63391341
 31
0.0
  0
LINE
  5
30C
100
AcDbEntity
  8
ZUWAKU
  6
CONTINUOUS
 62
      32
100
AcDbLine
 10
-168.47728507
 20
284.00891341
 30
0.0
 11
-168.24291007
 21
284.63391341
 31
0.0
  0
LINE
  5
30D
100
AcDbEntity
  8
ZUWAKU
  6
CONTINUOUS
 62
      32
100
AcDbLine
 10
-168.24291007
 20
284.63391341
 30
0.0
 11
-168.64395174
 21
284.63391341
 31
0.0
  0
LINE
  5
30E
100
AcDbEntity
  8
ZUWAKU
  6
CONTINUOUS
 62
      32
100
AcDbLine
 10
-168.85228507
 20
284.00891341
 30
0.0
 11
-168.47728507
 21
284.00891341
 31
0.0
  0
LINE
  5
30F
100
AcDbEntity
  8
ZUWAKU
  6
CONTINUOUS
 62
      32
100
AcDbLine
 10
-168.85228507
 20
284.00891341
 30
0.0
 11
-168.64395174
 21
284.63391341
 31
0.0
  0
LINE
  5
310
100
AcDbEntity
  8
ZUWAKU
  6
CONTINUOUS
 62
      32
100
AcDbLine
 10
-169.2516301
 20
284.00891341
 30
0.0
 11
-169.04329677
 21
284.63391341
 31
0.0
  0
LINE
  5
311
100
AcDbEntity
  8
ZUWAKU
  6
CONTINUOUS
 62
      32
100
AcDbLine
 10
-169.57611165
 20
284.00891341
 30
0.0
 11
-169.36777832
 21
284.63391341
 31
0.0
  0
LINE
  5
312
100
AcDbEntity
  8
ZUWAKU
  6
CONTINUOUS
 62
      32
100
AcDbLine
 10
-170.18027832
 20
284.00891341
 30
0.0
 11
-169.97194498
 21
284.63391341
 31
0.0
  0
LINE
  5
313
100
AcDbEntity
  8
ZUWAKU
  6
CONTINUOUS
 62
      32
100
AcDbLine
 10
-170.57611165
 20
284.00891341
 30
0.0
 11
-170.36777832
 21
284.63391341
 31
0.0
  0
LINE
  5
314
100
AcDbEntity
  8
ZUWAKU
  6
CONTINUOUS
 62
      32
100
AcDbLine
 10
-170.68027832
 20
284.00891341
 30
0.0
 11
-170.47194498
 21
284.63391341
 31
0.0
  0
LINE
  5
315
100
AcDbEntity
  8
ZUWAKU
  6
CONTINUOUS
 62
      32
100
AcDbLine
 10
-169.04329677
 20
284.63391341
 30
0.0
 11
-169.36777832
 21
284.63391341
 31
0.0
  0
LINE
  5
316
100
AcDbEntity
  8
ZUWAKU
  6
CONTINUOUS
 62
      32
100
AcDbLine
 10
-169.57611165
 20
284.00891341
 30
0.0
 11
-169.2516301
 21
284.00891341
 31
0.0
  0
LINE
  5
317
100
AcDbEntity
  8
ZUWAKU
  6
CONTINUOUS
 62
      32
100
AcDbLine
 10
-169.74277832
 20
284.63391341
 30
0.0
 11
-169.97194498
 21
284.63391341
 31
0.0
  0
LINE
  5
318
100
AcDbEntity
  8
ZUWAKU
  6
CONTINUOUS
 62
      32
100
AcDbLine
 10
-170.36777832
 20
284.63391341
 30
0.0
 11
-170.47194498
 21
284.63391341
 31
0.0
  0
LINE
  5
319
100
AcDbEntity
  8
ZUWAKU
  6
CONTINUOUS
 62
      32
100
AcDbLine
 10
-170.18027832
 20
284.00891341
 30
0.0
 11
-169.95111165
 21
284.00891341
 31
0.0
  0
LINE
  5
31A
100
AcDbEntity
  8
ZUWAKU
  6
CONTINUOUS
 62
      32
100
AcDbLine
 10
-170.57611165
 20
284.00891341
 30
0.0
 11
-170.68027832
 21
284.00891341
 31
0.0
  0
ARC
  5
31B
100
AcDbEntity
  8
ZUWAKU
  6
CONTINUOUS
 62
      32
100
AcDbCircle
 10
-160.48364431
 20
283.00891341
 30
0.0
 40
1.0
100
AcDbArc
 50
270.0
 51
450.0
  0
LINE
  5
31C
100
AcDbEntity
  8
ZUWAKU
  6
CONTINUOUS
 62
      32
100
AcDbLine
 10
-166.64025
 20
279.00991341
 30
0.0
 11
-165.20275
 21
279.00991341
 31
0.0
  0
LINE
  5
31D
100
AcDbEntity
  8
ZUWAKU
  6
CONTINUOUS
 62
      32
100
AcDbLine
 10
-166.875
 20
278.38391341
 30
0.0
 11
-164.76893171
 21
278.38391341
 31
0.0
  0
LINE
  5
31E
100
AcDbEntity
  8
ZUWAKU
  6
CONTINUOUS
 62
      32
100
AcDbLine
 10
-164.76893171
 20
278.38391341
 30
0.0
 11
-163.64430671
 21
281.38291341
 31
0.0
  0
LINE
  5
31F
100
AcDbEntity
  8
ZUWAKU
  6
CONTINUOUS
 62
      32
100
AcDbLine
 10
-163.40955671
 20
282.00891341
 30
0.0
 11
-162.65955671
 21
284.00891341
 31
0.0
  0
LINE
  5
320
100
AcDbEntity
  8
ZUWAKU
  6
CONTINUOUS
 62
      32
100
AcDbLine
 10
-163.64430671
 20
281.38291341
 30
0.0
 11
-163.19508696
 21
281.38291341
 31
0.0
  0
LINE
  5
321
100
AcDbEntity
  8
ZUWAKU
  6
CONTINUOUS
 62
      32
100
AcDbLine
 10
-162.47601193
 20
281.38291341
 30
0.0
 11
-160.48364431
 21
281.38291341
 31
0.0
  0
LINE
  5
322
100
AcDbEntity
  8
ZUWAKU
  6
CONTINUOUS
 62
      32
100
AcDbLine
 10
-161.13475106
 20
279.00991341
 30
0.0
 11
-162.47601193
 21
281.38291341
 31
0.0
  0
ARC
  5
323
100
AcDbEntity
  8
ZUWAKU
  6
CONTINUOUS
 62
      32
100
AcDbCircle
 10
-160.48364431
 20
283.00891341
 30
0.0
 40
1.625
100
AcDbArc
 50
270.0
 51
450.0
  0
ELLIPSE
  5
324
100
AcDbEntity
  8
ZUWAKU
  6
CONTINUOUS
 62
      32
100
AcDbEllipse
 10
-158.41323113
 20
279.79303323
 30
0.0
 11
-0.1646373265498653
 21
-0.3018350986746441
 31
0.0
210
0.0
220
0.0
230
1.0
 40
0.75209874
 41
0.0
 42
6.2831853071796004
  0
LINE
  5
325
100
AcDbEntity
  8
ZUWAKU
  6
CONTINUOUS
 62
      32
100
AcDbLine
 10
-161.5
 20
278.38391341
 30
0.0
 11
-159.25
 21
278.38391341
 31
0.0
  0
ELLIPSE
  5
326
100
AcDbEntity
  8
ZUWAKU
  6
CONTINUOUS
 62
      32
100
AcDbEllipse
 10
-158.41323113
 20
279.79303323
 30
0.0
 11
-0.5259978484020849
 21
-0.9643293887368145
 31
0.0
210
0.0
220
0.0
230
1.0
 40
0.75209874
 41
1.1633802511780513
 42
5.8601607076995643
  0
LINE
  5
327
100
AcDbEntity
  8
ZUWAKU
  6
CONTINUOUS
 62
      32
100
AcDbLine
 10
-161.13475106
 20
279.00991341
 30
0.0
 11
-159.28754807
 21
279.00991341
 31
0.0
  0
ARC
  5
328
100
AcDbEntity
  8
ZUWAKU
  6
CONTINUOUS
 62
      32
100
AcDbCircle
 10
-159.47375881
 20
280.41384847
 30
0.0
 40
1.41623024
100
AcDbArc
 50
277.55531967
 51
282.61004677
  0
ARC
  5
329
100
AcDbEntity
  8
ZUWAKU
  6
CONTINUOUS
 62
      32
100
AcDbCircle
 10
-159.47375881
 20
280.41384847
 30
0.0
 40
2.04223024
100
AcDbArc
 50
276.29029269
 51
293.79815684
  0
ARC
  5
32A
100
AcDbEntity
  8
ZUWAKU
  6
CONTINUOUS
 62
      32
100
AcDbCircle
 10
-159.47375881
 20
280.41384847
 30
0.0
 40
2.04223024
100
AcDbArc
 50
316.57125834
 51
318.01426788
  0
ARC
  5
32B
100
AcDbEntity
  8
ZUWAKU
  6
CONTINUOUS
 62
      32
100
AcDbCircle
 10
-158.00692939
 20
279.74122139
 30
0.0
 40
1.35773768
100
AcDbArc
 50
209.3318227
 51
211.50126528
  0
ARC
  5
32C
100
AcDbEntity
  8
ZUWAKU
  6
CONTINUOUS
 62
      32
100
AcDbCircle
 10
-158.00692939
 20
279.74122139
 30
0.0
 40
1.35773768
100
AcDbArc
 50
241.74457829
 51
270.0
  0
ELLIPSE
  5
32D
100
AcDbEntity
  8
ZUWAKU
  6
CONTINUOUS
 62
      32
100
AcDbEllipse
 10
-155.21657119
 20
280.63360255
 30
0.0
 11
-0.2740860923244384
 21
-0.5653025654192447
 31
0.0
210
0.0
220
0.0
230
1.0
 40
0.44219156
 41
0.0
 42
6.2831853071796004
  0
ARC
  5
32E
100
AcDbEntity
  8
ZUWAKU
  6
CONTINUOUS
 62
      32
100
AcDbCircle
 10
-154.64011141
 20
280.79901687
 30
0.0
 40
2.42821367
100
AcDbArc
 50
241.28311564
 51
264.0434522
  0
LINE
  5
32F
100
AcDbEntity
  8
ZUWAKU
  6
CONTINUOUS
 62
      32
100
AcDbLine
 10
-158.00692939
 20
278.38391341
 30
0.0
 11
-156.59823553
 21
278.38391341
 31
0.0
  0
ARC
  5
330
100
AcDbEntity
  8
ZUWAKU
  6
CONTINUOUS
 62
      32
100
AcDbCircle
 10
-154.64011141
 20
280.79901687
 30
0.0
 40
1.80221367
100
AcDbArc
 50
251.08708107
 51
263.08482824
  0
ARC
  5
331
100
AcDbEntity
  8
ZUWAKU
  6
CONTINUOUS
 62
      32
100
AcDbCircle
 10
-157.12959748
 20
281.09609636
 30
0.0
 40
2.13774418
100
AcDbArc
 50
282.60950936
 51
291.93126974
  0
ELLIPSE
  5
332
100
AcDbEntity
  8
ZUWAKU
  6
CONTINUOUS
 62
      32
100
AcDbEllipse
 10
-155.21657119
 20
280.63360255
 30
0.0
 11
-0.8756744163720214
 21
-1.8060784837676351
 31
0.0
210
0.0
220
0.0
230
1.0
 40
0.44219156
 41
1.162166382047795
 42
5.8906096214263082
  0
LINE
  5
333
100
AcDbEntity
  8
ZUWAKU
  6
CONTINUOUS
 62
      32
100
AcDbLine
 10
-157.99063012
 20
279.00991341
 30
0.0
 11
-156.66291679
 21
279.00991341
 31
0.0
  0
ARC
  5
334
100
AcDbEntity
  8
ZUWAKU
  6
CONTINUOUS
 62
      32
100
AcDbCircle
 10
-157.12959748
 20
281.09609636
 30
0.0
 40
2.76374418
100
AcDbArc
 50
313.58286141
 51
326.24939265
  0
ARC
  5
335
100
AcDbEntity
  8
ZUWAKU
  6
CONTINUOUS
 62
      32
100
AcDbCircle
 10
-157.12959748
 20
281.09609636
 30
0.0
 40
2.76374418
100
AcDbArc
 50
281.08479974
 51
298.5950739
  0
LINE
  5
336
100
AcDbEntity
  8
ZUWAKU
  6
CONTINUOUS
 62
      32
100
AcDbLine
 10
-154.89209735
 20
278.38391341
 30
0.0
 11
-153.875
 21
278.38391341
 31
0.0
  0
LINE
  5
337
100
AcDbEntity
  8
ZUWAKU
  6
CONTINUOUS
 62
      32
100
AcDbLine
 10
-154.02059538
 20
279.12361572
 30
0.0
 11
-152.31963505
 21
280.82457605
 31
0.0
  0
LINE
  5
338
100
AcDbEntity
  8
ZUWAKU
  6
CONTINUOUS
 62
      32
100
AcDbLine
 10
-152.26103178
 20
279.00991341
 30
0.0
 11
-151.98600295
 21
280.6600864
 31
0.0
  0
LINE
  5
339
100
AcDbEntity
  8
ZUWAKU
  6
CONTINUOUS
 62
      32
100
AcDbLine
 10
-154.85709742
 20
279.00991341
 30
0.0
 11
-154.248
 21
279.00991341
 31
0.0
  0
ARC
  5
33A
100
AcDbEntity
  8
ZUWAKU
  6
CONTINUOUS
 62
      32
100
AcDbCircle
 10
-152.17759649
 20
280.69201865
 30
0.0
 40
0.19428437
100
AcDbArc
 50
350.53767779
 51
496.97750576
  0
ELLIPSE
  5
33B
100
AcDbEntity
  8
ZUWAKU
  6
CONTINUOUS
 62
      32
100
AcDbEllipse
 10
-149.52529965
 20
279.55987607
 30
0.0
 11
-0.1823632599534619
 21
-0.3071381220268563
 31
0.0
210
0.0
220
0.0
230
1.0
 40
0.58819821
 41
0.0
 42
6.2831853071796004
  0
LINE
  5
33C
100
AcDbEntity
  8
ZUWAKU
  6
CONTINUOUS
 62
      32
100
AcDbLine
 10
-151.60093184
 20
279.00991341
 30
0.0
 11
-150.55905199
 21
279.51034389
 31
0.0
  0
LINE
  5
33D
100
AcDbEntity
  8
ZUWAKU
  6
CONTINUOUS
 62
      32
100
AcDbLine
 10
-151.5
 20
278.38391341
 30
0.0
 11
-150.62770117
 21
278.77043988
 31
0.0
  0
LINE
  5
33E
100
AcDbEntity
  8
ZUWAKU
  6
CONTINUOUS
 62
      32
100
AcDbLine
 10
-152.26103178
 20
279.00991341
 30
0.0
 11
-151.60093184
 21
279.00991341
 31
0.0
  0
LINE
  5
33F
100
AcDbEntity
  8
ZUWAKU
  6
CONTINUOUS
 62
      32
100
AcDbLine
 10
-149.36125176
 20
278.66595016
 30
0.0
 11
-149.0694896
 21
278.38391341
 31
0.0
  0
LINE
  5
340
100
AcDbEntity
  8
ZUWAKU
  6
CONTINUOUS
 62
      32
100
AcDbLine
 10
-148.375
 20
279.00991341
 30
0.0
 11
-147.49557552
 21
279.00991341
 31
0.0
  0
LINE
  5
341
100
AcDbEntity
  8
ZUWAKU
  6
CONTINUOUS
 62
      32
100
AcDbLine
 10
-145.49671837
 20
280.75891341
 30
0.0
 11
-147.49557552
 21
279.00991341
 31
0.0
  0
ELLIPSE
  5
342
100
AcDbEntity
  8
ZUWAKU
  6
CONTINUOUS
 62
      32
100
AcDbEllipse
 10
-149.65574459
 20
279.485908
 30
0.0
 11
-0.7943704187739229
 21
-0.9841655794533608
 31
0.0
210
0.0
220
0.0
230
1.0
 40
0.63020876
 41
2.7713952963881421
 42
5.1608192210644299
  0
ELLIPSE
  5
343
100
AcDbEntity
  8
ZUWAKU
  6
CONTINUOUS
 62
      32
100
AcDbEllipse
 10
-149.65574459
 20
279.485908
 30
0.0
 11
-0.7943704187739229
 21
-0.9841655794533608
 31
0.0
210
0.0
220
0.0
230
1.0
 40
0.63020876
 41
5.8878630804447303
 42
7.4876029260781634
  0
LINE
  5
344
100
AcDbEntity
  8
ZUWAKU
  6
CONTINUOUS
 62
      32
100
AcDbLine
 10
-148.53957958
 20
280.6381051
 30
0.0
 11
-147.87347575
 21
280.6381051
 31
0.0
  0
LINE
  5
345
100
AcDbEntity
  8
ZUWAKU
  6
CONTINUOUS
 62
      32
100
AcDbLine
 10
-148.69078926
 20
280.22227849
 30
0.0
 11
-148.53957958
 21
280.6381051
 31
0.0
  0
LINE
  5
346
100
AcDbEntity
  8
ZUWAKU
  6
CONTINUOUS
 62
      32
100
AcDbLine
 10
-148.375
 20
279.25891341
 30
0.0
 11
-147.87347575
 21
280.6381051
 31
0.0
  0
LINE
  5
347
100
AcDbEntity
  8
ZUWAKU
  6
CONTINUOUS
 62
      32
100
AcDbLine
 10
-146.6737039
 20
278.40360591
 30
0.0
 11
-146.35693505
 21
279.27472025
 31
0.0
  0
LINE
  5
348
100
AcDbEntity
  8
ZUWAKU
  6
CONTINUOUS
 62
      32
100
AcDbLine
 10
-145.41322822
 20
279.88391341
 30
0.0
 11
-145.95868276
 21
278.38391341
 31
0.0
  0
LINE
  5
349
100
AcDbEntity
  8
ZUWAKU
  6
CONTINUOUS
 62
      32
100
AcDbLine
 10
-145.125
 20
278.38391341
 30
0.0
 11
-144.57954545
 21
279.88391341
 31
0.0
  0
LINE
  5
34A
100
AcDbEntity
  8
ZUWAKU
  6
CONTINUOUS
 62
      32
100
AcDbLine
 10
-143.66758062
 20
280.36056671
 30
0.0
 11
-144.15872727
 21
279.00991341
 31
0.0
  0
LINE
  5
34B
100
AcDbEntity
  8
ZUWAKU
  6
CONTINUOUS
 62
      32
100
AcDbLine
 10
-143.87541369
 20
280.75891341
 30
0.0
 11
-143.66758062
 21
280.36056671
 31
0.0
  0
LINE
  5
34C
100
AcDbEntity
  8
ZUWAKU
  6
CONTINUOUS
 62
      32
100
AcDbLine
 10
-145.24680263
 20
280.38711078
 30
0.0
 11
-145.12383404
 21
280.75891341
 31
0.0
  0
LINE
  5
34D
100
AcDbEntity
  8
ZUWAKU
  6
CONTINUOUS
 62
      32
100
AcDbLine
 10
-145.24680263
 20
280.38711078
 30
0.0
 11
-144.58090546
 21
280.75891341
 31
0.0
  0
LINE
  5
34E
100
AcDbEntity
  8
ZUWAKU
  6
CONTINUOUS
 62
      32
100
AcDbLine
 10
-143.87541369
 20
280.75891341
 30
0.0
 11
-144.58090546
 21
280.75891341
 31
0.0
  0
LINE
  5
34F
100
AcDbEntity
  8
ZUWAKU
  6
CONTINUOUS
 62
      32
100
AcDbLine
 10
-145.12383404
 20
280.75891341
 30
0.0
 11
-145.49671837
 21
280.75891341
 31
0.0
  0
ELLIPSE
  5
350
100
AcDbEntity
  8
ZUWAKU
  6
CONTINUOUS
 62
      32
100
AcDbEllipse
 10
-138.29673512
 20
279.79303323
 30
0.0
 11
-0.1646373265498653
 21
-0.3018350986746441
 31
0.0
210
0.0
220
0.0
230
1.0
 40
0.75209874
 41
0.0
 42
6.2831853071796004
  0
ELLIPSE
  5
351
100
AcDbEntity
  8
ZUWAKU
  6
CONTINUOUS
 62
      32
100
AcDbEllipse
 10
-138.29673512
 20
279.79303323
 30
0.0
 11
-0.5259978484020849
 21
-0.9643293887368145
 31
0.0
210
0.0
220
0.0
230
1.0
 40
0.75209874
 41
1.1633802511780513
 42
5.8601607076995643
  0
ARC
  5
352
100
AcDbEntity
  8
ZUWAKU
  6
CONTINUOUS
 62
      32
100
AcDbCircle
 10
-139.35726281
 20
280.41384847
 30
0.0
 40
1.41623024
100
AcDbArc
 50
277.55531967
 51
282.61004677
  0
ARC
  5
353
100
AcDbEntity
  8
ZUWAKU
  6
CONTINUOUS
 62
      32
100
AcDbCircle
 10
-139.35726281
 20
280.41384847
 30
0.0
 40
2.04223024
100
AcDbArc
 50
276.29029269
 51
293.79815684
  0
ARC
  5
354
100
AcDbEntity
  8
ZUWAKU
  6
CONTINUOUS
 62
      32
100
AcDbCircle
 10
-139.35726281
 20
280.41384847
 30
0.0
 40
2.04223024
100
AcDbArc
 50
316.57125834
 51
318.01426788
  0
ARC
  5
355
100
AcDbEntity
  8
ZUWAKU
  6
CONTINUOUS
 62
      32
100
AcDbCircle
 10
-137.89043339
 20
279.74122139
 30
0.0
 40
1.35773768
100
AcDbArc
 50
209.3318227
 51
211.50126528
  0
ARC
  5
356
100
AcDbEntity
  8
ZUWAKU
  6
CONTINUOUS
 62
      32
100
AcDbCircle
 10
-137.89043339
 20
279.74122139
 30
0.0
 40
1.35773768
100
AcDbArc
 50
241.74457829
 51
270.0
  0
LINE
  5
357
100
AcDbEntity
  8
ZUWAKU
  6
CONTINUOUS
 62
      32
100
AcDbLine
 10
-141.34540389
 20
279.00991341
 30
0.0
 11
-139.17105206
 21
279.00991341
 31
0.0
  0
LINE
  5
358
100
AcDbEntity
  8
ZUWAKU
  6
CONTINUOUS
 62
      32
100
AcDbLine
 10
-137.89043339
 20
278.38391341
 30
0.0
 11
-136.68668483
 21
278.38391341
 31
0.0
  0
LINE
  5
359
100
AcDbEntity
  8
ZUWAKU
  6
CONTINUOUS
 62
      32
100
AcDbLine
 10
-137.87413412
 20
279.00991341
 30
0.0
 11
-136.54642079
 21
279.00991341
 31
0.0
  0
LINE
  5
35A
100
AcDbEntity
  8
ZUWAKU
  6
CONTINUOUS
 62
      32
100
AcDbLine
 10
-153.0
 20
278.38391341
 30
0.0
 11
-151.5
 21
278.38391341
 31
0.0
  0
LINE
  5
35B
100
AcDbEntity
  8
ZUWAKU
  6
CONTINUOUS
 62
      32
100
AcDbLine
 10
-146.6737039
 20
278.40360591
 30
0.0
 11
-145.95868276
 21
278.38391341
 31
0.0
  0
LINE
  5
35C
100
AcDbEntity
  8
ZUWAKU
  6
CONTINUOUS
 62
      32
100
AcDbLine
 10
-144.15872727
 20
279.00991341
 30
0.0
 11
-143.00282144
 21
279.00991341
 31
0.0
  0
LINE
  5
35D
100
AcDbEntity
  8
ZUWAKU
  6
CONTINUOUS
 62
      32
100
AcDbLine
 10
-140.86965896
 20
279.91110284
 30
0.0
 11
-140.40269166
 21
280.28856808
 31
0.0
  0
ARC
  5
35E
100
AcDbEntity
  8
ZUWAKU
  6
CONTINUOUS
 62
      32
100
AcDbCircle
 10
-141.34540389
 20
279.58991341
 30
0.0
 40
0.58
100
AcDbArc
 50
34.07537472
 51
270.0
  0
ARC
  5
35F
100
AcDbEntity
  8
ZUWAKU
  6
CONTINUOUS
 62
      32
100
AcDbCircle
 10
-141.34540389
 20
279.58991341
 30
0.0
 40
1.17338174
100
AcDbArc
 50
36.54256145
 51
190.98612084
  0
LINE
  5
360
100
AcDbEntity
  8
ZUWAKU
  6
CONTINUOUS
 62
      32
100
AcDbLine
 10
-142.84495891
 20
278.38391341
 30
0.0
 11
-142.25060792
 21
278.82126603
 31
0.0
  0
LINE
  5
361
100
AcDbEntity
  8
ZUWAKU
  6
CONTINUOUS
 62
      32
100
AcDbLine
 10
-142.50473504
 20
279.37642982
 30
0.0
 11
-143.00282144
 21
279.00991341
 31
0.0
  0
LINE
  5
362
100
AcDbEntity
  8
ZUWAKU
  6
CONTINUOUS
 62
      32
100
AcDbLine
 10
-142.25060792
 20
278.82126603
 30
0.0
 11
-141.75
 21
278.38391341
 31
0.0
  0
LINE
  5
363
100
AcDbEntity
  8
ZUWAKU
  6
CONTINUOUS
 62
      32
100
AcDbLine
 10
-136.54642079
 20
279.00991341
 30
0.0
 11
-136.68668483
 21
278.38391341
 31
0.0
  0
LINE
  5
364
100
AcDbEntity
  8
ZUWAKU
  6
CONTINUOUS
 62
      32
100
AcDbLine
 10
-169.78965332
 20
284.49328841
 30
0.0
 11
-170.13340332
 21
284.14953841
 31
0.0
  0
LINE
  5
365
100
AcDbEntity
  8
ZUWAKU
  6
CONTINUOUS
 62
      32
100
AcDbLine
 10
-169.06634305
 20
284.56477457
 30
0.0
 11
-169.55306537
 21
284.07805225
 31
0.0
  0
LINE
  5
366
100
AcDbEntity
  8
ZUWAKU
  6
CONTINUOUS
 62
      32
100
AcDbLine
 10
-168.24759757
 20
284.62141341
 30
0.0
 11
-168.84837882
 21
284.02063216
 31
0.0
  0
LINE
  5
367
100
AcDbEntity
  8
ZUWAKU
  6
CONTINUOUS
 62
      32
100
AcDbLine
 10
-167.44033516
 20
284.63391341
 30
0.0
 11
-168.06533516
 21
284.00891341
 31
0.0
  0
LINE
  5
368
100
AcDbEntity
  8
ZUWAKU
  6
CONTINUOUS
 62
      32
100
AcDbLine
 10
-166.60562898
 20
284.63391341
 30
0.0
 11
-167.23062898
 21
284.00891341
 31
0.0
  0
LINE
  5
369
100
AcDbEntity
  8
ZUWAKU
  6
CONTINUOUS
 62
      32
100
AcDbLine
 10
-165.68789265
 20
284.63391341
 30
0.0
 11
-166.31289265
 21
284.00891341
 31
0.0
  0
LINE
  5
36A
100
AcDbEntity
  8
ZUWAKU
  6
CONTINUOUS
 62
      32
100
AcDbLine
 10
-164.91439882
 20
284.63391341
 30
0.0
 11
-165.53939882
 21
284.00891341
 31
0.0
  0
LINE
  5
36B
100
AcDbEntity
  8
ZUWAKU
  6
CONTINUOUS
 62
      32
100
AcDbLine
 10
-164.69816213
 20
278.57263229
 30
0.0
 11
-164.88688101
 21
278.38391341
 31
0.0
  0
LINE
  5
36C
100
AcDbEntity
  8
ZUWAKU
  6
CONTINUOUS
 62
      32
100
AcDbLine
 10
-164.35875087
 20
279.47772897
 30
0.0
 11
-165.45256643
 21
278.38391341
 31
0.0
  0
LINE
  5
36D
100
AcDbEntity
  8
ZUWAKU
  6
CONTINUOUS
 62
      32
100
AcDbLine
 10
-164.01933962
 20
280.38282565
 30
0.0
 11
-165.08904889
 21
279.31311638
 31
0.0
  0
LINE
  5
36E
100
AcDbEntity
  8
ZUWAKU
  6
CONTINUOUS
 62
      32
100
AcDbLine
 10
-165.39225186
 20
279.00991341
 30
0.0
 11
-166.01825186
 21
278.38391341
 31
0.0
  0
LINE
  5
36F
100
AcDbEntity
  8
ZUWAKU
  6
CONTINUOUS
 62
      32
100
AcDbLine
 10
-163.67992836
 20
281.28792233
 30
0.0
 11
-164.74963763
 21
280.21821306
 31
0.0
  0
LINE
  5
370
100
AcDbEntity
  8
ZUWAKU
  6
CONTINUOUS
 62
      32
100
AcDbLine
 10
-165.95793728
 20
279.00991341
 30
0.0
 11
-166.58393728
 21
278.38391341
 31
0.0
  0
LINE
  5
371
100
AcDbEntity
  8
ZUWAKU
  6
CONTINUOUS
 62
      32
100
AcDbLine
 10
-166.52362271
 20
279.00991341
 30
0.0
 11
-166.71022638
 21
278.82330974
 31
0.0
  0
LINE
  5
372
100
AcDbEntity
  8
ZUWAKU
  6
CONTINUOUS
 62
      32
100
AcDbLine
 10
-162.59667898
 20
284.63391341
 30
0.0
 11
-163.39199261
 21
283.83859978
 31
0.0
  0
LINE
  5
373
100
AcDbEntity
  8
ZUWAKU
  6
CONTINUOUS
 62
      32
100
AcDbLine
 10
-163.16236441
 20
284.63391341
 30
0.0
 11
-163.78736441
 21
284.00891341
 31
0.0
  0
LINE
  5
374
100
AcDbEntity
  8
ZUWAKU
  6
CONTINUOUS
 62
      32
100
AcDbLine
 10
-163.72804983
 20
284.63391341
 30
0.0
 11
-164.35304983
 21
284.00891341
 31
0.0
  0
LINE
  5
375
100
AcDbEntity
  8
ZUWAKU
  6
CONTINUOUS
 62
      32
100
AcDbLine
 10
-164.29373526
 20
284.63391341
 30
0.0
 11
-164.62375885
 21
284.30388982
 31
0.0
  0
LINE
  5
376
100
AcDbEntity
  8
ZUWAKU
  6
CONTINUOUS
 62
      32
100
AcDbLine
 10
-158.55820581
 20
280.75279064
 30
0.0
 11
-159.15658581
 21
280.15441063
 31
0.0
  0
LINE
  5
377
100
AcDbEntity
  8
ZUWAKU
  6
CONTINUOUS
 62
      32
100
AcDbLine
 10
-157.95579778
 20
280.78951324
 30
0.0
 11
-159.30411887
 21
279.44119215
 31
0.0
  0
LINE
  5
378
100
AcDbEntity
  8
ZUWAKU
  6
CONTINUOUS
 62
      32
100
AcDbLine
 10
-157.51870436
 20
280.09523581
 30
0.0
 11
-159.22740919
 21
278.38653098
 31
0.0
  0
LINE
  5
379
100
AcDbEntity
  8
ZUWAKU
  6
CONTINUOUS
 62
      32
100
AcDbLine
 10
-161.46530813
 20
284.63391341
 30
0.0
 11
-162.09030813
 21
284.00891341
 31
0.0
  0
LINE
  5
37A
100
AcDbEntity
  8
ZUWAKU
  6
CONTINUOUS
 62
      32
100
AcDbLine
 10
-163.00110585
 20
283.09811569
 30
0.0
 11
-164.07081512
 21
282.02840642
 31
0.0
  0
LINE
  5
37B
100
AcDbEntity
  8
ZUWAKU
  6
CONTINUOUS
 62
      32
100
AcDbLine
 10
-160.89962271
 20
284.63391341
 30
0.0
 11
-161.52462271
 21
284.00891341
 31
0.0
  0
LINE
  5
37C
100
AcDbEntity
  8
ZUWAKU
  6
CONTINUOUS
 62
      32
100
AcDbLine
 10
-163.34051711
 20
282.19301901
 30
0.0
 11
-164.41022638
 21
281.12330974
 31
0.0
  0
LINE
  5
37D
100
AcDbEntity
  8
ZUWAKU
  6
CONTINUOUS
 62
      32
100
AcDbLine
 10
-160.34027425
 20
284.62757645
 30
0.0
 11
-160.95893728
 21
284.00891341
 31
0.0
  0
LINE
  5
37E
100
AcDbEntity
  8
ZUWAKU
  6
CONTINUOUS
 62
      32
100
AcDbLine
 10
-162.95893728
 20
282.00891341
 30
0.0
 11
-163.58493728
 21
281.38291341
 31
0.0
  0
LINE
  5
37F
100
AcDbEntity
  8
ZUWAKU
  6
CONTINUOUS
 62
      32
100
AcDbLine
 10
-159.88323909
 20
284.51892618
 30
0.0
 11
-160.39701154
 21
284.00515373
 31
0.0
  0
LINE
  5
380
100
AcDbEntity
  8
ZUWAKU
  6
CONTINUOUS
 62
      32
100
AcDbLine
 10
-162.39325186
 20
282.00891341
 30
0.0
 11
-163.13159095
 21
281.27057432
 31
0.0
  0
LINE
  5
381
100
AcDbEntity
  8
ZUWAKU
  6
CONTINUOUS
 62
      32
100
AcDbLine
 10
-159.51949715
 20
284.3169827
 30
0.0
 11
-159.96972681
 21
283.86675303
 31
0.0
  0
LINE
  5
382
100
AcDbEntity
  8
ZUWAKU
  6
CONTINUOUS
 62
      32
100
AcDbLine
 10
-159.22907662
 20
284.0417178
 30
0.0
 11
-159.67440368
 21
283.59639074
 31
0.0
  0
LINE
  5
383
100
AcDbEntity
  8
ZUWAKU
  6
CONTINUOUS
 62
      32
100
AcDbLine
 10
-159.01043228
 20
283.69467672
 30
0.0
 11
-159.502569
 21
283.20253999
 31
0.0
  0
LINE
  5
384
100
AcDbEntity
  8
ZUWAKU
  6
CONTINUOUS
 62
      32
100
AcDbLine
 10
-158.87833104
 20
283.26109253
 30
0.0
 11
-159.60151217
 21
282.53791139
 31
0.0
  0
LINE
  5
385
100
AcDbEntity
  8
ZUWAKU
  6
CONTINUOUS
 62
      32
100
AcDbLine
 10
-162.03099356
 20
284.63391341
 30
0.0
 11
-162.65599356
 21
284.00891341
 31
0.0
  0
LINE
  5
386
100
AcDbEntity
  8
ZUWAKU
  6
CONTINUOUS
 62
      32
100
AcDbLine
 10
-162.6616946
 20
284.00321237
 30
0.0
 11
-163.73140387
 21
282.9335031
 31
0.0
  0
LINE
  5
387
100
AcDbEntity
  8
ZUWAKU
  6
CONTINUOUS
 62
      32
100
AcDbLine
 10
-161.26188101
 20
282.00891341
 30
0.0
 11
-161.88788101
 21
281.38291341
 31
0.0
  0
LINE
  5
388
100
AcDbEntity
  8
ZUWAKU
  6
CONTINUOUS
 62
      32
100
AcDbLine
 10
-162.26363132
 20
281.0071631
 30
0.0
 11
-162.72304036
 21
280.54775406
 31
0.0
  0
LINE
  5
389
100
AcDbEntity
  8
ZUWAKU
  6
CONTINUOUS
 62
      32
100
AcDbLine
 10
-161.82756643
 20
282.00891341
 30
0.0
 11
-162.45356643
 21
281.38291341
 31
0.0
  0
LINE
  5
38A
100
AcDbEntity
  8
ZUWAKU
  6
CONTINUOUS
 62
      32
100
AcDbLine
 10
-162.46790661
 20
281.36857324
 30
0.0
 11
-162.92731566
 21
280.90916419
 31
0.0
  0
LINE
  5
38B
100
AcDbEntity
  8
ZUWAKU
  6
CONTINUOUS
 62
      32
100
AcDbLine
 10
-160.69619558
 20
282.00891341
 30
0.0
 11
-161.32219558
 21
281.38291341
 31
0.0
  0
LINE
  5
38C
100
AcDbEntity
  8
ZUWAKU
  6
CONTINUOUS
 62
      32
100
AcDbLine
 10
-162.05935602
 20
280.64575297
 30
0.0
 11
-162.51876507
 21
280.18634392
 31
0.0
  0
LINE
  5
38D
100
AcDbEntity
  8
ZUWAKU
  6
CONTINUOUS
 62
      32
100
AcDbLine
 10
-160.01264229
 20
282.12678128
 30
0.0
 11
-160.75651016
 21
281.38291341
 31
0.0
  0
LINE
  5
38E
100
AcDbEntity
  8
ZUWAKU
  6
CONTINUOUS
 62
      32
100
AcDbLine
 10
-161.85508073
 20
280.28434284
 30
0.0
 11
-162.31448978
 21
279.82493379
 31
0.0
  0
LINE
  5
38F
100
AcDbEntity
  8
ZUWAKU
  6
CONTINUOUS
 62
      32
100
AcDbLine
 10
-158.89190125
 20
282.68183689
 30
0.0
 11
-160.15656779
 21
281.41717036
 31
0.0
  0
LINE
  5
390
100
AcDbEntity
  8
ZUWAKU
  6
CONTINUOUS
 62
      32
100
AcDbLine
 10
-161.65080544
 20
279.92293271
 30
0.0
 11
-162.11021449
 21
279.46352366
 31
0.0
  0
LINE
  5
391
100
AcDbEntity
  8
ZUWAKU
  6
CONTINUOUS
 62
      32
100
AcDbLine
 10
-161.44653015
 20
279.56152257
 30
0.0
 11
-161.90593919
 21
279.10211353
 31
0.0
  0
LINE
  5
392
100
AcDbEntity
  8
ZUWAKU
  6
CONTINUOUS
 62
      32
100
AcDbLine
 10
-161.24225485
 20
279.20011244
 30
0.0
 11
-161.7016639
 21
278.74070339
 31
0.0
  0
LINE
  5
393
100
AcDbEntity
  8
ZUWAKU
  6
CONTINUOUS
 62
      32
100
AcDbLine
 10
-160.86676846
 20
279.00991341
 30
0.0
 11
-161.49276846
 21
278.38391341
 31
0.0
  0
LINE
  5
394
100
AcDbEntity
  8
ZUWAKU
  6
CONTINUOUS
 62
      32
100
AcDbLine
 10
-160.30108303
 20
279.00991341
 30
0.0
 11
-160.92708303
 21
278.38391341
 31
0.0
  0
LINE
  5
395
100
AcDbEntity
  8
ZUWAKU
  6
CONTINUOUS
 62
      32
100
AcDbLine
 10
-159.73539761
 20
279.00991341
 30
0.0
 11
-160.36139761
 21
278.38391341
 31
0.0
  0
LINE
  5
396
100
AcDbEntity
  8
ZUWAKU
  6
CONTINUOUS
 62
      32
100
AcDbLine
 10
-157.64868707
 20
280.53093852
 30
0.0
 11
-158.16710388
 21
280.01252171
 31
0.0
  0
LINE
  5
397
100
AcDbEntity
  8
ZUWAKU
  6
CONTINUOUS
 62
      32
100
AcDbLine
 10
-158.63793779
 20
279.5416878
 30
0.0
 11
-159.79571218
 21
278.38391341
 31
0.0
  0
LINE
  5
398
100
AcDbEntity
  8
ZUWAKU
  6
CONTINUOUS
 62
      32
100
AcDbLine
 10
-154.56918443
 20
282.47907031
 30
0.0
 11
-156.00352256
 21
281.04473218
 31
0.0
  0
LINE
  5
399
100
AcDbEntity
  8
ZUWAKU
  6
CONTINUOUS
 62
      32
100
AcDbLine
 10
-157.74222784
 20
279.3060269
 30
0.0
 11
-158.55099602
 21
278.49725872
 31
0.0
  0
LINE
  5
39A
100
AcDbEntity
  8
ZUWAKU
  6
CONTINUOUS
 62
      32
100
AcDbLine
 10
-154.18055298
 20
282.30201634
 30
0.0
 11
-156.32625725
 21
280.15631207
 31
0.0
  0
LINE
  5
39B
100
AcDbEntity
  8
ZUWAKU
  6
CONTINUOUS
 62
      32
100
AcDbLine
 10
-157.47265591
 20
279.00991341
 30
0.0
 11
-158.09615091
 21
278.38641841
 31
0.0
  0
LINE
  5
39C
100
AcDbEntity
  8
ZUWAKU
  6
CONTINUOUS
 62
      32
100
AcDbLine
 10
-156.90697048
 20
279.00991341
 30
0.0
 11
-157.53297048
 21
278.38391341
 31
0.0
  0
LINE
  5
39D
100
AcDbEntity
  8
ZUWAKU
  6
CONTINUOUS
 62
      32
100
AcDbLine
 10
-154.03970436
 20
281.87717953
 30
0.0
 11
-154.85423575
 21
281.06264814
 31
0.0
  0
LINE
  5
39E
100
AcDbEntity
  8
ZUWAKU
  6
CONTINUOUS
 62
      32
100
AcDbLine
 10
-155.5866777
 20
280.3302062
 30
0.0
 11
-156.40120909
 21
279.51567481
 31
0.0
  0
LINE
  5
39F
100
AcDbEntity
  8
ZUWAKU
  6
CONTINUOUS
 62
      32
100
AcDbLine
 10
-154.07223941
 20
281.27895906
 30
0.0
 11
-156.96728506
 21
278.38391341
 31
0.0
  0
LINE
  5
3A0
100
AcDbEntity
  8
ZUWAKU
  6
CONTINUOUS
 62
      32
100
AcDbLine
 10
-154.31792526
 20
280.46758779
 30
0.0
 11
-156.33710072
 21
278.44841233
 31
0.0
  0
LINE
  5
3A1
100
AcDbEntity
  8
ZUWAKU
  6
CONTINUOUS
 62
      32
100
AcDbLine
 10
-152.20347767
 20
280.88457145
 30
0.0
 11
-154.70413571
 21
278.38391341
 31
0.0
  0
LINE
  5
3A2
100
AcDbEntity
  8
ZUWAKU
  6
CONTINUOUS
 62
      32
100
AcDbLine
 10
-152.01059503
 20
282.20882494
 30
0.0
 11
-152.14106201
 21
282.07835796
 31
0.0
  0
LINE
  5
3A3
100
AcDbEntity
  8
ZUWAKU
  6
CONTINUOUS
 62
      32
100
AcDbLine
 10
-155.14921434
 20
279.07020563
 30
0.0
 11
-155.63530826
 21
278.58411171
 31
0.0
  0
LINE
  5
3A4
100
AcDbEntity
  8
ZUWAKU
  6
CONTINUOUS
 62
      32
100
AcDbLine
 10
-151.52624344
 20
282.12749111
 30
0.0
 11
-152.05972817
 21
281.59400637
 31
0.0
  0
LINE
  5
3A5
100
AcDbEntity
  8
ZUWAKU
  6
CONTINUOUS
 62
      32
100
AcDbLine
 10
-154.64382113
 20
279.00991341
 30
0.0
 11
-155.21411258
 21
278.43962197
 31
0.0
  0
LINE
  5
3A6
100
AcDbEntity
  8
ZUWAKU
  6
CONTINUOUS
 62
      32
100
AcDbLine
 10
-149.11331488
 20
280.58062169
 30
0.0
 11
-151.15885961
 21
278.53507697
 31
0.0
  0
LINE
  5
3A7
100
AcDbEntity
  8
ZUWAKU
  6
CONTINUOUS
 62
      32
100
AcDbLine
 10
-151.81539401
 20
279.00991341
 30
0.0
 11
-152.44139401
 21
278.38391341
 31
0.0
  0
LINE
  5
3A8
100
AcDbEntity
  8
ZUWAKU
  6
CONTINUOUS
 62
      32
100
AcDbLine
 10
-152.23702224
 20
279.1539706
 30
0.0
 11
-153.00707943
 21
278.38391341
 31
0.0
  0
LINE
  5
3A9
100
AcDbEntity
  8
ZUWAKU
  6
CONTINUOUS
 62
      32
100
AcDbLine
 10
-152.12388516
 20
279.83279311
 30
0.0
 11
-152.88544703
 21
279.07123124
 31
0.0
  0
LINE
  5
3AA
100
AcDbEntity
  8
ZUWAKU
  6
CONTINUOUS
 62
      32
100
AcDbLine
 10
-154.13845028
 20
278.38391341
 30
0.0
 11
-152.01074807
 21
280.51161562
 31
0.0
  0
LINE
  5
3AB
100
AcDbEntity
  8
ZUWAKU
  6
CONTINUOUS
 62
      32
100
AcDbLine
 10
-147.92446063
 20
280.6381051
 30
0.0
 11
-150.17488725
 21
278.38767847
 31
0.0
  0
LINE
  5
3AC
100
AcDbEntity
  8
ZUWAKU
  6
CONTINUOUS
 62
      32
100
AcDbLine
 10
-148.16759035
 20
279.82928995
 30
0.0
 11
-149.34583398
 21
278.65104631
 31
0.0
  0
LINE
  5
3AD
100
AcDbEntity
  8
ZUWAKU
  6
CONTINUOUS
 62
      32
100
AcDbLine
 10
-148.375
 20
279.05619487
 30
0.0
 11
-149.04728146
 21
278.38391341
 31
0.0
  0
LINE
  5
3AE
100
AcDbEntity
  8
ZUWAKU
  6
CONTINUOUS
 62
      32
100
AcDbLine
 10
-147.85559603
 20
279.00991341
 30
0.0
 11
-148.48159603
 21
278.38391341
 31
0.0
  0
LINE
  5
3AF
100
AcDbEntity
  8
ZUWAKU
  6
CONTINUOUS
 62
      32
100
AcDbLine
 10
-145.85025627
 20
280.44956775
 30
0.0
 11
-147.91591061
 21
278.38391341
 31
0.0
  0
LINE
  5
3B0
100
AcDbEntity
  8
ZUWAKU
  6
CONTINUOUS
 62
      32
100
AcDbLine
 10
-149.96595629
 20
280.29366571
 30
0.0
 11
-150.2874645
 21
279.9721575
 31
0.0
  0
LINE
  5
3B1
100
AcDbEntity
  8
ZUWAKU
  6
CONTINUOUS
 62
      32
100
AcDbLine
 10
-150.92509315
 20
279.33452885
 30
0.0
 11
-151.87570858
 21
278.38391341
 31
0.0
  0
LINE
  5
3B2
100
AcDbEntity
  8
ZUWAKU
  6
CONTINUOUS
 62
      32
100
AcDbLine
 10
-149.77499768
 20
279.35325347
 30
0.0
 11
-150.53680885
 21
278.5914423
 31
0.0
  0
LINE
  5
3B3
100
AcDbEntity
  8
ZUWAKU
  6
CONTINUOUS
 62
      32
100
AcDbLine
 10
-148.49014605
 20
280.6381051
 30
0.0
 11
-148.56782732
 21
280.56042383
 31
0.0
  0
LINE
  5
3B4
100
AcDbEntity
  8
ZUWAKU
  6
CONTINUOUS
 62
      32
100
AcDbLine
 10
-148.76338911
 20
280.36486203
 30
0.0
 11
-149.30120257
 21
279.82704858
 31
0.0
  0
LINE
  5
3B5
100
AcDbEntity
  8
ZUWAKU
  6
CONTINUOUS
 62
      32
100
AcDbLine
 10
-144.38733162
 20
280.75891341
 30
0.0
 11
-145.26233162
 21
279.88391341
 31
0.0
  0
LINE
  5
3B6
100
AcDbEntity
  8
ZUWAKU
  6
CONTINUOUS
 62
      32
100
AcDbLine
 10
-145.49945485
 20
279.64679018
 30
0.0
 11
-146.63431234
 21
278.51193269
 31
0.0
  0
LINE
  5
3B7
100
AcDbEntity
  8
ZUWAKU
  6
CONTINUOUS
 62
      32
100
AcDbLine
 10
-113.275
 20
-277.11608659
 30
0.0
 11
-112.15
 21
-273.99108659
 31
0.0
  0
LINE
  5
3B8
100
AcDbEntity
  8
ZUWAKU
  6
CONTINUOUS
 62
      32
100
AcDbLine
 10
-121.6
 20
-277.11608659
 30
0.0
 11
-119.85
 21
-272.36608659
 31
0.0
  0
LINE
  5
3B9
100
AcDbEntity
  8
ZUWAKU
  6
CONTINUOUS
 62
      32
100
AcDbLine
 10
-123.225
 20
-270.61608659
 30
0.0
 11
-123.85
 21
-272.36608659
 31
0.0
  0
LINE
  5
3BA
100
AcDbEntity
  8
ZUWAKU
  6
CONTINUOUS
 62
      32
100
AcDbLine
 10
-117.475
 20
-277.11608659
 30
0.0
 11
-115.6
 21
-271.61608659
 31
0.0
  0
LINE
  5
3BB
100
AcDbEntity
  8
ZUWAKU
  6
CONTINUOUS
 62
      32
100
AcDbLine
 10
-91.25
 20
-277.11608659
 30
0.0
 11
-93.375
 21
-273.61608659
 31
0.0
  0
LINE
  5
3BC
100
AcDbEntity
  8
ZUWAKU
  6
CONTINUOUS
 62
      32
100
AcDbLine
 10
-123.225
 20
-270.61608659
 30
0.0
 11
-120.85
 21
-270.61608659
 31
0.0
  0
LINE
  5
3BD
100
AcDbEntity
  8
ZUWAKU
  6
CONTINUOUS
 62
      32
100
AcDbLine
 10
-110.525
 20
-269.49108659
 30
0.0
 11
-106.4
 21
-269.49108659
 31
0.0
  0
LINE
  5
3BE
100
AcDbEntity
  8
ZUWAKU
  6
CONTINUOUS
 62
      32
100
AcDbLine
 10
-101.65
 20
-269.11608659
 30
0.0
 11
-100.4
 21
-269.11608659
 31
0.0
  0
LINE
  5
3BF
100
AcDbEntity
  8
ZUWAKU
  6
CONTINUOUS
 62
      32
100
AcDbLine
 10
-109.65
 20
-267.24108659
 30
0.0
 11
-110.525
 21
-269.49108659
 31
0.0
  0
LINE
  5
3C0
100
AcDbEntity
  8
ZUWAKU
  6
CONTINUOUS
 62
      32
100
AcDbLine
 10
-105.65
 20
-267.24108659
 30
0.0
 11
-106.4
 21
-269.49108659
 31
0.0
  0
LINE
  5
3C1
100
AcDbEntity
  8
ZUWAKU
  6
CONTINUOUS
 62
      32
100
AcDbLine
 10
-121.6
 20
-277.11608659
 30
0.0
 11
-117.475
 21
-277.11608659
 31
0.0
  0
LINE
  5
3C2
100
AcDbEntity
  8
ZUWAKU
  6
CONTINUOUS
 62
      32
100
AcDbLine
 10
-115.225
 20
-267.24108659
 30
0.0
 11
-110.6
 21
-267.24108659
 31
0.0
  0
LINE
  5
3C3
100
AcDbEntity
  8
ZUWAKU
  6
CONTINUOUS
 62
      32
100
AcDbLine
 10
-94.83514872
 20
-269.49108659
 30
0.0
 11
-99.25
 21
-269.49108659
 31
0.0
  0
LINE
  5
3C4
100
AcDbEntity
  8
ZUWAKU
  6
CONTINUOUS
 62
      32
100
AcDbLine
 10
-90.0
 20
-267.24108659
 30
0.0
 11
-98.5
 21
-267.24108659
 31
0.0
  0
LINE
  5
3C5
100
AcDbEntity
  8
ZUWAKU
  6
CONTINUOUS
 62
      32
100
AcDbLine
 10
-123.85
 20
-272.36608659
 30
0.0
 11
-119.85
 21
-272.36608659
 31
0.0
  0
LINE
  5
3C6
100
AcDbEntity
  8
ZUWAKU
  6
CONTINUOUS
 62
      32
100
AcDbLine
 10
-113.275
 20
-277.11608659
 30
0.0
 11
-106.65
 21
-277.11608659
 31
0.0
  0
LINE
  5
3C7
100
AcDbEntity
  8
ZUWAKU
  6
CONTINUOUS
 62
      32
100
AcDbLine
 10
-112.15
 20
-273.99108659
 30
0.0
 11
-106.15
 21
-273.99108659
 31
0.0
  0
LINE
  5
3C8
100
AcDbEntity
  8
ZUWAKU
  6
CONTINUOUS
 62
      32
100
AcDbLine
 10
-91.25
 20
-277.11608659
 30
0.0
 11
-94.375
 21
-277.11608659
 31
0.0
  0
LINE
  5
3C9
100
AcDbEntity
  8
ZUWAKU
  6
CONTINUOUS
 62
      32
100
AcDbLine
 10
-99.25
 20
-269.49108659
 30
0.0
 11
-98.5
 21
-267.24108659
 31
0.0
  0
LINE
  5
3CA
100
AcDbEntity
  8
ZUWAKU
  6
CONTINUOUS
 62
      32
100
AcDbLine
 10
-142.725
 20
-267.24108659
 30
0.0
 11
-144.85
 21
-273.24108659
 31
0.0
  0
LINE
  5
3CB
100
AcDbEntity
  8
ZUWAKU
  6
CONTINUOUS
 62
      32
100
AcDbLine
 10
-144.85
 20
-273.24108659
 30
0.0
 11
-141.975
 21
-273.24108659
 31
0.0
  0
LINE
  5
3CC
100
AcDbEntity
  8
ZUWAKU
  6
CONTINUOUS
 62
      32
100
AcDbLine
 10
-141.975
 20
-273.24108659
 30
0.0
 11
-139.725
 21
-267.24108659
 31
0.0
  0
LINE
  5
3CD
100
AcDbEntity
  8
ZUWAKU
  6
CONTINUOUS
 62
      32
100
AcDbLine
 10
-139.725
 20
-267.24108659
 30
0.0
 11
-142.725
 21
-267.24108659
 31
0.0
  0
LINE
  5
3CE
100
AcDbEntity
  8
ZUWAKU
  6
CONTINUOUS
 62
      32
100
AcDbLine
 10
-104.65
 20
-273.24108659
 30
0.0
 11
-103.275
 21
-272.11608659
 31
0.0
  0
LINE
  5
3CF
100
AcDbEntity
  8
ZUWAKU
  6
CONTINUOUS
 62
      32
100
AcDbLine
 10
-103.275
 20
-272.11608659
 30
0.0
 11
-102.275
 21
-270.74108659
 31
0.0
  0
LINE
  5
3D0
100
AcDbEntity
  8
ZUWAKU
  6
CONTINUOUS
 62
      32
100
AcDbLine
 10
-102.275
 20
-270.74108659
 30
0.0
 11
-101.65
 21
-269.11608659
 31
0.0
  0
LINE
  5
3D1
100
AcDbEntity
  8
ZUWAKU
  6
CONTINUOUS
 62
      32
100
AcDbLine
 10
-132.45
 20
-267.24108659
 30
0.0
 11
-123.325
 21
-267.24108659
 31
0.0
  0
LINE
  5
3D2
100
AcDbEntity
  8
ZUWAKU
  6
CONTINUOUS
 62
      32
100
AcDbLine
 10
-123.325
 20
-267.24108659
 30
0.0
 11
-124.075
 21
-269.49108659
 31
0.0
  0
LINE
  5
3D3
100
AcDbEntity
  8
ZUWAKU
  6
CONTINUOUS
 62
      32
100
AcDbLine
 10
-123.325
 20
-267.24108659
 30
0.0
 11
-124.075
 21
-269.49108659
 31
0.0
  0
LINE
  5
3D4
100
AcDbEntity
  8
ZUWAKU
  6
CONTINUOUS
 62
      32
100
AcDbLine
 10
-124.075
 20
-269.49108659
 30
0.0
 11
-133.2
 21
-269.49108659
 31
0.0
  0
LINE
  5
3D5
100
AcDbEntity
  8
ZUWAKU
  6
CONTINUOUS
 62
      32
100
AcDbLine
 10
-133.2
 20
-269.49108659
 30
0.0
 11
-132.45
 21
-267.24108659
 31
0.0
  0
LINE
  5
3D6
100
AcDbEntity
  8
ZUWAKU
  6
CONTINUOUS
 62
      32
100
AcDbLine
 10
-133.2
 20
-269.49108659
 30
0.0
 11
-132.45
 21
-267.24108659
 31
0.0
  0
LINE
  5
3D7
100
AcDbEntity
  8
ZUWAKU
  6
CONTINUOUS
 62
      32
100
AcDbLine
 10
-123.325
 20
-267.24108659
 30
0.0
 11
-132.45
 21
-267.24108659
 31
0.0
  0
LINE
  5
3D8
100
AcDbEntity
  8
ZUWAKU
  6
CONTINUOUS
 62
      32
100
AcDbLine
 10
-132.45
 20
-267.24108659
 30
0.0
 11
-133.2
 21
-269.49108659
 31
0.0
  0
LINE
  5
3D9
100
AcDbEntity
  8
ZUWAKU
  6
CONTINUOUS
 62
      32
100
AcDbLine
 10
-133.2
 20
-269.49108659
 30
0.0
 11
-124.075
 21
-269.49108659
 31
0.0
  0
LINE
  5
3DA
100
AcDbEntity
  8
ZUWAKU
  6
CONTINUOUS
 62
      32
100
AcDbLine
 10
-128.575
 20
-276.86608659
 30
0.0
 11
-127.575
 21
-276.36608659
 31
0.0
  0
LINE
  5
3DB
100
AcDbEntity
  8
ZUWAKU
  6
CONTINUOUS
 62
      32
100
AcDbLine
 10
-127.575
 20
-276.36608659
 30
0.0
 11
-126.825
 21
-275.61608659
 31
0.0
  0
LINE
  5
3DC
100
AcDbEntity
  8
ZUWAKU
  6
CONTINUOUS
 62
      32
100
AcDbLine
 10
-126.825
 20
-275.61608659
 30
0.0
 11
-125.95
 21
-274.74108659
 31
0.0
  0
LINE
  5
3DD
100
AcDbEntity
  8
ZUWAKU
  6
CONTINUOUS
 62
      32
100
AcDbLine
 10
-125.95
 20
-274.74108659
 30
0.0
 11
-124.45
 21
-270.61608659
 31
0.0
  0
LINE
  5
3DE
100
AcDbEntity
  8
ZUWAKU
  6
CONTINUOUS
 62
      32
100
AcDbLine
 10
-124.45
 20
-270.61608659
 30
0.0
 11
-133.45
 21
-270.61608659
 31
0.0
  0
LINE
  5
3DF
100
AcDbEntity
  8
ZUWAKU
  6
CONTINUOUS
 62
      32
100
AcDbLine
 10
-133.45
 20
-270.61608659
 30
0.0
 11
-133.95
 21
-272.36608659
 31
0.0
  0
LINE
  5
3E0
100
AcDbEntity
  8
ZUWAKU
  6
CONTINUOUS
 62
      32
100
AcDbLine
 10
-133.95
 20
-272.36608659
 30
0.0
 11
-128.7
 21
-272.36608659
 31
0.0
  0
LINE
  5
3E1
100
AcDbEntity
  8
ZUWAKU
  6
CONTINUOUS
 62
      32
100
AcDbLine
 10
-128.7
 20
-272.36608659
 30
0.0
 11
-128.95
 21
-273.24108659
 31
0.0
  0
LINE
  5
3E2
100
AcDbEntity
  8
ZUWAKU
  6
CONTINUOUS
 62
      32
100
AcDbLine
 10
-128.95
 20
-273.24108659
 30
0.0
 11
-129.575
 21
-273.99108659
 31
0.0
  0
LINE
  5
3E3
100
AcDbEntity
  8
ZUWAKU
  6
CONTINUOUS
 62
      32
100
AcDbLine
 10
-129.575
 20
-273.99108659
 30
0.0
 11
-130.2
 21
-274.61608659
 31
0.0
  0
LINE
  5
3E4
100
AcDbEntity
  8
ZUWAKU
  6
CONTINUOUS
 62
      32
100
AcDbLine
 10
-130.2
 20
-274.61608659
 30
0.0
 11
-131.075
 21
-275.24108659
 31
0.0
  0
LINE
  5
3E5
100
AcDbEntity
  8
ZUWAKU
  6
CONTINUOUS
 62
      32
100
AcDbLine
 10
-131.075
 20
-275.24108659
 30
0.0
 11
-135.2
 21
-275.24108659
 31
0.0
  0
LINE
  5
3E6
100
AcDbEntity
  8
ZUWAKU
  6
CONTINUOUS
 62
      32
100
AcDbLine
 10
-135.2
 20
-275.24108659
 30
0.0
 11
-135.95
 21
-277.11608659
 31
0.0
  0
LINE
  5
3E7
100
AcDbEntity
  8
ZUWAKU
  6
CONTINUOUS
 62
      32
100
AcDbLine
 10
-143.975
 20
-277.11608659
 30
0.0
 11
-143.35
 21
-275.24108659
 31
0.0
  0
LINE
  5
3E8
100
AcDbEntity
  8
ZUWAKU
  6
CONTINUOUS
 62
      32
100
AcDbLine
 10
-143.35
 20
-275.24108659
 30
0.0
 11
-142.225
 21
-275.24108659
 31
0.0
  0
LINE
  5
3E9
100
AcDbEntity
  8
ZUWAKU
  6
CONTINUOUS
 62
      32
100
AcDbLine
 10
-142.225
 20
-275.24108659
 30
0.0
 11
-141.225
 21
-275.11608659
 31
0.0
  0
LINE
  5
3EA
100
AcDbEntity
  8
ZUWAKU
  6
CONTINUOUS
 62
      32
100
AcDbLine
 10
-141.225
 20
-275.11608659
 30
0.0
 11
-140.225
 21
-274.61608659
 31
0.0
  0
LINE
  5
3EB
100
AcDbEntity
  8
ZUWAKU
  6
CONTINUOUS
 62
      32
100
AcDbLine
 10
-140.225
 20
-274.61608659
 30
0.0
 11
-139.6
 21
-273.61608659
 31
0.0
  0
LINE
  5
3EC
100
AcDbEntity
  8
ZUWAKU
  6
CONTINUOUS
 62
      32
100
AcDbLine
 10
-139.6
 20
-273.61608659
 30
0.0
 11
-137.225
 21
-267.24108659
 31
0.0
  0
LINE
  5
3ED
100
AcDbEntity
  8
ZUWAKU
  6
CONTINUOUS
 62
      32
100
AcDbLine
 10
-137.225
 20
-267.24108659
 30
0.0
 11
-133.85
 21
-267.24108659
 31
0.0
  0
LINE
  5
3EE
100
AcDbEntity
  8
ZUWAKU
  6
CONTINUOUS
 62
      32
100
AcDbLine
 10
-133.85
 20
-267.24108659
 30
0.0
 11
-136.35
 21
-274.61608659
 31
0.0
  0
LINE
  5
3EF
100
AcDbEntity
  8
ZUWAKU
  6
CONTINUOUS
 62
      32
100
AcDbLine
 10
-136.35
 20
-274.61608659
 30
0.0
 11
-137.35
 21
-275.61608659
 31
0.0
  0
LINE
  5
3F0
100
AcDbEntity
  8
ZUWAKU
  6
CONTINUOUS
 62
      32
100
AcDbLine
 10
-137.35
 20
-275.61608659
 30
0.0
 11
-138.35
 21
-276.49108659
 31
0.0
  0
LINE
  5
3F1
100
AcDbEntity
  8
ZUWAKU
  6
CONTINUOUS
 62
      32
100
AcDbLine
 10
-138.35
 20
-276.49108659
 30
0.0
 11
-139.6
 21
-276.99108659
 31
0.0
  0
LINE
  5
3F2
100
AcDbEntity
  8
ZUWAKU
  6
CONTINUOUS
 62
      32
100
AcDbLine
 10
-110.6
 20
-267.24108659
 30
0.0
 11
-111.35
 21
-268.86608659
 31
0.0
  0
LINE
  5
3F3
100
AcDbEntity
  8
ZUWAKU
  6
CONTINUOUS
 62
      32
100
AcDbLine
 10
-111.35
 20
-268.86608659
 30
0.0
 11
-112.6
 21
-270.11608659
 31
0.0
  0
LINE
  5
3F4
100
AcDbEntity
  8
ZUWAKU
  6
CONTINUOUS
 62
      32
100
AcDbLine
 10
-111.35
 20
-268.86608659
 30
0.0
 11
-112.6
 21
-270.11608659
 31
0.0
  0
LINE
  5
3F5
100
AcDbEntity
  8
ZUWAKU
  6
CONTINUOUS
 62
      32
100
AcDbLine
 10
-112.6
 20
-270.11608659
 30
0.0
 11
-113.975
 21
-271.11608659
 31
0.0
  0
LINE
  5
3F6
100
AcDbEntity
  8
ZUWAKU
  6
CONTINUOUS
 62
      32
100
AcDbLine
 10
-113.975
 20
-271.11608659
 30
0.0
 11
-115.6
 21
-271.61608659
 31
0.0
  0
LINE
  5
3F7
100
AcDbEntity
  8
ZUWAKU
  6
CONTINUOUS
 62
      32
100
AcDbLine
 10
-113.975
 20
-271.11608659
 30
0.0
 11
-115.6
 21
-271.61608659
 31
0.0
  0
LINE
  5
3F8
100
AcDbEntity
  8
ZUWAKU
  6
CONTINUOUS
 62
      32
100
AcDbLine
 10
-115.6
 20
-271.61608659
 30
0.0
 11
-117.475
 21
-277.11608659
 31
0.0
  0
LINE
  5
3F9
100
AcDbEntity
  8
ZUWAKU
  6
CONTINUOUS
 62
      32
100
AcDbLine
 10
-117.475
 20
-277.11608659
 30
0.0
 11
-121.6
 21
-277.11608659
 31
0.0
  0
LINE
  5
3FA
100
AcDbEntity
  8
ZUWAKU
  6
CONTINUOUS
 62
      32
100
AcDbLine
 10
-117.475
 20
-277.11608659
 30
0.0
 11
-121.6
 21
-277.11608659
 31
0.0
  0
LINE
  5
3FB
100
AcDbEntity
  8
ZUWAKU
  6
CONTINUOUS
 62
      32
100
AcDbLine
 10
-120.05
 20
-272.36608659
 30
0.0
 11
-123.85
 21
-272.36608659
 31
0.0
  0
LINE
  5
3FC
100
AcDbEntity
  8
ZUWAKU
  6
CONTINUOUS
 62
      32
100
AcDbLine
 10
-123.85
 20
-272.36608659
 30
0.0
 11
-123.225
 21
-270.61608659
 31
0.0
  0
LINE
  5
3FD
100
AcDbEntity
  8
ZUWAKU
  6
CONTINUOUS
 62
      32
100
AcDbLine
 10
-121.6
 20
-277.11608659
 30
0.0
 11
-119.85
 21
-272.36608659
 31
0.0
  0
LINE
  5
3FE
100
AcDbEntity
  8
ZUWAKU
  6
CONTINUOUS
 62
      32
100
AcDbLine
 10
-121.6
 20
-277.11608659
 30
0.0
 11
-119.85
 21
-272.36608659
 31
0.0
  0
LINE
  5
3FF
100
AcDbEntity
  8
ZUWAKU
  6
CONTINUOUS
 62
      32
100
AcDbLine
 10
-123.225
 20
-270.61608659
 30
0.0
 11
-120.85
 21
-270.61608659
 31
0.0
  0
LINE
  5
400
100
AcDbEntity
  8
ZUWAKU
  6
CONTINUOUS
 62
      32
100
AcDbLine
 10
-123.225
 20
-270.61608659
 30
0.0
 11
-120.85
 21
-270.61608659
 31
0.0
  0
LINE
  5
401
100
AcDbEntity
  8
ZUWAKU
  6
CONTINUOUS
 62
      32
100
AcDbLine
 10
-120.85
 20
-270.61608659
 30
0.0
 11
-119.225
 21
-270.49108659
 31
0.0
  0
LINE
  5
402
100
AcDbEntity
  8
ZUWAKU
  6
CONTINUOUS
 62
      32
100
AcDbLine
 10
-120.85
 20
-270.61608659
 30
0.0
 11
-119.225
 21
-270.49108659
 31
0.0
  0
LINE
  5
403
100
AcDbEntity
  8
ZUWAKU
  6
CONTINUOUS
 62
      32
100
AcDbLine
 10
-119.225
 20
-270.49108659
 30
0.0
 11
-117.475
 21
-269.74108659
 31
0.0
  0
LINE
  5
404
100
AcDbEntity
  8
ZUWAKU
  6
CONTINUOUS
 62
      32
100
AcDbLine
 10
-119.225
 20
-270.49108659
 30
0.0
 11
-117.475
 21
-269.74108659
 31
0.0
  0
LINE
  5
405
100
AcDbEntity
  8
ZUWAKU
  6
CONTINUOUS
 62
      32
100
AcDbLine
 10
-117.475
 20
-269.74108659
 30
0.0
 11
-116.225
 21
-268.61608659
 31
0.0
  0
LINE
  5
406
100
AcDbEntity
  8
ZUWAKU
  6
CONTINUOUS
 62
      32
100
AcDbLine
 10
-117.475
 20
-269.74108659
 30
0.0
 11
-116.225
 21
-268.61608659
 31
0.0
  0
LINE
  5
407
100
AcDbEntity
  8
ZUWAKU
  6
CONTINUOUS
 62
      32
100
AcDbLine
 10
-139.725
 20
-267.24108659
 30
0.0
 11
-141.975
 21
-273.24108659
 31
0.0
  0
LINE
  5
408
100
AcDbEntity
  8
ZUWAKU
  6
CONTINUOUS
 62
      32
100
AcDbLine
 10
-141.975
 20
-273.24108659
 30
0.0
 11
-144.85
 21
-273.24108659
 31
0.0
  0
LINE
  5
409
100
AcDbEntity
  8
ZUWAKU
  6
CONTINUOUS
 62
      32
100
AcDbLine
 10
-141.975
 20
-273.24108659
 30
0.0
 11
-144.85
 21
-273.24108659
 31
0.0
  0
LINE
  5
40A
100
AcDbEntity
  8
ZUWAKU
  6
CONTINUOUS
 62
      32
100
AcDbLine
 10
-144.85
 20
-273.24108659
 30
0.0
 11
-142.725
 21
-267.24108659
 31
0.0
  0
LINE
  5
40B
100
AcDbEntity
  8
ZUWAKU
  6
CONTINUOUS
 62
      32
100
AcDbLine
 10
-142.725
 20
-267.24108659
 30
0.0
 11
-139.725
 21
-267.24108659
 31
0.0
  0
LINE
  5
40C
100
AcDbEntity
  8
ZUWAKU
  6
CONTINUOUS
 62
      32
100
AcDbLine
 10
-142.725
 20
-267.24108659
 30
0.0
 11
-139.725
 21
-267.24108659
 31
0.0
  0
LINE
  5
40D
100
AcDbEntity
  8
ZUWAKU
  6
CONTINUOUS
 62
      32
100
AcDbLine
 10
-98.5
 20
-267.24108659
 30
0.0
 11
-99.25
 21
-269.49108659
 31
0.0
  0
LINE
  5
40E
100
AcDbEntity
  8
ZUWAKU
  6
CONTINUOUS
 62
      32
100
AcDbLine
 10
-99.25
 20
-269.49108659
 30
0.0
 11
-95.25
 21
-269.49108659
 31
0.0
  0
LINE
  5
40F
100
AcDbEntity
  8
ZUWAKU
  6
CONTINUOUS
 62
      32
100
AcDbLine
 10
-99.25
 20
-269.49108659
 30
0.0
 11
-95.25
 21
-269.49108659
 31
0.0
  0
LINE
  5
410
100
AcDbEntity
  8
ZUWAKU
  6
CONTINUOUS
 62
      32
100
AcDbLine
 10
-102.0
 20
-275.11608659
 30
0.0
 11
-102.75
 21
-277.24108659
 31
0.0
  0
LINE
  5
411
100
AcDbEntity
  8
ZUWAKU
  6
CONTINUOUS
 62
      32
100
AcDbLine
 10
-102.0
 20
-275.11608659
 30
0.0
 11
-102.75
 21
-277.24108659
 31
0.0
  0
LINE
  5
412
100
AcDbEntity
  8
ZUWAKU
  6
CONTINUOUS
 62
      32
100
AcDbLine
 10
-102.75
 20
-277.24108659
 30
0.0
 11
-99.0
 21
-276.61608659
 31
0.0
  0
LINE
  5
413
100
AcDbEntity
  8
ZUWAKU
  6
CONTINUOUS
 62
      32
100
AcDbLine
 10
-99.0
 20
-276.61608659
 30
0.0
 11
-97.25
 21
-276.11608659
 31
0.0
  0
LINE
  5
414
100
AcDbEntity
  8
ZUWAKU
  6
CONTINUOUS
 62
      32
100
AcDbLine
 10
-99.0
 20
-276.61608659
 30
0.0
 11
-97.25
 21
-276.11608659
 31
0.0
  0
LINE
  5
415
100
AcDbEntity
  8
ZUWAKU
  6
CONTINUOUS
 62
      32
100
AcDbLine
 10
-95.375
 20
-275.49108659
 30
0.0
 11
-94.375
 21
-277.11608659
 31
0.0
  0
LINE
  5
416
100
AcDbEntity
  8
ZUWAKU
  6
CONTINUOUS
 62
      32
100
AcDbLine
 10
-94.375
 20
-277.11608659
 30
0.0
 11
-91.25
 21
-277.11608659
 31
0.0
  0
LINE
  5
417
100
AcDbEntity
  8
ZUWAKU
  6
CONTINUOUS
 62
      32
100
AcDbLine
 10
-94.375
 20
-277.11608659
 30
0.0
 11
-91.25
 21
-277.11608659
 31
0.0
  0
LINE
  5
418
100
AcDbEntity
  8
ZUWAKU
  6
CONTINUOUS
 62
      32
100
AcDbLine
 10
-93.375
 20
-273.61608659
 30
0.0
 11
-92.25
 21
-272.11608659
 31
0.0
  0
LINE
  5
419
100
AcDbEntity
  8
ZUWAKU
  6
CONTINUOUS
 62
      32
100
AcDbLine
 10
-92.25
 20
-272.11608659
 30
0.0
 11
-91.25
 21
-270.61608659
 31
0.0
  0
LINE
  5
41A
100
AcDbEntity
  8
ZUWAKU
  6
CONTINUOUS
 62
      32
100
AcDbLine
 10
-91.25
 20
-270.61608659
 30
0.0
 11
-90.5
 21
-268.99108659
 31
0.0
  0
LINE
  5
41B
100
AcDbEntity
  8
ZUWAKU
  6
CONTINUOUS
 62
      32
100
AcDbLine
 10
-90.5
 20
-268.99108659
 30
0.0
 11
-90.0
 21
-267.24108659
 31
0.0
  0
LINE
  5
41C
100
AcDbEntity
  8
ZUWAKU
  6
CONTINUOUS
 62
      32
100
AcDbLine
 10
-90.5
 20
-268.99108659
 30
0.0
 11
-90.0
 21
-267.24108659
 31
0.0
  0
LINE
  5
41D
100
AcDbEntity
  8
ZUWAKU
  6
CONTINUOUS
 62
      32
100
AcDbLine
 10
-90.0
 20
-267.24108659
 30
0.0
 11
-98.5
 21
-267.24108659
 31
0.0
  0
LINE
  5
41E
100
AcDbEntity
  8
ZUWAKU
  6
CONTINUOUS
 62
      32
100
AcDbLine
 10
-97.625
 20
-273.49108659
 30
0.0
 11
-99.625
 21
-274.61608659
 31
0.0
  0
LINE
  5
41F
100
AcDbEntity
  8
ZUWAKU
  6
CONTINUOUS
 62
      32
100
AcDbLine
 10
-97.25
 20
-276.11608659
 30
0.0
 11
-95.375
 21
-275.49108659
 31
0.0
  0
LINE
  5
420
100
AcDbEntity
  8
ZUWAKU
  6
CONTINUOUS
 62
      32
100
AcDbLine
 10
-97.25
 20
-276.11608659
 30
0.0
 11
-95.375
 21
-275.49108659
 31
0.0
  0
LINE
  5
421
100
AcDbEntity
  8
ZUWAKU
  6
CONTINUOUS
 62
      32
100
AcDbLine
 10
-91.25
 20
-277.11608659
 30
0.0
 11
-93.375
 21
-273.61608659
 31
0.0
  0
LINE
  5
422
100
AcDbEntity
  8
ZUWAKU
  6
CONTINUOUS
 62
      32
100
AcDbLine
 10
-91.25
 20
-277.11608659
 30
0.0
 11
-93.375
 21
-273.61608659
 31
0.0
  0
LINE
  5
423
100
AcDbEntity
  8
ZUWAKU
  6
CONTINUOUS
 62
      32
100
AcDbLine
 10
-96.0
 20
-271.61608659
 30
0.0
 11
-97.625
 21
-273.49108659
 31
0.0
  0
LINE
  5
424
100
AcDbEntity
  8
ZUWAKU
  6
CONTINUOUS
 62
      32
100
AcDbLine
 10
-96.0
 20
-271.61608659
 30
0.0
 11
-97.625
 21
-273.49108659
 31
0.0
  0
LINE
  5
425
100
AcDbEntity
  8
ZUWAKU
  6
CONTINUOUS
 62
      32
100
AcDbLine
 10
-120.85
 20
-270.61608659
 30
0.0
 11
-119.225
 21
-270.49108659
 31
0.0
  0
LINE
  5
426
100
AcDbEntity
  8
ZUWAKU
  6
CONTINUOUS
 62
      32
100
AcDbLine
 10
-119.225
 20
-270.49108659
 30
0.0
 11
-117.475
 21
-269.74108659
 31
0.0
  0
LINE
  5
427
100
AcDbEntity
  8
ZUWAKU
  6
CONTINUOUS
 62
      32
100
AcDbLine
 10
-117.475
 20
-269.74108659
 30
0.0
 11
-116.225
 21
-268.61608659
 31
0.0
  0
LINE
  5
428
100
AcDbEntity
  8
ZUWAKU
  6
CONTINUOUS
 62
      32
100
AcDbLine
 10
-116.225
 20
-268.61608659
 30
0.0
 11
-115.225
 21
-267.24108659
 31
0.0
  0
LINE
  5
429
100
AcDbEntity
  8
ZUWAKU
  6
CONTINUOUS
 62
      32
100
AcDbLine
 10
-106.65
 20
-277.11608659
 30
0.0
 11
-104.4
 21
-276.11608659
 31
0.0
  0
LINE
  5
42A
100
AcDbEntity
  8
ZUWAKU
  6
CONTINUOUS
 62
      32
100
AcDbLine
 10
-104.4
 20
-276.11608659
 30
0.0
 11
-102.4
 21
-274.24108659
 31
0.0
  0
LINE
  5
42B
100
AcDbEntity
  8
ZUWAKU
  6
CONTINUOUS
 62
      32
100
AcDbLine
 10
-102.4
 20
-274.24108659
 30
0.0
 11
-100.9
 21
-271.74108659
 31
0.0
  0
LINE
  5
42C
100
AcDbEntity
  8
ZUWAKU
  6
CONTINUOUS
 62
      32
100
AcDbLine
 10
-100.9
 20
-271.74108659
 30
0.0
 11
-100.4
 21
-269.11608659
 31
0.0
  0
LINE
  5
42D
100
AcDbEntity
  8
ZUWAKU
  6
CONTINUOUS
 62
      32
100
AcDbLine
 10
-102.0
 20
-275.11608659
 30
0.0
 11
-99.625
 21
-274.61608659
 31
0.0
  0
LINE
  5
42E
100
AcDbEntity
  8
ZUWAKU
  6
CONTINUOUS
 62
      32
100
AcDbLine
 10
-99.625
 20
-274.61608659
 30
0.0
 11
-97.625
 21
-273.49108659
 31
0.0
  0
LINE
  5
42F
100
AcDbEntity
  8
ZUWAKU
  6
CONTINUOUS
 62
      32
100
AcDbLine
 10
-97.625
 20
-273.49108659
 30
0.0
 11
-96.0
 21
-271.61608659
 31
0.0
  0
LINE
  5
430
100
AcDbEntity
  8
ZUWAKU
  6
CONTINUOUS
 62
      32
100
AcDbLine
 10
-115.6
 20
-271.61608659
 30
0.0
 11
-113.975
 21
-271.11608659
 31
0.0
  0
LINE
  5
431
100
AcDbEntity
  8
ZUWAKU
  6
CONTINUOUS
 62
      32
100
AcDbLine
 10
-113.975
 20
-271.11608659
 30
0.0
 11
-112.6
 21
-270.11608659
 31
0.0
  0
LINE
  5
432
100
AcDbEntity
  8
ZUWAKU
  6
CONTINUOUS
 62
      32
100
AcDbLine
 10
-112.6
 20
-270.11608659
 30
0.0
 11
-111.35
 21
-268.86608659
 31
0.0
  0
LINE
  5
433
100
AcDbEntity
  8
ZUWAKU
  6
CONTINUOUS
 62
      32
100
AcDbLine
 10
-111.35
 20
-268.86608659
 30
0.0
 11
-110.6
 21
-267.24108659
 31
0.0
  0
LINE
  5
434
100
AcDbEntity
  8
ZUWAKU
  6
CONTINUOUS
 62
      32
100
AcDbLine
 10
-93.375
 20
-273.61608659
 30
0.0
 11
-92.25
 21
-272.11608659
 31
0.0
  0
LINE
  5
435
100
AcDbEntity
  8
ZUWAKU
  6
CONTINUOUS
 62
      32
100
AcDbLine
 10
-92.25
 20
-272.11608659
 30
0.0
 11
-91.25
 21
-270.61608659
 31
0.0
  0
LINE
  5
436
100
AcDbEntity
  8
ZUWAKU
  6
CONTINUOUS
 62
      32
100
AcDbLine
 10
-91.25
 20
-270.61608659
 30
0.0
 11
-90.5
 21
-268.99108659
 31
0.0
  0
LINE
  5
437
100
AcDbEntity
  8
ZUWAKU
  6
CONTINUOUS
 62
      32
100
AcDbLine
 10
-90.5
 20
-268.99108659
 30
0.0
 11
-90.0
 21
-267.24108659
 31
0.0
  0
LINE
  5
438
100
AcDbEntity
  8
ZUWAKU
  6
CONTINUOUS
 62
      32
100
AcDbLine
 10
-99.0
 20
-276.61608659
 30
0.0
 11
-97.25
 21
-276.11608659
 31
0.0
  0
LINE
  5
439
100
AcDbEntity
  8
ZUWAKU
  6
CONTINUOUS
 62
      32
100
AcDbLine
 10
-97.25
 20
-276.11608659
 30
0.0
 11
-95.375
 21
-275.49108659
 31
0.0
  0
LINE
  5
43A
100
AcDbEntity
  8
ZUWAKU
  6
CONTINUOUS
 62
      32
100
AcDbLine
 10
-102.275
 20
-270.74108659
 30
0.0
 11
-101.65
 21
-269.11608659
 31
0.0
  0
LINE
  5
43B
100
AcDbEntity
  8
ZUWAKU
  6
CONTINUOUS
 62
      32
100
AcDbLine
 10
-101.65
 20
-269.11608659
 30
0.0
 11
-100.4
 21
-269.11608659
 31
0.0
  0
LINE
  5
43C
100
AcDbEntity
  8
ZUWAKU
  6
CONTINUOUS
 62
      32
100
AcDbLine
 10
-101.65
 20
-269.11608659
 30
0.0
 11
-100.4
 21
-269.11608659
 31
0.0
  0
LINE
  5
43D
100
AcDbEntity
  8
ZUWAKU
  6
CONTINUOUS
 62
      32
100
AcDbLine
 10
-100.4
 20
-269.11608659
 30
0.0
 11
-100.9
 21
-271.74108659
 31
0.0
  0
LINE
  5
43E
100
AcDbEntity
  8
ZUWAKU
  6
CONTINUOUS
 62
      32
100
AcDbLine
 10
-100.9
 20
-271.74108659
 30
0.0
 11
-102.4
 21
-274.24108659
 31
0.0
  0
LINE
  5
43F
100
AcDbEntity
  8
ZUWAKU
  6
CONTINUOUS
 62
      32
100
AcDbLine
 10
-100.9
 20
-271.74108659
 30
0.0
 11
-102.4
 21
-274.24108659
 31
0.0
  0
LINE
  5
440
100
AcDbEntity
  8
ZUWAKU
  6
CONTINUOUS
 62
      32
100
AcDbLine
 10
-102.4
 20
-274.24108659
 30
0.0
 11
-104.4
 21
-276.11608659
 31
0.0
  0
LINE
  5
441
100
AcDbEntity
  8
ZUWAKU
  6
CONTINUOUS
 62
      32
100
AcDbLine
 10
-106.9
 20
-277.11608659
 30
0.0
 11
-113.275
 21
-277.11608659
 31
0.0
  0
LINE
  5
442
100
AcDbEntity
  8
ZUWAKU
  6
CONTINUOUS
 62
      32
100
AcDbLine
 10
-113.275
 20
-277.11608659
 30
0.0
 11
-112.15
 21
-273.99108659
 31
0.0
  0
LINE
  5
443
100
AcDbEntity
  8
ZUWAKU
  6
CONTINUOUS
 62
      32
100
AcDbLine
 10
-113.275
 20
-277.11608659
 30
0.0
 11
-112.15
 21
-273.99108659
 31
0.0
  0
LINE
  5
444
100
AcDbEntity
  8
ZUWAKU
  6
CONTINUOUS
 62
      32
100
AcDbLine
 10
-103.275
 20
-272.11608659
 30
0.0
 11
-102.275
 21
-270.74108659
 31
0.0
  0
LINE
  5
445
100
AcDbEntity
  8
ZUWAKU
  6
CONTINUOUS
 62
      32
100
AcDbLine
 10
-112.15
 20
-273.99108659
 30
0.0
 11
-106.15
 21
-273.99108659
 31
0.0
  0
LINE
  5
446
100
AcDbEntity
  8
ZUWAKU
  6
CONTINUOUS
 62
      32
100
AcDbLine
 10
-112.15
 20
-273.99108659
 30
0.0
 11
-106.15
 21
-273.99108659
 31
0.0
  0
LINE
  5
447
100
AcDbEntity
  8
ZUWAKU
  6
CONTINUOUS
 62
      32
100
AcDbLine
 10
-106.15
 20
-273.99108659
 30
0.0
 11
-104.65
 21
-273.24108659
 31
0.0
  0
LINE
  5
448
100
AcDbEntity
  8
ZUWAKU
  6
CONTINUOUS
 62
      32
100
AcDbLine
 10
-106.15
 20
-273.99108659
 30
0.0
 11
-104.65
 21
-273.24108659
 31
0.0
  0
LINE
  5
449
100
AcDbEntity
  8
ZUWAKU
  6
CONTINUOUS
 62
      32
100
AcDbLine
 10
-104.65
 20
-273.24108659
 30
0.0
 11
-103.275
 21
-272.11608659
 31
0.0
  0
LINE
  5
44A
100
AcDbEntity
  8
ZUWAKU
  6
CONTINUOUS
 62
      32
100
AcDbLine
 10
-124.45
 20
-270.61608659
 30
0.0
 11
-125.95
 21
-274.74108659
 31
0.0
  0
LINE
  5
44B
100
AcDbEntity
  8
ZUWAKU
  6
CONTINUOUS
 62
      32
100
AcDbLine
 10
-125.95
 20
-274.74108659
 30
0.0
 11
-126.825
 21
-275.61608659
 31
0.0
  0
LINE
  5
44C
100
AcDbEntity
  8
ZUWAKU
  6
CONTINUOUS
 62
      32
100
AcDbLine
 10
-125.95
 20
-274.74108659
 30
0.0
 11
-126.825
 21
-275.61608659
 31
0.0
  0
LINE
  5
44D
100
AcDbEntity
  8
ZUWAKU
  6
CONTINUOUS
 62
      32
100
AcDbLine
 10
-126.825
 20
-275.61608659
 30
0.0
 11
-127.575
 21
-276.36608659
 31
0.0
  0
LINE
  5
44E
100
AcDbEntity
  8
ZUWAKU
  6
CONTINUOUS
 62
      32
100
AcDbLine
 10
-127.575
 20
-276.36608659
 30
0.0
 11
-128.575
 21
-276.86608659
 31
0.0
  0
LINE
  5
44F
100
AcDbEntity
  8
ZUWAKU
  6
CONTINUOUS
 62
      32
100
AcDbLine
 10
-127.575
 20
-276.36608659
 30
0.0
 11
-128.575
 21
-276.86608659
 31
0.0
  0
LINE
  5
450
100
AcDbEntity
  8
ZUWAKU
  6
CONTINUOUS
 62
      32
100
AcDbLine
 10
-128.575
 20
-276.86608659
 30
0.0
 11
-129.575
 21
-277.11608659
 31
0.0
  0
LINE
  5
451
100
AcDbEntity
  8
ZUWAKU
  6
CONTINUOUS
 62
      32
100
AcDbLine
 10
-129.575
 20
-277.11608659
 30
0.0
 11
-135.95
 21
-277.11608659
 31
0.0
  0
LINE
  5
452
100
AcDbEntity
  8
ZUWAKU
  6
CONTINUOUS
 62
      32
100
AcDbLine
 10
-129.575
 20
-277.11608659
 30
0.0
 11
-135.95
 21
-277.11608659
 31
0.0
  0
LINE
  5
453
100
AcDbEntity
  8
ZUWAKU
  6
CONTINUOUS
 62
      32
100
AcDbLine
 10
-135.95
 20
-277.11608659
 30
0.0
 11
-135.2
 21
-275.24108659
 31
0.0
  0
LINE
  5
454
100
AcDbEntity
  8
ZUWAKU
  6
CONTINUOUS
 62
      32
100
AcDbLine
 10
-135.2
 20
-275.24108659
 30
0.0
 11
-131.075
 21
-275.24108659
 31
0.0
  0
LINE
  5
455
100
AcDbEntity
  8
ZUWAKU
  6
CONTINUOUS
 62
      32
100
AcDbLine
 10
-135.2
 20
-275.24108659
 30
0.0
 11
-131.075
 21
-275.24108659
 31
0.0
  0
LINE
  5
456
100
AcDbEntity
  8
ZUWAKU
  6
CONTINUOUS
 62
      32
100
AcDbLine
 10
-128.7
 20
-272.36608659
 30
0.0
 11
-133.95
 21
-272.36608659
 31
0.0
  0
LINE
  5
457
100
AcDbEntity
  8
ZUWAKU
  6
CONTINUOUS
 62
      32
100
AcDbLine
 10
-133.95
 20
-272.36608659
 30
0.0
 11
-133.45
 21
-270.61608659
 31
0.0
  0
LINE
  5
458
100
AcDbEntity
  8
ZUWAKU
  6
CONTINUOUS
 62
      32
100
AcDbLine
 10
-133.95
 20
-272.36608659
 30
0.0
 11
-133.45
 21
-270.61608659
 31
0.0
  0
LINE
  5
459
100
AcDbEntity
  8
ZUWAKU
  6
CONTINUOUS
 62
      32
100
AcDbLine
 10
-131.075
 20
-275.24108659
 30
0.0
 11
-130.2
 21
-274.61608659
 31
0.0
  0
LINE
  5
45A
100
AcDbEntity
  8
ZUWAKU
  6
CONTINUOUS
 62
      32
100
AcDbLine
 10
-131.075
 20
-275.24108659
 30
0.0
 11
-130.2
 21
-274.61608659
 31
0.0
  0
LINE
  5
45B
100
AcDbEntity
  8
ZUWAKU
  6
CONTINUOUS
 62
      32
100
AcDbLine
 10
-130.2
 20
-274.61608659
 30
0.0
 11
-129.575
 21
-273.99108659
 31
0.0
  0
LINE
  5
45C
100
AcDbEntity
  8
ZUWAKU
  6
CONTINUOUS
 62
      32
100
AcDbLine
 10
-130.2
 20
-274.61608659
 30
0.0
 11
-129.575
 21
-273.99108659
 31
0.0
  0
LINE
  5
45D
100
AcDbEntity
  8
ZUWAKU
  6
CONTINUOUS
 62
      32
100
AcDbLine
 10
-129.575
 20
-273.99108659
 30
0.0
 11
-128.95
 21
-273.24108659
 31
0.0
  0
LINE
  5
45E
100
AcDbEntity
  8
ZUWAKU
  6
CONTINUOUS
 62
      32
100
AcDbLine
 10
-129.575
 20
-273.99108659
 30
0.0
 11
-128.95
 21
-273.24108659
 31
0.0
  0
LINE
  5
45F
100
AcDbEntity
  8
ZUWAKU
  6
CONTINUOUS
 62
      32
100
AcDbLine
 10
-128.95
 20
-273.24108659
 30
0.0
 11
-128.7
 21
-272.36608659
 31
0.0
  0
LINE
  5
460
100
AcDbEntity
  8
ZUWAKU
  6
CONTINUOUS
 62
      32
100
AcDbLine
 10
-128.95
 20
-273.24108659
 30
0.0
 11
-128.7
 21
-272.36608659
 31
0.0
  0
LINE
  5
461
100
AcDbEntity
  8
ZUWAKU
  6
CONTINUOUS
 62
      32
100
AcDbLine
 10
-136.825
 20
-267.24108659
 30
0.0
 11
-134.07599253
 21
-267.24108659
 31
0.0
  0
LINE
  5
462
100
AcDbEntity
  8
ZUWAKU
  6
CONTINUOUS
 62
      32
100
AcDbLine
 10
-136.35
 20
-274.61608659
 30
0.0
 11
-137.35
 21
-275.61608659
 31
0.0
  0
LINE
  5
463
100
AcDbEntity
  8
ZUWAKU
  6
CONTINUOUS
 62
      32
100
AcDbLine
 10
-137.35
 20
-275.61608659
 30
0.0
 11
-138.35
 21
-276.49108659
 31
0.0
  0
LINE
  5
464
100
AcDbEntity
  8
ZUWAKU
  6
CONTINUOUS
 62
      32
100
AcDbLine
 10
-137.35
 20
-275.61608659
 30
0.0
 11
-138.35
 21
-276.49108659
 31
0.0
  0
LINE
  5
465
100
AcDbEntity
  8
ZUWAKU
  6
CONTINUOUS
 62
      32
100
AcDbLine
 10
-138.35
 20
-276.49108659
 30
0.0
 11
-139.6
 21
-276.99108659
 31
0.0
  0
LINE
  5
466
100
AcDbEntity
  8
ZUWAKU
  6
CONTINUOUS
 62
      32
100
AcDbLine
 10
-139.6
 20
-276.99108659
 30
0.0
 11
-140.85
 21
-277.11608659
 31
0.0
  0
LINE
  5
467
100
AcDbEntity
  8
ZUWAKU
  6
CONTINUOUS
 62
      32
100
AcDbLine
 10
-140.85
 20
-277.11608659
 30
0.0
 11
-143.975
 21
-277.11608659
 31
0.0
  0
LINE
  5
468
100
AcDbEntity
  8
ZUWAKU
  6
CONTINUOUS
 62
      32
100
AcDbLine
 10
-143.975
 20
-277.11608659
 30
0.0
 11
-143.35
 21
-275.24108659
 31
0.0
  0
LINE
  5
469
100
AcDbEntity
  8
ZUWAKU
  6
CONTINUOUS
 62
      32
100
AcDbLine
 10
-143.975
 20
-277.11608659
 30
0.0
 11
-143.35
 21
-275.24108659
 31
0.0
  0
LINE
  5
46A
100
AcDbEntity
  8
ZUWAKU
  6
CONTINUOUS
 62
      32
100
AcDbLine
 10
-139.6
 20
-273.61608659
 30
0.0
 11
-137.225
 21
-267.24108659
 31
0.0
  0
LINE
  5
46B
100
AcDbEntity
  8
ZUWAKU
  6
CONTINUOUS
 62
      32
100
AcDbLine
 10
-143.35
 20
-275.24108659
 30
0.0
 11
-142.225
 21
-275.24108659
 31
0.0
  0
LINE
  5
46C
100
AcDbEntity
  8
ZUWAKU
  6
CONTINUOUS
 62
      32
100
AcDbLine
 10
-143.35
 20
-275.24108659
 30
0.0
 11
-142.225
 21
-275.24108659
 31
0.0
  0
LINE
  5
46D
100
AcDbEntity
  8
ZUWAKU
  6
CONTINUOUS
 62
      32
100
AcDbLine
 10
-140.225
 20
-274.61608659
 30
0.0
 11
-139.6
 21
-273.61608659
 31
0.0
  0
LINE
  5
46E
100
AcDbEntity
  8
ZUWAKU
  6
CONTINUOUS
 62
      32
100
AcDbLine
 10
-141.225
 20
-275.11608659
 30
0.0
 11
-140.225
 21
-274.61608659
 31
0.0
  0
LINE
  5
46F
100
AcDbEntity
  8
ZUWAKU
  6
CONTINUOUS
 62
      32
100
AcDbLine
 10
-142.225
 20
-275.24108659
 30
0.0
 11
-141.225
 21
-275.11608659
 31
0.0
  0
LINE
  5
470
100
AcDbEntity
  8
ZUWAKU
  6
CONTINUOUS
 62
      32
100
AcDbLine
 10
-142.225
 20
-275.24108659
 30
0.0
 11
-141.225
 21
-275.11608659
 31
0.0
  0
LINE
  5
471
100
AcDbEntity
  8
ZUWAKU
  6
CONTINUOUS
 62
      32
100
AcDbLine
 10
-109.65
 20
-267.24108659
 30
0.0
 11
-105.65
 21
-267.24108659
 31
0.0
  0
LINE
  5
472
100
AcDbEntity
  8
ZUWAKU
  6
CONTINUOUS
 62
      32
100
AcDbLine
 10
-105.65
 20
-267.24108659
 30
0.0
 11
-106.4
 21
-269.49108659
 31
0.0
  0
LINE
  5
473
100
AcDbEntity
  8
ZUWAKU
  6
CONTINUOUS
 62
      32
100
AcDbLine
 10
-105.65
 20
-267.24108659
 30
0.0
 11
-106.4
 21
-269.49108659
 31
0.0
  0
LINE
  5
474
100
AcDbEntity
  8
ZUWAKU
  6
CONTINUOUS
 62
      32
100
AcDbLine
 10
-106.6
 20
-269.49108659
 30
0.0
 11
-110.525
 21
-269.49108659
 31
0.0
  0
LINE
  5
475
100
AcDbEntity
  8
ZUWAKU
  6
CONTINUOUS
 62
      32
100
AcDbLine
 10
-94.83514872
 20
-269.47445764
 30
0.0
 11
-96.0
 21
-271.61608659
 31
0.0
  0
LINE
  5
476
100
AcDbEntity
  8
ZUWAKU
  6
CONTINUOUS
 62
      32
100
AcDbLine
 10
-91.375
 20
-267.24108659
 30
0.0
 11
-97.625
 21
-273.49108659
 31
0.0
  0
LINE
  5
477
100
AcDbEntity
  8
ZUWAKU
  6
CONTINUOUS
 62
      32
100
AcDbLine
 10
-97.625
 20
-273.49108659
 30
0.0
 11
-101.1
 21
-276.96608659
 31
0.0
  0
LINE
  5
478
100
AcDbEntity
  8
ZUWAKU
  6
CONTINUOUS
 62
      32
100
AcDbLine
 10
-91.94068542
 20
-267.24108659
 30
0.0
 11
-95.62353094
 21
-270.9239321
 31
0.0
  0
LINE
  5
479
100
AcDbEntity
  8
ZUWAKU
  6
CONTINUOUS
 62
      32
100
AcDbLine
 10
-98.91799526
 20
-274.21839642
 30
0.0
 11
-101.77882251
 21
-277.07922367
 31
0.0
  0
LINE
  5
47A
100
AcDbEntity
  8
ZUWAKU
  6
CONTINUOUS
 62
      32
100
AcDbLine
 10
-92.50637085
 20
-267.24108659
 30
0.0
 11
-94.94892564
 21
-269.68364137
 31
0.0
  0
LINE
  5
47B
100
AcDbEntity
  8
ZUWAKU
  6
CONTINUOUS
 62
      32
100
AcDbLine
 10
-99.94973641
 20
-274.68445215
 30
0.0
 11
-102.45764502
 21
-277.19236076
 31
0.0
  0
LINE
  5
47C
100
AcDbEntity
  8
ZUWAKU
  6
CONTINUOUS
 62
      32
100
AcDbLine
 10
-93.07205627
 20
-267.24108659
 30
0.0
 11
-95.32205627
 21
-269.49108659
 31
0.0
  0
LINE
  5
47D
100
AcDbEntity
  8
ZUWAKU
  6
CONTINUOUS
 62
      32
100
AcDbLine
 10
-100.66627128
 20
-274.83530159
 30
0.0
 11
-102.57433294
 21
-276.74336325
 31
0.0
  0
LINE
  5
47E
100
AcDbEntity
  8
ZUWAKU
  6
CONTINUOUS
 62
      32
100
AcDbLine
 10
-93.6377417
 20
-267.24108659
 30
0.0
 11
-95.8877417
 21
-269.49108659
 31
0.0
  0
LINE
  5
47F
100
AcDbEntity
  8
ZUWAKU
  6
CONTINUOUS
 62
      32
100
AcDbLine
 10
-101.38280615
 20
-274.98615104
 30
0.0
 11
-102.26577725
 21
-275.86912214
 31
0.0
  0
LINE
  5
480
100
AcDbEntity
  8
ZUWAKU
  6
CONTINUOUS
 62
      32
100
AcDbLine
 10
-94.20342712
 20
-267.24108659
 30
0.0
 11
-96.45342712
 21
-269.49108659
 31
0.0
  0
LINE
  5
481
100
AcDbEntity
  8
ZUWAKU
  6
CONTINUOUS
 62
      32
100
AcDbLine
 10
-94.76911255
 20
-267.24108659
 30
0.0
 11
-97.01911255
 21
-269.49108659
 31
0.0
  0
LINE
  5
482
100
AcDbEntity
  8
ZUWAKU
  6
CONTINUOUS
 62
      32
100
AcDbLine
 10
-95.33479797
 20
-267.24108659
 30
0.0
 11
-97.58479797
 21
-269.49108659
 31
0.0
  0
LINE
  5
483
100
AcDbEntity
  8
ZUWAKU
  6
CONTINUOUS
 62
      32
100
AcDbLine
 10
-95.9004834
 20
-267.24108659
 30
0.0
 11
-98.1504834
 21
-269.49108659
 31
0.0
  0
LINE
  5
484
100
AcDbEntity
  8
ZUWAKU
  6
CONTINUOUS
 62
      32
100
AcDbLine
 10
-96.46616882
 20
-267.24108659
 30
0.0
 11
-98.71616882
 21
-269.49108659
 31
0.0
  0
LINE
  5
485
100
AcDbEntity
  8
ZUWAKU
  6
CONTINUOUS
 62
      32
100
AcDbLine
 10
-97.03185425
 20
-267.24108659
 30
0.0
 11
-99.23407288
 21
-269.44330521
 31
0.0
  0
LINE
  5
486
100
AcDbEntity
  8
ZUWAKU
  6
CONTINUOUS
 62
      32
100
AcDbLine
 10
-97.59753967
 20
-267.24108659
 30
0.0
 11
-98.95123016
 21
-268.59477708
 31
0.0
  0
LINE
  5
487
100
AcDbEntity
  8
ZUWAKU
  6
CONTINUOUS
 62
      32
100
AcDbLine
 10
-98.1632251
 20
-267.24108659
 30
0.0
 11
-98.66838745
 21
-267.74624894
 31
0.0
  0
LINE
  5
488
100
AcDbEntity
  8
ZUWAKU
  6
CONTINUOUS
 62
      32
100
AcDbLine
 10
-90.80931458
 20
-267.24108659
 30
0.0
 11
-100.42117749
 21
-276.8529495
 31
0.0
  0
LINE
  5
489
100
AcDbEntity
  8
ZUWAKU
  6
CONTINUOUS
 62
      32
100
AcDbLine
 10
-90.24362915
 20
-267.24108659
 30
0.0
 11
-99.74235498
 21
-276.73981242
 31
0.0
  0
LINE
  5
48A
100
AcDbEntity
  8
ZUWAKU
  6
CONTINUOUS
 62
      32
100
AcDbLine
 10
-90.12882251
 20
-267.69196537
 30
0.0
 11
-99.06353247
 21
-276.62667533
 31
0.0
  0
LINE
  5
48B
100
AcDbEntity
  8
ZUWAKU
  6
CONTINUOUS
 62
      32
100
AcDbLine
 10
-90.35509668
 20
-268.48392497
 30
0.0
 11
-98.28216162
 21
-276.41098991
 31
0.0
  0
LINE
  5
48C
100
AcDbEntity
  8
ZUWAKU
  6
CONTINUOUS
 62
      32
100
AcDbLine
 10
-90.67436611
 20
-269.36887982
 30
0.0
 11
-97.49020203
 21
-276.18471574
 31
0.0
  0
LINE
  5
48D
100
AcDbEntity
  8
ZUWAKU
  6
CONTINUOUS
 62
      32
100
AcDbLine
 10
-91.15923933
 20
-270.41943847
 30
0.0
 11
-96.65883118
 21
-275.91903031
 31
0.0
  0
LINE
  5
48E
100
AcDbEntity
  8
ZUWAKU
  6
CONTINUOUS
 62
      32
100
AcDbLine
 10
-92.16959595
 20
-271.99548051
 30
0.0
 11
-95.81030304
 21
-275.6361876
 31
0.0
  0
LINE
  5
48F
100
AcDbEntity
  8
ZUWAKU
  6
CONTINUOUS
 62
      32
100
AcDbLine
 10
-93.31815072
 20
-273.7097207
 30
0.0
 11
-95.27005394
 21
-275.66162393
 31
0.0
  0
LINE
  5
490
100
AcDbEntity
  8
ZUWAKU
  6
CONTINUOUS
 62
      32
100
AcDbLine
 10
-93.10444733
 20
-274.06170274
 30
0.0
 11
-95.05455473
 21
-276.01181015
 31
0.0
  0
LINE
  5
491
100
AcDbEntity
  8
ZUWAKU
  6
CONTINUOUS
 62
      32
100
AcDbLine
 10
-92.89074395
 20
-274.41368479
 30
0.0
 11
-94.83905552
 21
-276.36199636
 31
0.0
  0
LINE
  5
492
100
AcDbEntity
  8
ZUWAKU
  6
CONTINUOUS
 62
      32
100
AcDbLine
 10
-92.67704057
 20
-274.76566683
 30
0.0
 11
-94.62355631
 21
-276.71218258
 31
0.0
  0
LINE
  5
493
100
AcDbEntity
  8
ZUWAKU
  6
CONTINUOUS
 62
      32
100
AcDbLine
 10
-92.46333718
 20
-275.11764887
 30
0.0
 11
-94.4080571
 21
-277.06236879
 31
0.0
  0
LINE
  5
494
100
AcDbEntity
  8
ZUWAKU
  6
CONTINUOUS
 62
      32
100
AcDbLine
 10
-92.2496338
 20
-275.46963091
 30
0.0
 11
-93.89608948
 21
-277.11608659
 31
0.0
  0
LINE
  5
495
100
AcDbEntity
  8
ZUWAKU
  6
CONTINUOUS
 62
      32
100
AcDbLine
 10
-92.03593042
 20
-275.82161296
 30
0.0
 11
-93.33040405
 21
-277.11608659
 31
0.0
  0
LINE
  5
496
100
AcDbEntity
  8
ZUWAKU
  6
CONTINUOUS
 62
      32
100
AcDbLine
 10
-91.82222704
 20
-276.173595
 30
0.0
 11
-92.76471863
 21
-277.11608659
 31
0.0
  0
LINE
  5
497
100
AcDbEntity
  8
ZUWAKU
  6
CONTINUOUS
 62
      32
100
AcDbLine
 10
-91.60852365
 20
-276.52557704
 30
0.0
 11
-92.1990332
 21
-277.11608659
 31
0.0
  0
LINE
  5
498
100
AcDbEntity
  8
ZUWAKU
  6
CONTINUOUS
 62
      32
100
AcDbLine
 10
-91.39482027
 20
-276.87755908
 30
0.0
 11
-91.63334778
 21
-277.11608659
 31
0.0
  0
LINE
  5
499
100
AcDbEntity
  8
ZUWAKU
  6
CONTINUOUS
 62
      32
100
AcDbLine
 10
-106.9625
 20
-267.24108659
 30
0.0
 11
-109.2125
 21
-269.49108659
 31
0.0
  0
LINE
  5
49A
100
AcDbEntity
  8
ZUWAKU
  6
CONTINUOUS
 62
      32
100
AcDbLine
 10
-107.52818542
 20
-267.24108659
 30
0.0
 11
-109.77818542
 21
-269.49108659
 31
0.0
  0
LINE
  5
49B
100
AcDbEntity
  8
ZUWAKU
  6
CONTINUOUS
 62
      32
100
AcDbLine
 10
-108.09387085
 20
-267.24108659
 30
0.0
 11
-110.34387085
 21
-269.49108659
 31
0.0
  0
LINE
  5
49C
100
AcDbEntity
  8
ZUWAKU
  6
CONTINUOUS
 62
      32
100
AcDbLine
 10
-108.65955627
 20
-267.24108659
 30
0.0
 11
-110.28028237
 21
-268.86181268
 31
0.0
  0
LINE
  5
49D
100
AcDbEntity
  8
ZUWAKU
  6
CONTINUOUS
 62
      32
100
AcDbLine
 10
-109.2252417
 20
-267.24108659
 30
0.0
 11
-109.92030074
 21
-267.93614562
 31
0.0
  0
LINE
  5
49E
100
AcDbEntity
  8
ZUWAKU
  6
CONTINUOUS
 62
      32
100
AcDbLine
 10
-106.39681458
 20
-267.24108659
 30
0.0
 11
-108.64681458
 21
-269.49108659
 31
0.0
  0
LINE
  5
49F
100
AcDbEntity
  8
ZUWAKU
  6
CONTINUOUS
 62
      32
100
AcDbLine
 10
-105.83112915
 20
-267.24108659
 30
0.0
 11
-108.08112915
 21
-269.49108659
 31
0.0
  0
LINE
  5
4A0
100
AcDbEntity
  8
ZUWAKU
  6
CONTINUOUS
 62
      32
100
AcDbLine
 10
-105.84227814
 20
-267.817921
 30
0.0
 11
-107.51544373
 21
-269.49108659
 31
0.0
  0
LINE
  5
4A1
100
AcDbEntity
  8
ZUWAKU
  6
CONTINUOUS
 62
      32
100
AcDbLine
 10
-106.12512085
 20
-268.66644914
 30
0.0
 11
-106.9497583
 21
-269.49108659
 31
0.0
  0
LINE
  5
4A2
100
AcDbEntity
  8
ZUWAKU
  6
CONTINUOUS
 62
      32
100
AcDbLine
 10
-106.38407288
 20
-269.49108659
 30
0.0
 11
-106.40796356
 21
-269.51497727
 31
0.0
  0
LINE
  5
4A3
100
AcDbEntity
  8
ZUWAKU
  6
CONTINUOUS
 62
      32
100
AcDbLine
 10
-107.7125
 20
-273.99108659
 30
0.0
 11
-110.8375
 21
-277.11608659
 31
0.0
  0
LINE
  5
4A4
100
AcDbEntity
  8
ZUWAKU
  6
CONTINUOUS
 62
      32
100
AcDbLine
 10
-108.27818542
 20
-273.99108659
 30
0.0
 11
-111.40318542
 21
-277.11608659
 31
0.0
  0
LINE
  5
4A5
100
AcDbEntity
  8
ZUWAKU
  6
CONTINUOUS
 62
      32
100
AcDbLine
 10
-108.84387085
 20
-273.99108659
 30
0.0
 11
-111.96887085
 21
-277.11608659
 31
0.0
  0
LINE
  5
4A6
100
AcDbEntity
  8
ZUWAKU
  6
CONTINUOUS
 62
      32
100
AcDbLine
 10
-109.40955627
 20
-273.99108659
 30
0.0
 11
-112.53455627
 21
-277.11608659
 31
0.0
  0
LINE
  5
4A7
100
AcDbEntity
  8
ZUWAKU
  6
CONTINUOUS
 62
      32
100
AcDbLine
 10
-109.9752417
 20
-273.99108659
 30
0.0
 11
-113.1002417
 21
-277.11608659
 31
0.0
  0
LINE
  5
4A8
100
AcDbEntity
  8
ZUWAKU
  6
CONTINUOUS
 62
      32
100
AcDbLine
 10
-110.54092712
 20
-273.99108659
 30
0.0
 11
-113.05510349
 21
-276.50526296
 31
0.0
  0
LINE
  5
4A9
100
AcDbEntity
  8
ZUWAKU
  6
CONTINUOUS
 62
      32
100
AcDbLine
 10
-111.10661255
 20
-273.99108659
 30
0.0
 11
-112.73690544
 21
-275.62137948
 31
0.0
  0
LINE
  5
4AA
100
AcDbEntity
  8
ZUWAKU
  6
CONTINUOUS
 62
      32
100
AcDbLine
 10
-111.67229797
 20
-273.99108659
 30
0.0
 11
-112.41870739
 21
-274.737496
 31
0.0
  0
LINE
  5
4AB
100
AcDbEntity
  8
ZUWAKU
  6
CONTINUOUS
 62
      32
100
AcDbLine
 10
-107.14681458
 20
-273.99108659
 30
0.0
 11
-110.27181458
 21
-277.11608659
 31
0.0
  0
LINE
  5
4AC
100
AcDbEntity
  8
ZUWAKU
  6
CONTINUOUS
 62
      32
100
AcDbLine
 10
-106.58112915
 20
-273.99108659
 30
0.0
 11
-109.70612915
 21
-277.11608659
 31
0.0
  0
LINE
  5
4AD
100
AcDbEntity
  8
ZUWAKU
  6
CONTINUOUS
 62
      32
100
AcDbLine
 10
-101.14044373
 20
-269.11608659
 30
0.0
 11
-101.96847267
 21
-269.94411553
 31
0.0
  0
LINE
  5
4AE
100
AcDbEntity
  8
ZUWAKU
  6
CONTINUOUS
 62
      32
100
AcDbLine
 10
-105.88088745
 20
-273.85653031
 30
0.0
 11
-109.14044373
 21
-277.11608659
 31
0.0
  0
LINE
  5
4AF
100
AcDbEntity
  8
ZUWAKU
  6
CONTINUOUS
 62
      32
100
AcDbLine
 10
-100.5747583
 20
-269.11608659
 30
0.0
 11
-102.47564453
 21
-271.01697282
 31
0.0
  0
LINE
  5
4B0
100
AcDbEntity
  8
ZUWAKU
  6
CONTINUOUS
 62
      32
100
AcDbLine
 10
-104.7495166
 20
-273.29084489
 30
0.0
 11
-108.5747583
 21
-277.11608659
 31
0.0
  0
LINE
  5
4B1
100
AcDbEntity
  8
ZUWAKU
  6
CONTINUOUS
 62
      32
100
AcDbLine
 10
-100.49198285
 20
-269.59899657
 30
0.0
 11
-108.00907288
 21
-277.11608659
 31
0.0
  0
LINE
  5
4B2
100
AcDbEntity
  8
ZUWAKU
  6
CONTINUOUS
 62
      32
100
AcDbLine
 10
-100.62508531
 20
-270.29778444
 30
0.0
 11
-107.44338745
 21
-277.11608659
 31
0.0
  0
LINE
  5
4B3
100
AcDbEntity
  8
ZUWAKU
  6
CONTINUOUS
 62
      32
100
AcDbLine
 10
-100.75818776
 20
-270.99657232
 30
0.0
 11
-106.87770203
 21
-277.11608659
 31
0.0
  0
LINE
  5
4B4
100
AcDbEntity
  8
ZUWAKU
  6
CONTINUOUS
 62
      32
100
AcDbLine
 10
-100.89129021
 20
-271.6953602
 30
0.0
 11
-106.04162988
 21
-276.84569987
 31
0.0
  0
LINE
  5
4B5
100
AcDbEntity
  8
ZUWAKU
  6
CONTINUOUS
 62
      32
100
AcDbLine
 10
-101.69300324
 20
-273.06275865
 30
0.0
 11
-105.02339612
 21
-276.39315153
 31
0.0
  0
LINE
  5
4B6
100
AcDbEntity
  8
ZUWAKU
  6
CONTINUOUS
 62
      32
100
AcDbLine
 10
-112.2875
 20
-267.24108659
 30
0.0
 11
-121.271875
 21
-276.22546159
 31
0.0
  0
LINE
  5
4B7
100
AcDbEntity
  8
ZUWAKU
  6
CONTINUOUS
 62
      32
100
AcDbLine
 10
-112.85318542
 20
-267.24108659
 30
0.0
 11
-120.94189184
 21
-275.329793
 31
0.0
  0
LINE
  5
4B8
100
AcDbEntity
  8
ZUWAKU
  6
CONTINUOUS
 62
      32
100
AcDbLine
 10
-113.41887085
 20
-267.24108659
 30
0.0
 11
-120.61190867
 21
-274.43412441
 31
0.0
  0
LINE
  5
4B9
100
AcDbEntity
  8
ZUWAKU
  6
CONTINUOUS
 62
      32
100
AcDbLine
 10
-113.98455627
 20
-267.24108659
 30
0.0
 11
-120.28192551
 21
-273.53845582
 31
0.0
  0
LINE
  5
4BA
100
AcDbEntity
  8
ZUWAKU
  6
CONTINUOUS
 62
      32
100
AcDbLine
 10
-114.5502417
 20
-267.24108659
 30
0.0
 11
-119.95194234
 21
-272.64278723
 31
0.0
  0
LINE
  5
4BB
100
AcDbEntity
  8
ZUWAKU
  6
CONTINUOUS
 62
      32
100
AcDbLine
 10
-115.11592712
 20
-267.24108659
 30
0.0
 11
-115.515861
 21
-267.64102046
 31
0.0
  0
LINE
  5
4BC
100
AcDbEntity
  8
ZUWAKU
  6
CONTINUOUS
 62
      32
100
AcDbLine
 10
-117.72162247
 20
-269.84678193
 30
0.0
 11
-120.24092712
 21
-272.36608659
 31
0.0
  0
LINE
  5
4BD
100
AcDbEntity
  8
ZUWAKU
  6
CONTINUOUS
 62
      32
100
AcDbLine
 10
-118.71157196
 20
-270.271046
 30
0.0
 11
-120.80661255
 21
-272.36608659
 31
0.0
  0
LINE
  5
4BE
100
AcDbEntity
  8
ZUWAKU
  6
CONTINUOUS
 62
      32
100
AcDbLine
 10
-119.51998947
 20
-270.51377809
 30
0.0
 11
-121.37229797
 21
-272.36608659
 31
0.0
  0
LINE
  5
4BF
100
AcDbEntity
  8
ZUWAKU
  6
CONTINUOUS
 62
      32
100
AcDbLine
 10
-120.13281535
 20
-270.56091854
 30
0.0
 11
-121.9379834
 21
-272.36608659
 31
0.0
  0
LINE
  5
4C0
100
AcDbEntity
  8
ZUWAKU
  6
CONTINUOUS
 62
      32
100
AcDbLine
 10
-120.74564123
 20
-270.60805899
 30
0.0
 11
-122.50366882
 21
-272.36608659
 31
0.0
  0
LINE
  5
4C1
100
AcDbEntity
  8
ZUWAKU
  6
CONTINUOUS
 62
      32
100
AcDbLine
 10
-121.31935425
 20
-270.61608659
 30
0.0
 11
-123.06935425
 21
-272.36608659
 31
0.0
  0
LINE
  5
4C2
100
AcDbEntity
  8
ZUWAKU
  6
CONTINUOUS
 62
      32
100
AcDbLine
 10
-121.88503967
 20
-270.61608659
 30
0.0
 11
-123.63503967
 21
-272.36608659
 31
0.0
  0
LINE
  5
4C3
100
AcDbEntity
  8
ZUWAKU
  6
CONTINUOUS
 62
      32
100
AcDbLine
 10
-122.4507251
 20
-270.61608659
 30
0.0
 11
-123.65515272
 21
-271.82051421
 31
0.0
  0
LINE
  5
4C4
100
AcDbEntity
  8
ZUWAKU
  6
CONTINUOUS
 62
      32
100
AcDbLine
 10
-123.01641052
 20
-270.61608659
 30
0.0
 11
-123.34088304
 21
-270.94055911
 31
0.0
  0
LINE
  5
4C5
100
AcDbEntity
  8
ZUWAKU
  6
CONTINUOUS
 62
      32
100
AcDbLine
 10
-111.72181458
 20
-267.24108659
 30
0.0
 11
-121.60185816
 21
-277.12113018
 31
0.0
  0
LINE
  5
4C6
100
AcDbEntity
  8
ZUWAKU
  6
CONTINUOUS
 62
      32
100
AcDbLine
 10
-111.15612915
 20
-267.24108659
 30
0.0
 11
-115.50051988
 21
-271.58547732
 31
0.0
  0
LINE
  5
4C7
100
AcDbEntity
  8
ZUWAKU
  6
CONTINUOUS
 62
      32
100
AcDbLine
 10
-115.63562285
 20
-271.72058029
 30
0.0
 11
-121.03112915
 21
-277.11608659
 31
0.0
  0
LINE
  5
4C8
100
AcDbEntity
  8
ZUWAKU
  6
CONTINUOUS
 62
      32
100
AcDbLine
 10
-110.59044373
 20
-267.24108659
 30
0.0
 11
-114.68341871
 21
-271.33406158
 31
0.0
  0
LINE
  5
4C9
100
AcDbEntity
  8
ZUWAKU
  6
CONTINUOUS
 62
      32
100
AcDbLine
 10
-115.92821876
 20
-272.57886163
 30
0.0
 11
-120.46544373
 21
-277.11608659
 31
0.0
  0
LINE
  5
4CA
100
AcDbEntity
  8
ZUWAKU
  6
CONTINUOUS
 62
      32
100
AcDbLine
 10
-111.09306431
 20
-268.3093926
 30
0.0
 11
-113.69911377
 21
-270.91544205
 31
0.0
  0
LINE
  5
4CB
100
AcDbEntity
  8
ZUWAKU
  6
CONTINUOUS
 62
      32
100
AcDbLine
 10
-116.22081467
 20
-273.43714296
 30
0.0
 11
-119.8997583
 21
-277.11608659
 31
0.0
  0
LINE
  5
4CC
100
AcDbEntity
  8
ZUWAKU
  6
CONTINUOUS
 62
      32
100
AcDbLine
 10
-116.51341058
 20
-274.29542429
 30
0.0
 11
-119.33407288
 21
-277.11608659
 31
0.0
  0
LINE
  5
4CD
100
AcDbEntity
  8
ZUWAKU
  6
CONTINUOUS
 62
      32
100
AcDbLine
 10
-116.80600649
 20
-275.15370563
 30
0.0
 11
-118.76838745
 21
-277.11608659
 31
0.0
  0
LINE
  5
4CE
100
AcDbEntity
  8
ZUWAKU
  6
CONTINUOUS
 62
      32
100
AcDbLine
 10
-117.0986024
 20
-276.01198696
 30
0.0
 11
-118.20270203
 21
-277.11608659
 31
0.0
  0
LINE
  5
4CF
100
AcDbEntity
  8
ZUWAKU
  6
CONTINUOUS
 62
      32
100
AcDbLine
 10
-117.39119831
 20
-276.8702683
 30
0.0
 11
-117.6370166
 21
-277.11608659
 31
0.0
  0
LINE
  5
4D0
100
AcDbEntity
  8
ZUWAKU
  6
CONTINUOUS
 62
      32
100
AcDbLine
 10
-127.1375
 20
-267.24108659
 30
0.0
 11
-129.3875
 21
-269.49108659
 31
0.0
  0
LINE
  5
4D1
100
AcDbEntity
  8
ZUWAKU
  6
CONTINUOUS
 62
      32
100
AcDbLine
 10
-127.70318542
 20
-267.24108659
 30
0.0
 11
-129.95318542
 21
-269.49108659
 31
0.0
  0
LINE
  5
4D2
100
AcDbEntity
  8
ZUWAKU
  6
CONTINUOUS
 62
      32
100
AcDbLine
 10
-128.26887085
 20
-267.24108659
 30
0.0
 11
-130.51887085
 21
-269.49108659
 31
0.0
  0
LINE
  5
4D3
100
AcDbEntity
  8
ZUWAKU
  6
CONTINUOUS
 62
      32
100
AcDbLine
 10
-128.83455627
 20
-267.24108659
 30
0.0
 11
-131.08455627
 21
-269.49108659
 31
0.0
  0
LINE
  5
4D4
100
AcDbEntity
  8
ZUWAKU
  6
CONTINUOUS
 62
      32
100
AcDbLine
 10
-129.4002417
 20
-267.24108659
 30
0.0
 11
-131.6502417
 21
-269.49108659
 31
0.0
  0
LINE
  5
4D5
100
AcDbEntity
  8
ZUWAKU
  6
CONTINUOUS
 62
      32
100
AcDbLine
 10
-129.96592712
 20
-267.24108659
 30
0.0
 11
-132.21592712
 21
-269.49108659
 31
0.0
  0
LINE
  5
4D6
100
AcDbEntity
  8
ZUWAKU
  6
CONTINUOUS
 62
      32
100
AcDbLine
 10
-130.53161255
 20
-267.24108659
 30
0.0
 11
-132.78161255
 21
-269.49108659
 31
0.0
  0
LINE
  5
4D7
100
AcDbEntity
  8
ZUWAKU
  6
CONTINUOUS
 62
      32
100
AcDbLine
 10
-131.09729797
 20
-267.24108659
 30
0.0
 11
-133.12635101
 21
-269.27013963
 31
0.0
  0
LINE
  5
4D8
100
AcDbEntity
  8
ZUWAKU
  6
CONTINUOUS
 62
      32
100
AcDbLine
 10
-131.6629834
 20
-267.24108659
 30
0.0
 11
-132.8435083
 21
-268.42161149
 31
0.0
  0
LINE
  5
4D9
100
AcDbEntity
  8
ZUWAKU
  6
CONTINUOUS
 62
      32
100
AcDbLine
 10
-132.22866882
 20
-267.24108659
 30
0.0
 11
-132.56066559
 21
-267.57308335
 31
0.0
  0
LINE
  5
4DA
100
AcDbEntity
  8
ZUWAKU
  6
CONTINUOUS
 62
      32
100
AcDbLine
 10
-126.57181458
 20
-267.24108659
 30
0.0
 11
-128.82181458
 21
-269.49108659
 31
0.0
  0
LINE
  5
4DB
100
AcDbEntity
  8
ZUWAKU
  6
CONTINUOUS
 62
      32
100
AcDbLine
 10
-126.00612915
 20
-267.24108659
 30
0.0
 11
-128.25612915
 21
-269.49108659
 31
0.0
  0
LINE
  5
4DC
100
AcDbEntity
  8
ZUWAKU
  6
CONTINUOUS
 62
      32
100
AcDbLine
 10
-125.44044373
 20
-267.24108659
 30
0.0
 11
-127.69044373
 21
-269.49108659
 31
0.0
  0
LINE
  5
4DD
100
AcDbEntity
  8
ZUWAKU
  6
CONTINUOUS
 62
      32
100
AcDbLine
 10
-124.8747583
 20
-267.24108659
 30
0.0
 11
-127.1247583
 21
-269.49108659
 31
0.0
  0
LINE
  5
4DE
100
AcDbEntity
  8
ZUWAKU
  6
CONTINUOUS
 62
      32
100
AcDbLine
 10
-124.30907288
 20
-267.24108659
 30
0.0
 11
-126.55907288
 21
-269.49108659
 31
0.0
  0
LINE
  5
4DF
100
AcDbEntity
  8
ZUWAKU
  6
CONTINUOUS
 62
      32
100
AcDbLine
 10
-123.74338745
 20
-267.24108659
 30
0.0
 11
-125.99338745
 21
-269.49108659
 31
0.0
  0
LINE
  5
4E0
100
AcDbEntity
  8
ZUWAKU
  6
CONTINUOUS
 62
      32
100
AcDbLine
 10
-123.39864899
 20
-267.46203355
 30
0.0
 11
-125.42770203
 21
-269.49108659
 31
0.0
  0
LINE
  5
4E1
100
AcDbEntity
  8
ZUWAKU
  6
CONTINUOUS
 62
      32
100
AcDbLine
 10
-123.6814917
 20
-268.31056169
 30
0.0
 11
-124.8620166
 21
-269.49108659
 31
0.0
  0
LINE
  5
4E2
100
AcDbEntity
  8
ZUWAKU
  6
CONTINUOUS
 62
      32
100
AcDbLine
 10
-123.96433441
 20
-269.15908982
 30
0.0
 11
-124.29633118
 21
-269.49108659
 31
0.0
  0
LINE
  5
4E3
100
AcDbEntity
  8
ZUWAKU
  6
CONTINUOUS
 62
      32
100
AcDbLine
 10
-126.95
 20
-270.61608659
 30
0.0
 11
-128.7
 21
-272.36608659
 31
0.0
  0
LINE
  5
4E4
100
AcDbEntity
  8
ZUWAKU
  6
CONTINUOUS
 62
      32
100
AcDbLine
 10
-131.575
 20
-275.24108659
 30
0.0
 11
-133.45
 21
-277.11608659
 31
0.0
  0
LINE
  5
4E5
100
AcDbEntity
  8
ZUWAKU
  6
CONTINUOUS
 62
      32
100
AcDbLine
 10
-127.51568542
 20
-270.61608659
 30
0.0
 11
-129.26568542
 21
-272.36608659
 31
0.0
  0
LINE
  5
4E6
100
AcDbEntity
  8
ZUWAKU
  6
CONTINUOUS
 62
      32
100
AcDbLine
 10
-132.14068542
 20
-275.24108659
 30
0.0
 11
-134.01568542
 21
-277.11608659
 31
0.0
  0
LINE
  5
4E7
100
AcDbEntity
  8
ZUWAKU
  6
CONTINUOUS
 62
      32
100
AcDbLine
 10
-128.08137085
 20
-270.61608659
 30
0.0
 11
-129.83137085
 21
-272.36608659
 31
0.0
  0
LINE
  5
4E8
100
AcDbEntity
  8
ZUWAKU
  6
CONTINUOUS
 62
      32
100
AcDbLine
 10
-132.70637085
 20
-275.24108659
 30
0.0
 11
-134.58137085
 21
-277.11608659
 31
0.0
  0
LINE
  5
4E9
100
AcDbEntity
  8
ZUWAKU
  6
CONTINUOUS
 62
      32
100
AcDbLine
 10
-128.64705627
 20
-270.61608659
 30
0.0
 11
-130.39705627
 21
-272.36608659
 31
0.0
  0
LINE
  5
4EA
100
AcDbEntity
  8
ZUWAKU
  6
CONTINUOUS
 62
      32
100
AcDbLine
 10
-133.27205627
 20
-275.24108659
 30
0.0
 11
-135.14705627
 21
-277.11608659
 31
0.0
  0
LINE
  5
4EB
100
AcDbEntity
  8
ZUWAKU
  6
CONTINUOUS
 62
      32
100
AcDbLine
 10
-129.2127417
 20
-270.61608659
 30
0.0
 11
-130.9627417
 21
-272.36608659
 31
0.0
  0
LINE
  5
4EC
100
AcDbEntity
  8
ZUWAKU
  6
CONTINUOUS
 62
      32
100
AcDbLine
 10
-133.8377417
 20
-275.24108659
 30
0.0
 11
-135.7127417
 21
-277.11608659
 31
0.0
  0
LINE
  5
4ED
100
AcDbEntity
  8
ZUWAKU
  6
CONTINUOUS
 62
      32
100
AcDbLine
 10
-129.77842712
 20
-270.61608659
 30
0.0
 11
-131.52842712
 21
-272.36608659
 31
0.0
  0
LINE
  5
4EE
100
AcDbEntity
  8
ZUWAKU
  6
CONTINUOUS
 62
      32
100
AcDbLine
 10
-134.40342712
 20
-275.24108659
 30
0.0
 11
-135.73104858
 21
-276.56870805
 31
0.0
  0
LINE
  5
4EF
100
AcDbEntity
  8
ZUWAKU
  6
CONTINUOUS
 62
      32
100
AcDbLine
 10
-130.34411255
 20
-270.61608659
 30
0.0
 11
-132.09411255
 21
-272.36608659
 31
0.0
  0
LINE
  5
4F0
100
AcDbEntity
  8
ZUWAKU
  6
CONTINUOUS
 62
      32
100
AcDbLine
 10
-134.96911255
 20
-275.24108659
 30
0.0
 11
-135.35392497
 21
-275.625899
 31
0.0
  0
LINE
  5
4F1
100
AcDbEntity
  8
ZUWAKU
  6
CONTINUOUS
 62
      32
100
AcDbLine
 10
-130.90979797
 20
-270.61608659
 30
0.0
 11
-132.65979797
 21
-272.36608659
 31
0.0
  0
LINE
  5
4F2
100
AcDbEntity
  8
ZUWAKU
  6
CONTINUOUS
 62
      32
100
AcDbLine
 10
-131.4754834
 20
-270.61608659
 30
0.0
 11
-133.2254834
 21
-272.36608659
 31
0.0
  0
LINE
  5
4F3
100
AcDbEntity
  8
ZUWAKU
  6
CONTINUOUS
 62
      32
100
AcDbLine
 10
-132.04116882
 20
-270.61608659
 30
0.0
 11
-133.79116882
 21
-272.36608659
 31
0.0
  0
LINE
  5
4F4
100
AcDbEntity
  8
ZUWAKU
  6
CONTINUOUS
 62
      32
100
AcDbLine
 10
-132.60685425
 20
-270.61608659
 30
0.0
 11
-133.7872583
 21
-271.79649064
 31
0.0
  0
LINE
  5
4F5
100
AcDbEntity
  8
ZUWAKU
  6
CONTINUOUS
 62
      32
100
AcDbLine
 10
-133.17253967
 20
-270.61608659
 30
0.0
 11
-133.56098413
 21
-271.00453104
 31
0.0
  0
LINE
  5
4F6
100
AcDbEntity
  8
ZUWAKU
  6
CONTINUOUS
 62
      32
100
AcDbLine
 10
-126.38431458
 20
-270.61608659
 30
0.0
 11
-128.92627417
 21
-273.15804618
 31
0.0
  0
LINE
  5
4F7
100
AcDbEntity
  8
ZUWAKU
  6
CONTINUOUS
 62
      32
100
AcDbLine
 10
-130.84510101
 20
-275.07687303
 30
0.0
 11
-132.88431458
 21
-277.11608659
 31
0.0
  0
LINE
  5
4F8
100
AcDbEntity
  8
ZUWAKU
  6
CONTINUOUS
 62
      32
100
AcDbLine
 10
-125.81862915
 20
-270.61608659
 30
0.0
 11
-132.31862915
 21
-277.11608659
 31
0.0
  0
LINE
  5
4F9
100
AcDbEntity
  8
ZUWAKU
  6
CONTINUOUS
 62
      32
100
AcDbLine
 10
-125.25294373
 20
-270.61608659
 30
0.0
 11
-131.75294373
 21
-277.11608659
 31
0.0
  0
LINE
  5
4FA
100
AcDbEntity
  8
ZUWAKU
  6
CONTINUOUS
 62
      32
100
AcDbLine
 10
-124.6872583
 20
-270.61608659
 30
0.0
 11
-131.1872583
 21
-277.11608659
 31
0.0
  0
LINE
  5
4FB
100
AcDbEntity
  8
ZUWAKU
  6
CONTINUOUS
 62
      32
100
AcDbLine
 10
-124.63767264
 20
-271.13218635
 30
0.0
 11
-130.62157288
 21
-277.11608659
 31
0.0
  0
LINE
  5
4FC
100
AcDbEntity
  8
ZUWAKU
  6
CONTINUOUS
 62
      32
100
AcDbLine
 10
-124.96092146
 20
-272.02112059
 30
0.0
 11
-130.05588745
 21
-277.11608659
 31
0.0
  0
LINE
  5
4FD
100
AcDbEntity
  8
ZUWAKU
  6
CONTINUOUS
 62
      32
100
AcDbLine
 10
-125.28417027
 20
-272.91005483
 30
0.0
 11
-129.46193603
 21
-277.0878206
 31
0.0
  0
LINE
  5
4FE
100
AcDbEntity
  8
ZUWAKU
  6
CONTINUOUS
 62
      32
100
AcDbLine
 10
-125.60741909
 20
-273.79898907
 30
0.0
 11
-128.7076888
 21
-276.89925879
 31
0.0
  0
LINE
  5
4FF
100
AcDbEntity
  8
ZUWAKU
  6
CONTINUOUS
 62
      32
100
AcDbLine
 10
-125.9306679
 20
-274.68792331
 30
0.0
 11
-127.64266235
 21
-276.39991776
 31
0.0
  0
LINE
  5
500
100
AcDbEntity
  8
ZUWAKU
  6
CONTINUOUS
 62
      32
100
AcDbLine
 10
-133.975
 20
-267.24108659
 30
0.0
 11
-139.1546875
 21
-272.42077409
 31
0.0
  0
LINE
  5
501
100
AcDbEntity
  8
ZUWAKU
  6
CONTINUOUS
 62
      32
100
AcDbLine
 10
-141.93928571
 20
-275.2053723
 30
0.0
 11
-143.85
 21
-277.11608659
 31
0.0
  0
LINE
  5
502
100
AcDbEntity
  8
ZUWAKU
  6
CONTINUOUS
 62
      32
100
AcDbLine
 10
-134.54068542
 20
-267.24108659
 30
0.0
 11
-138.81881178
 21
-271.51921294
 31
0.0
  0
LINE
  5
503
100
AcDbEntity
  8
ZUWAKU
  6
CONTINUOUS
 62
      32
100
AcDbLine
 10
-142.54068542
 20
-275.24108659
 30
0.0
 11
-143.75465729
 21
-276.45505845
 31
0.0
  0
LINE
  5
504
100
AcDbEntity
  8
ZUWAKU
  6
CONTINUOUS
 62
      32
100
AcDbLine
 10
-135.10637085
 20
-267.24108659
 30
0.0
 11
-138.48293606
 21
-270.6176518
 31
0.0
  0
LINE
  5
505
100
AcDbEntity
  8
ZUWAKU
  6
CONTINUOUS
 62
      32
100
AcDbLine
 10
-143.10637085
 20
-275.24108659
 30
0.0
 11
-143.47181458
 21
-275.60653031
 31
0.0
  0
LINE
  5
506
100
AcDbEntity
  8
ZUWAKU
  6
CONTINUOUS
 62
      32
100
AcDbLine
 10
-135.67205627
 20
-267.24108659
 30
0.0
 11
-138.14706034
 21
-269.71609065
 31
0.0
  0
LINE
  5
507
100
AcDbEntity
  8
ZUWAKU
  6
CONTINUOUS
 62
      32
100
AcDbLine
 10
-136.2377417
 20
-267.24108659
 30
0.0
 11
-137.81118462
 21
-268.8145295
 31
0.0
  0
LINE
  5
508
100
AcDbEntity
  8
ZUWAKU
  6
CONTINUOUS
 62
      32
100
AcDbLine
 10
-136.80342712
 20
-267.24108659
 30
0.0
 11
-137.47530889
 21
-267.91296836
 31
0.0
  0
LINE
  5
509
100
AcDbEntity
  8
ZUWAKU
  6
CONTINUOUS
 62
      32
100
AcDbLine
 10
-134.07599253
 20
-267.90776454
 30
0.0
 11
-139.49056322
 21
-273.32233523
 31
0.0
  0
LINE
  5
50A
100
AcDbEntity
  8
ZUWAKU
  6
CONTINUOUS
 62
      32
100
AcDbLine
 10
-141.29278809
 20
-275.1245601
 30
0.0
 11
-143.28431458
 21
-277.11608659
 31
0.0
  0
LINE
  5
50B
100
AcDbEntity
  8
ZUWAKU
  6
CONTINUOUS
 62
      32
100
AcDbLine
 10
-134.36608762
 20
-268.76354505
 30
0.0
 11
-140.2122583
 21
-274.60971574
 31
0.0
  0
LINE
  5
50C
100
AcDbEntity
  8
ZUWAKU
  6
CONTINUOUS
 62
      32
100
AcDbLine
 10
-140.23561808
 20
-274.63307552
 30
0.0
 11
-142.71862915
 21
-277.11608659
 31
0.0
  0
LINE
  5
50D
100
AcDbEntity
  8
ZUWAKU
  6
CONTINUOUS
 62
      32
100
AcDbLine
 10
-134.65618271
 20
-269.61932557
 30
0.0
 11
-142.15294373
 21
-277.11608659
 31
0.0
  0
LINE
  5
50E
100
AcDbEntity
  8
ZUWAKU
  6
CONTINUOUS
 62
      32
100
AcDbLine
 10
-134.94627779
 20
-270.47510608
 30
0.0
 11
-141.5872583
 21
-277.11608659
 31
0.0
  0
LINE
  5
50F
100
AcDbEntity
  8
ZUWAKU
  6
CONTINUOUS
 62
      32
100
AcDbLine
 10
-135.23637288
 20
-271.3308866
 30
0.0
 11
-141.02157288
 21
-277.11608659
 31
0.0
  0
LINE
  5
510
100
AcDbEntity
  8
ZUWAKU
  6
CONTINUOUS
 62
      32
100
AcDbLine
 10
-135.52646797
 20
-272.18666711
 30
0.0
 11
-140.41209717
 21
-277.0722963
 31
0.0
  0
LINE
  5
511
100
AcDbEntity
  8
ZUWAKU
  6
CONTINUOUS
 62
      32
100
AcDbLine
 10
-135.81656306
 20
-273.04244763
 30
0.0
 11
-139.78355781
 21
-277.00944237
 31
0.0
  0
LINE
  5
512
100
AcDbEntity
  8
ZUWAKU
  6
CONTINUOUS
 62
      32
100
AcDbLine
 10
-136.10665815
 20
-273.89822814
 30
0.0
 11
-138.93252767
 21
-276.72409765
 31
0.0
  0
LINE
  5
513
100
AcDbEntity
  8
ZUWAKU
  6
CONTINUOUS
 62
      32
100
AcDbLine
 10
-139.9875
 20
-267.94108659
 30
0.0
 11
-144.61008065
 21
-272.56366723
 31
0.0
  0
LINE
  5
514
100
AcDbEntity
  8
ZUWAKU
  6
CONTINUOUS
 62
      32
100
AcDbLine
 10
-139.85318542
 20
-267.24108659
 30
0.0
 11
-144.29986606
 21
-271.68776722
 31
0.0
  0
LINE
  5
515
100
AcDbEntity
  8
ZUWAKU
  6
CONTINUOUS
 62
      32
100
AcDbLine
 10
-140.41887085
 20
-267.24108659
 30
0.0
 11
-143.98965147
 21
-270.81186721
 31
0.0
  0
LINE
  5
516
100
AcDbEntity
  8
ZUWAKU
  6
CONTINUOUS
 62
      32
100
AcDbLine
 10
-140.98455627
 20
-267.24108659
 30
0.0
 11
-143.67943688
 21
-269.93596719
 31
0.0
  0
LINE
  5
517
100
AcDbEntity
  8
ZUWAKU
  6
CONTINUOUS
 62
      32
100
AcDbLine
 10
-141.5502417
 20
-267.24108659
 30
0.0
 11
-143.36922229
 21
-269.06006718
 31
0.0
  0
LINE
  5
518
100
AcDbEntity
  8
ZUWAKU
  6
CONTINUOUS
 62
      32
100
AcDbLine
 10
-142.11592712
 20
-267.24108659
 30
0.0
 11
-143.05900771
 21
-268.18416717
 31
0.0
  0
LINE
  5
519
100
AcDbEntity
  8
ZUWAKU
  6
CONTINUOUS
 62
      32
100
AcDbLine
 10
-142.68161255
 20
-267.24108659
 30
0.0
 11
-142.74879312
 21
-267.30826716
 31
0.0
  0
LINE
  5
51A
100
AcDbEntity
  8
ZUWAKU
  6
CONTINUOUS
 62
      32
100
AcDbLine
 10
-140.32691125
 20
-268.84618327
 30
0.0
 11
-144.72181458
 21
-273.24108659
 31
0.0
  0
LINE
  5
51B
100
AcDbEntity
  8
ZUWAKU
  6
CONTINUOUS
 62
      32
100
AcDbLine
 10
-140.66632251
 20
-269.75127995
 30
0.0
 11
-144.15612915
 21
-273.24108659
 31
0.0
  0
LINE
  5
51C
100
AcDbEntity
  8
ZUWAKU
  6
CONTINUOUS
 62
      32
100
AcDbLine
 10
-141.00573376
 20
-270.65637663
 30
0.0
 11
-143.59044373
 21
-273.24108659
 31
0.0
  0
LINE
  5
51D
100
AcDbEntity
  8
ZUWAKU
  6
CONTINUOUS
 62
      32
100
AcDbLine
 10
-141.34514502
 20
-271.56147331
 30
0.0
 11
-143.0247583
 21
-273.24108659
 31
0.0
  0
LINE
  5
51E
100
AcDbEntity
  8
ZUWAKU
  6
CONTINUOUS
 62
      32
100
AcDbLine
 10
-141.68455627
 20
-272.46656999
 30
0.0
 11
-142.45907288
 21
-273.24108659
 31
0.0
  0
TEXT
  5
51F
100
AcDbEntity
  8
LAYER0240
 62
       4
100
AcDbText
 10
-44.20552326
 20
270.72777628
 30
0.0
 40
12.0
  1
単水栓
 41
0.75
 72
       5
 11
-15.40552326
 21
270.72777628
 31
0.0
100
AcDbText
  0
TEXT
  5
520
100
AcDbEntity
  8
LAYER0240
 62
       4
100
AcDbText
 10
87.225
 20
270.72777628
 30
0.0
 40
12.0
  1
FC4100SC
 41
0.8
 72
       5
 11
164.025
 21
270.72777628
 31
0.0
100
AcDbText
  0
TEXT
  5
521
100
AcDbEntity
  8
LAYER0240
 62
       4
100
AcDbText
 10
-166.25
 20
-243.74108659
 30
0.0
 40
8.0
  1
吐水パイプ
 41
0.7143
 72
       5
 11
-134.25
 21
-243.74108659
 31
0.0
100
AcDbText
  0
TEXT
  5
522
100
AcDbEntity
  8
LAYER0240
 62
       4
100
AcDbText
 10
-73.125
 20
-243.74108659
 30
0.0
 40
8.0
  1
C2700
 41
0.8
 72
       5
 11
-41.125
 21
-243.74108659
 31
0.0
100
AcDbText
  0
TEXT
  5
523
100
AcDbEntity
  8
LAYER0240
 62
       4
100
AcDbText
 10
39.05
 20
-243.74108659
 30
0.0
 40
8.0
  1
1
 41
0.8
 72
       5
 11
45.45
 21
-243.74108659
 31
0.0
100
AcDbText
  0
TEXT
  5
524
100
AcDbEntity
  8
LAYER0240
 62
       4
100
AcDbText
 10
-166.25
 20
-233.74108659
 30
0.0
 40
8.0
  1
本体
 41
0.6667
 72
       5
 11
-153.45
 21
-233.74108659
 31
0.0
100
AcDbText
  0
TEXT
  5
525
100
AcDbEntity
  8
LAYER0240
 62
       4
100
AcDbText
 10
39.05
 20
-233.74108659
 30
0.0
 40
8.0
  1
1
 41
0.8
 72
       5
 11
45.45
 21
-233.74108659
 31
0.0
100
AcDbText
  0
TEXT
  5
526
100
AcDbEntity
  8
LAYER0240
 62
       4
100
AcDbText
 10
-166.25
 20
-223.74108659
 30
0.0
 40
8.0
  1
ハンドル
 41
0.6667
 72
       5
 11
-140.65
 21
-223.74108659
 31
0.0
100
AcDbText
  0
TEXT
  5
527
100
AcDbEntity
  8
LAYER0240
 62
       4
100
AcDbText
 10
-73.125
 20
-223.74108659
 30
0.0
 40
8.0
  1
Ｃ3604
 41
0.8
 72
       5
 11
-41.125
 21
-223.74108659
 31
0.0
100
AcDbText
  0
TEXT
  5
528
100
AcDbEntity
  8
LAYER0240
 62
       4
100
AcDbText
 10
39.05
 20
-223.74108659
 30
0.0
 40
8.0
  1
1
 41
0.8
 72
       5
 11
45.45
 21
-223.74108659
 31
0.0
100
AcDbText
  0
TEXT
  5
529
100
AcDbEntity
  8
LAYER0240
 62
       4
100
AcDbText
 10
-73.125
 20
-233.74108659
 30
0.0
 40
8.0
  1
CAC406
 41
0.8
 72
       5
 11
-34.725
 21
-233.74108659
 31
0.0
100
AcDbText
  0
TEXT
  5
52A
100
AcDbEntity
  8
LAYER0240
 62
       4
100
AcDbText
 10
-24.9625
 20
-276.17858659
 30
0.0
 40
12.0
  1
単水栓
 41
0.75
 72
       5
 11
3.8375
 21
-276.17858659
 31
0.0
100
AcDbText
  0
TEXT
  5
52B
100
AcDbEntity
  8
LAYER0240
 62
       4
100
AcDbText
 10
85.975
 20
-276.17858659
 30
0.0
 40
12.0
  1
FC4100SC
 41
0.8
 72
       5
 11
162.775
 21
-276.17858659
 31
0.0
100
AcDbText
  0
TEXT
  5
52C
100
AcDbEntity
  8
LAYER0240
 62
       4
100
AcDbText
 10
-166.25
 20
-213.74108659
 30
0.0
 40
8.0
  1
台座
 41
0.6667
 72
       5
 11
-153.45
 21
-213.74108659
 31
0.0
100
AcDbText
  0
TEXT
  5
52D
100
AcDbEntity
  8
LAYER0240
 62
       4
100
AcDbText
 10
-73.125
 20
-213.74108659
 30
0.0
 40
8.0
  1
Ｃ3604
 41
0.8
 72
       5
 11
-41.125
 21
-213.74108659
 31
0.0
100
AcDbText
  0
TEXT
  5
52E
100
AcDbEntity
  8
LAYER0240
 62
       4
100
AcDbText
 10
39.05
 20
-213.74108659
 30
0.0
 40
8.0
  1
1
 41
0.8
 72
       5
 11
45.45
 21
-213.74108659
 31
0.0
100
AcDbText
  0
TEXT
  5
52F
100
AcDbEntity
  8
LAYER0240
 62
       4
100
AcDbText
 10
-166.25
 20
-203.74108659
 30
0.0
 40
8.0
  1
三角パッキン
 41
0.6667
 72
       5
 11
-127.85
 21
-203.74108659
 31
0.0
100
AcDbText
  0
TEXT
  5
530
100
AcDbEntity
  8
LAYER0240
 62
       4
100
AcDbText
 10
-73.125
 20
-203.74108659
 30
0.0
 40
8.0
  1
ＮＲ
 41
0.6667
 72
       5
 11
-60.325
 21
-203.74108659
 31
0.0
100
AcDbText
  0
TEXT
  5
531
100
AcDbEntity
  8
LAYER0240
 62
       4
100
AcDbText
 10
39.05
 20
-203.74108659
 30
0.0
 40
8.0
  1
1
 41
0.8
 72
       5
 11
45.45
 21
-203.74108659
 31
0.0
100
AcDbText
  0
TEXT
  5
532
100
AcDbEntity
  8
LAYER0240
 62
       4
100
AcDbText
 10
-166.25
 20
-193.74108659
 30
0.0
 40
8.0
  1
平ワッシャー
 41
0.6667
 72
       5
 11
-127.85
 21
-193.74108659
 31
0.0
100
AcDbText
  0
TEXT
  5
533
100
AcDbEntity
  8
LAYER0240
 62
       4
100
AcDbText
 10
-73.125
 20
-193.74108659
 30
0.0
 40
8.0
  1
ＳＵＳ430
 41
0.75
 72
       5
 11
-34.725
 21
-193.74108659
 31
0.0
100
AcDbText
  0
TEXT
  5
534
100
AcDbEntity
  8
LAYER0240
 62
       4
100
AcDbText
 10
39.05
 20
-193.74108659
 30
0.0
 40
8.0
  1
1
 41
0.8
 72
       5
 11
45.45
 21
-193.74108659
 31
0.0
100
AcDbText
  0
TEXT
  5
535
100
AcDbEntity
  8
LAYER0240
 62
       4
100
AcDbText
 10
-166.25
 20
-183.74108659
 30
0.0
 40
8.0
  1
締付ナット
 41
0.7143
 72
       5
 11
-134.25
 21
-183.74108659
 31
0.0
100
AcDbText
  0
TEXT
  5
536
100
AcDbEntity
  8
LAYER0240
 62
       4
100
AcDbText
 10
-73.125
 20
-183.74108659
 30
0.0
 40
8.0
  1
Ｃ3604
 41
0.8
 72
       5
 11
-41.125
 21
-183.74108659
 31
0.0
100
AcDbText
  0
TEXT
  5
537
100
AcDbEntity
  8
LAYER0240
 62
       4
100
AcDbText
 10
39.05
 20
-183.74108659
 30
0.0
 40
8.0
  1
1
 41
0.8
 72
       5
 11
45.45
 21
-183.74108659
 31
0.0
100
AcDbText
  0
TEXT
  5
538
100
AcDbEntity
  8
LAYER0240
 62
       4
100
AcDbText
 10
55.375
 20
-243.74108659
 30
0.0
 40
8.0
  1
クロムメッキ
 41
0.6667
 72
       5
 11
93.775
 21
-243.74108659
 31
0.0
100
AcDbText
  0
TEXT
  5
539
100
AcDbEntity
  8
LAYER0240
 62
       4
100
AcDbText
 10
55.375
 20
-233.74108659
 30
0.0
 40
8.0
  1
クロムメッキ
 41
0.6667
 72
       5
 11
93.775
 21
-233.74108659
 31
0.0
100
AcDbText
  0
TEXT
  5
53A
100
AcDbEntity
  8
LAYER0240
 62
       4
100
AcDbText
 10
55.375
 20
-223.74108659
 30
0.0
 40
8.0
  1
クロムメッキ
 41
0.6667
 72
       5
 11
93.775
 21
-223.74108659
 31
0.0
100
AcDbText
  0
TEXT
  5
53B
100
AcDbEntity
  8
LAYER0240
 62
       4
100
AcDbText
 10
55.375
 20
-213.74108659
 30
0.0
 40
8.0
  1
クロムメッキ
 41
0.6667
 72
       5
 11
93.775
 21
-213.74108659
 31
0.0
100
AcDbText
  0
TEXT
  5
53C
100
AcDbEntity
  8
LAYER0240
 62
       4
100
AcDbText
 10
52.22561899
 20
-172.92271691
 30
0.0
 40
8.0
  1
※吐水パイプ固定式は品番ＦＣ4100ＳＣＺ
 41
0.7
 72
       5
 11
186.62561899
 21
-172.92271691
 31
0.0
100
AcDbText
  0
TEXT
  5
53D
100
AcDbEntity
  8
LAYER0240
 62
       4
100
AcDbText
 10
-2.21295912
 20
-134.8833177
 30
0.0
 40
8.0
  1
取付カウンター板厚　25以下
 41
0.7
 72
       5
 11
87.38704088
 21
-134.8833177
 31
0.0
100
AcDbText
  0
TEXT
  5
53E
100
AcDbEntity
  8
LAYER0240
 62
       4
100
AcDbText
 10
-2.21295912
 20
-124.19682451
 30
0.0
 40
8.0
  1
取付カウンター穴径　φ22（台座使用によりφ35まで対応可）
 41
0.6977
 72
       5
 11
189.78704088
 21
-124.19682451
 31
0.0
100
AcDbText
  0
TEXT
  5
53F
100
AcDbEntity
  8
LAYER0240
 62
       4
100
AcDbText
 10
123.41395494
 20
138.26125607
 30
0.0
 40
8.0
  1
360°回転
 41
0.75
 72
       5
 11
161.81395494
 21
138.26125607
 31
0.0
100
AcDbText
  0
TEXT
  5
540
100
AcDbEntity
  8
LAYER0240
 62
       4
100
AcDbText
 10
-3.34984475
 20
-153.70917863
 30
0.0
 40
8.0
  1
本製品はコマ式のためハンドルの作動角度が一定ではありません
 41
0.6744
 72
       5
 11
182.25015525
 21
-153.70917863
 31
0.0
100
AcDbText
  0
TEXT
  5
541
100
AcDbEntity
  8
ZUWAKU
 62
      32
100
AcDbText
 10
-168.10237531
 20
-277.11608659
 30
0.0
 40
6.8
  1
株式会社
 41
0.6667
 72
       5
 11
-146.34237531
 21
-277.11608659
 31
0.0
100
AcDbText
  0
TEXT
  5
542
100
AcDbEntity
  8
ZUWAKU
 62
       4
100
AcDbText
 10
-78.12598937
 20
-259.83180473
 30
0.0
 40
4.998
  1
品 名
 41
0.8
  7
FDASTYLE1
100
AcDbText
  0
TEXT
  5
543
100
AcDbEntity
  8
ZUWAKU
 62
       4
100
AcDbText
 10
56.87848738
 20
-259.86699767
 30
0.0
 40
4.998
  1
品　番
 41
0.8
  7
FDASTYLE1
100
AcDbText
  0
TEXT
  5
544
100
AcDbEntity
  8
ZUWAKU
 62
       4
100
AcDbText
 10
-178.70149266
 20
-243.66115339
 30
0.0
 40
8.0
  1
1
 41
0.8
 72
       5
 11
-172.30149266
 21
-243.66115339
 31
0.0
100
AcDbText
  0
TEXT
  5
545
100
AcDbEntity
  8
ZUWAKU
 62
       4
100
AcDbText
 10
-178.70149266
 20
-233.66115339
 30
0.0
 40
8.0
  1
2
 41
0.8
 72
       5
 11
-172.30149266
 21
-233.66115339
 31
0.0
100
AcDbText
  0
TEXT
  5
546
100
AcDbEntity
  8
ZUWAKU
 62
       4
100
AcDbText
 10
-178.70149266
 20
-223.66115339
 30
0.0
 40
8.0
  1
3
 41
0.8
 72
       5
 11
-172.30149266
 21
-223.66115339
 31
0.0
100
AcDbText
  0
TEXT
  5
547
100
AcDbEntity
  8
ZUWAKU
 62
       4
100
AcDbText
 10
-178.70149266
 20
-213.66115339
 30
0.0
 40
8.0
  1
4
 41
0.8
 72
       5
 11
-172.30149266
 21
-213.66115339
 31
0.0
100
AcDbText
  0
TEXT
  5
548
100
AcDbEntity
  8
ZUWAKU
 62
       4
100
AcDbText
 10
-178.70149266
 20
-203.66115339
 30
0.0
 40
8.0
  1
5
 41
0.8
 72
       5
 11
-172.30149266
 21
-203.66115339
 31
0.0
100
AcDbText
  0
TEXT
  5
549
100
AcDbEntity
  8
ZUWAKU
 62
       4
100
AcDbText
 10
-178.70149266
 20
-193.66115339
 30
0.0
 40
8.0
  1
6
 41
0.8
 72
       5
 11
-172.30149266
 21
-193.66115339
 31
0.0
100
AcDbText
  0
TEXT
  5
54A
100
AcDbEntity
  8
ZUWAKU
 62
       4
100
AcDbText
 10
-178.70149266
 20
-183.66115339
 30
0.0
 40
8.0
  1
7
 41
0.8
 72
       5
 11
-172.30149266
 21
-183.66115339
 31
0.0
100
AcDbText
  0
TEXT
  5
54B
100
AcDbEntity
  8
ZUWAKU
 62
       4
100
AcDbText
 10
103.7442024
 20
-253.6216861
 30
0.0
 40
8.0
  1
摘要・仕上
 41
0.7143
 72
       5
 11
135.7442024
 21
-253.6216861
 31
0.0
100
AcDbText
  0
TEXT
  5
54C
100
AcDbEntity
  8
ZUWAKU
 62
       4
100
AcDbText
 10
32.47292259
 20
-253.6216861
 30
0.0
 40
8.0
  1
個　数
 41
0.75
 72
       5
 11
51.67292259
 21
-253.6216861
 31
0.0
100
AcDbText
  0
TEXT
  5
54D
100
AcDbEntity
  8
ZUWAKU
 62
       4
100
AcDbText
 10
-34.71889602
 20
-253.6216861
 30
0.0
 40
8.0
  1
材　　質
 41
0.6667
 72
       5
 11
-9.11889602
 21
-253.6216861
 31
0.0
100
AcDbText
  0
TEXT
  5
54E
100
AcDbEntity
  8
ZUWAKU
 62
       4
100
AcDbText
 10
-137.75373553
 20
-253.6216861
 30
0.0
 40
8.0
  1
部　品　名
 41
0.7143
 72
       5
 11
-105.75373553
 21
-253.6216861
 31
0.0
100
AcDbText
  0
TEXT
  5
54F
100
AcDbEntity
  8
ZUWAKU
 62
       4
100
AcDbText
 10
-181.8379621
 20
-253.6216861
 30
0.0
 40
8.0
  1
部番
 41
0.6667
 72
       5
 11
-169.0379621
 21
-253.6216861
 31
0.0
100
AcDbText
  0
TEXT
  5
550
100
AcDbEntity
  8
ZUWAKU
 62
       4
100
AcDbText
 10
148.83728357
 20
-293.25299234
 30
0.0
 40
8.0
  1
100729
 41
0.8
 72
       5
 11
187.23728357
 21
-293.25299234
 31
0.0
100
AcDbText
  0
ENDSEC
  0
SECTION
  2
OBJECTS
  0
DICTIONARY
  5
19
100
AcDbDictionary
  3
ACAD_GROUP
350
1A
  3
ACAD_MLINESTYLE
350
1B
  0
DICTIONARY
  5
1A
102
{ACAD_REACTORS
330
19
102
}
100
AcDbDictionary
  0
DICTIONARY
  5
1B
102
{ACAD_REACTORS
330
19
102
}
100
AcDbDictionary
  3
STANDARD
350
1C
  0
MLINESTYLE
  5
1C
102
{ACAD_REACTORS
330
1B
102
}
100
AcDbMlineStyle
  2
STANDARD
 70
       0
  3

 62
       0
 51
90.0
 52
90.0
 71
       2
 49
0.5
 62
     256
  6
BYLAYER
 49
-0.5
 62
     256
  6
BYLAYER
  0
ENDSEC
  0
EOF
