  0
SECTION
  2
HEADER
  9
$ACADVER
  1
AC1014
  9
$ACADMAINTVER
 70
       0
  9
$DWGCODEPAGE
  3
ANSI_932
  9
$INSBASE
 10
0.0
 20
0.0
 30
0.0
  9
$EXTMIN
 10
-990.10405392
 20
-1381.6122594
 30
0.0
  9
$EXTMAX
 10
990.10405392
 20
1381.6122594
 30
0.0
  9
$LIMMIN
 10
-315.0
 20
-445.5
  9
$LIMMAX
 10
315.0
 20
445.5
  9
$ORTHOMODE
 70
       0
  9
$REGENMODE
 70
       1
  9
$FILLMODE
 70
       1
  9
$QTEXTMODE
 70
       0
  9
$MIRRTEXT
 70
       1
  9
$DRAGMODE
 70
       2
  9
$LTSCALE
 40
3.0
  9
$OSMODE
 70
       0
  9
$ATTMODE
 70
       1
  9
$TEXTSIZE
 40
0.2
  9
$TRACEWID
 40
0.05
  9
$TEXTSTYLE
  7
STANDARD
  9
$CLAYER
  8
0
  9
$CELTYPE
  6
CONTINUOUS
  9
$CECOLOR
 62
     256
  9
$CELTSCALE
 40
1.0
  9
$DELOBJ
 70
       1
  9
$DISPSILH
 70
       0
  9
$DIMSCALE
 40
1.0
  9
$DIMASZ
 40
6.0
  9
$DIMEXO
 40
0.0625
  9
$DIMDLI
 40
0.38
  9
$DIMRND
 40
0.0
  9
$DIMDLE
 40
0.0
  9
$DIMEXE
 40
0.18
  9
$DIMTP
 40
0.0
  9
$DIMTM
 40
0.0
  9
$DIMTXT
 40
6.0
  9
$DIMCEN
 40
0.09
  9
$DIMTSZ
 40
0.0
  9
$DIMTOL
 70
       0
  9
$DIMLIM
 70
       0
  9
$DIMTIH
 70
       1
  9
$DIMTOH
 70
       1
  9
$DIMSE1
 70
       0
  9
$DIMSE2
 70
       0
  9
$DIMTAD
 70
       0
  9
$DIMZIN
 70
       0
  9
$DIMBLK
  1

  9
$DIMASO
 70
       1
  9
$DIMSHO
 70
       1
  9
$DIMPOST
  1

  9
$DIMAPOST
  1

  9
$DIMALT
 70
       0
  9
$DIMALTD
 70
       2
  9
$DIMALTF
 40
25.4
  9
$DIMLFAC
 40
1.0
  9
$DIMTOFL
 70
       0
  9
$DIMTVP
 40
0.0
  9
$DIMTIX
 70
       0
  9
$DIMSOXD
 70
       0
  9
$DIMSAH
 70
       0
  9
$DIMBLK1
  1

  9
$DIMBLK2
  1

  9
$DIMSTYLE
  2
STANDARD
  9
$DIMCLRD
 70
       0
  9
$DIMCLRE
 70
       0
  9
$DIMCLRT
 70
       0
  9
$DIMTFAC
 40
1.0
  9
$DIMGAP
 40
0.09
  9
$DIMJUST
 70
       0
  9
$DIMSD1
 70
       0
  9
$DIMSD2
 70
       0
  9
$DIMTOLJ
 70
       1
  9
$DIMTZIN
 70
       0
  9
$DIMALTZ
 70
       0
  9
$DIMALTTZ
 70
       0
  9
$DIMFIT
 70
       3
  9
$DIMUPT
 70
       0
  9
$DIMUNIT
 70
       2
  9
$DIMDEC
 70
       4
  9
$DIMTDEC
 70
       4
  9
$DIMALTU
 70
       2
  9
$DIMALTTD
 70
       2
  9
$DIMTXSTY
  7
STANDARD
  9
$DIMAUNIT
 70
       0
  9
$LUNITS
 70
       2
  9
$LUPREC
 70
       4
  9
$SKETCHINC
 40
0.1
  9
$FILLETRAD
 40
0.0
  9
$AUNITS
 70
       0
  9
$AUPREC
 70
       0
  9
$MENU
  1
acad
  9
$ELEVATION
 40
0.0
  9
$PELEVATION
 40
0.0
  9
$THICKNESS
 40
0.0
  9
$LIMCHECK
 70
       0
  9
$BLIPMODE
 70
       1
  9
$CHAMFERA
 40
0.0
  9
$CHAMFERB
 40
0.0
  9
$CHAMFERC
 40
0.0
  9
$CHAMFERD
 40
0.0
  9
$SKPOLY
 70
       0
  9
$TDCREATE
 40
0.000000000
  9
$TDUPDATE
 40
0.000000000
  9
$TDINDWG
 40
0.0000000000
  9
$TDUSRTIMER
 40
0.0000000000
  9
$USRTIMER
 70
       1
  9
$ANGBASE
 50
0.0
  9
$ANGDIR
 70
       0
  9
$PDMODE
 70
       0
  9
$PDSIZE
 40
1.0
  9
$PLINEWID
 40
0.0
  9
$COORDS
 70
       1
  9
$SPLFRAME
 70
       0
  9
$SPLINETYPE
 70
       6
  9
$SPLINESEGS
 70
       8
  9
$ATTDIA
 70
       0
  9
$ATTREQ
 70
       1
  9
$HANDLING
 70
       1
  9
$HANDSEED
  5
56A
  9
$SURFTAB1
 70
       6
  9
$SURFTAB2
 70
       6
  9
$SURFTYPE
 70
       6
  9
$SURFU
 70
       6
  9
$SURFV
 70
       6
  9
$UCSNAME
  2

  9
$UCSORG
 10
0.0
 20
0.0
 30
0.0
  9
$UCSXDIR
 10
1.0
 20
0.0
 30
0.0
  9
$UCSYDIR
 10
0.0
 20
1.0
 30
0.0
  9
$PUCSNAME
  2

  9
$PUCSORG
 10
0.0
 20
0.0
 30
0.0
  9
$PUCSXDIR
 10
1.0
 20
0.0
 30
0.0
  9
$PUCSYDIR
 10
0.0
 20
1.0
 30
0.0
  9
$USERI1
 70
       0
  9
$USERI2
 70
       0
  9
$USERI3
 70
       0
  9
$USERI4
 70
       0
  9
$USERI5
 70
       0
  9
$USERR1
 40
0.0
  9
$USERR2
 40
0.0
  9
$USERR3
 40
0.0
  9
$USERR4
 40
0.0
  9
$USERR5
 40
0.0
  9
$WORLDVIEW
 70
       1
  9
$SHADEDGE
 70
       3
  9
$SHADEDIF
 70
      70
  9
$TILEMODE
 70
       1
  9
$MAXACTVP
 70
      16
  9
$PINSBASE
 10
0.0
 20
0.0
 30
0.0
  9
$PLIMCHECK
 70
       0
  9
$PEXTMIN
 10
1.00000000E+20
 20
1.00000000E+20
 30
1.00000000E+20
  9
$PEXTMAX
 10
-1.00000000E+20
 20
-1.00000000E+20
 30
-1.00000000E+20
  9
$PLIMMIN
 10
0.0
 20
0.0
  9
$PLIMMAX
 10
12.0
 20
9.0
  9
$UNITMODE
 70
       0
  9
$VISRETAIN
 70
       0
  9
$PLINEGEN
 70
       1
  9
$PSLTSCALE
 70
       0
  9
$TREEDEPTH
 70
    3020
  9
$PICKSTYLE
 70
       1
  9
$CMLSTYLE
  2
STANDARD
  9
$CMLJUST
 70
       0
  9
$CMLSCALE
 40
1.0
  9
$PROXYGRAPHICS
 70
       0
  9
$MEASUREMENT
 70
       0
  0
ENDSEC
  0
SECTION
  2
CLASSES
  0
CLASS
  1
LWPOLYLINE
  2
AcDbPolyline
  3
"AutoCAD"
 90
        0
280
       0
281
       1
  0
CLASS
  1
IMAGE
  2
AcDbRasterImage
  3
ISM
 90
      127
280
       0
281
       1
  0
CLASS
  1
OLE2FRAME
  2
AcDbOle2Frame
  3
""
 90
        0
280
       0
281
       1
  0
CLASS
  1
HATCH
  2
AcDbHatch
  3
"ACAD_SEDONA"
 90
        0
280
       0
281
       1
  0
CLASS
  1
DICTIONARYVAR
  2
AcDbDictionaryVar
  3
"AutoCAD"
 90
        0
280
       0
281
       0
  0
CLASS
  1
RASTERVARIABLES
  2
AcDbRasterVariables
  3
ISM
 90
        0
280
       0
281
       0
  0
CLASS
  1
IMAGEDEF
  2
AcDbRasterImageDef
  3
ISM
 90
        0
280
       0
281
       0
  0
CLASS
  1
IMAGEDEF_REACTOR
  2
AcDbRasterImageDefReactor
  3
ISM
 90
        1
280
       0
281
       0
  0
CLASS
  1
IDBUFFER
  2
AcDbIdBuffer
  3
"Acad"
 90
        0
280
       0
281
       0
  0
CLASS
  1
SPATIAL_FILTER
  2
AcDbSpatialFilter
  3
"Acad"
 90
        0
280
       0
281
       0
  0
CLASS
  1
XRECORD
  2
AcDbXrecord
  3
"<Built In>"
 90
        0
280
       0
281
       0
  0
CLASS
  1
SORTENTSTABLE
  2
AcDbSortentsTable
  3
"AutoCAD"
 90
        0
280
       0
281
       0
  0
CLASS
  1
LAYER_INDEX
  2
AcDbLayerIndex
  3
"Acad"
 90
        0
280
       0
281
       0
  0
CLASS
  1
SPATIAL_INDEX
  2
AcDbSpatialIndex
  3
"Acad"
 90
        0
280
       0
281
       0
  0
CLASS
  1
OBJECT_PTR
  2
CAseDLPNTableRecord
  3
"ASE-LPNTableRecord"
 90
        1
280
       0
281
       0
  0
CLASS
  1
LAYOUT
  2
AcDbLayout
  3
"AutoCAD 2000"
 90
        0
280
       0
281
       0
  0
CLASS
  1
PLOTSETTINGS
  2
AcDbPlotSettings
  3
"AutoCAD 2000"
 90
        0
280
       0
281
       0
  0
CLASS
  1
ACDBDICTIONARYWDFLT
  2
AcDbDictionaryWithDefault
  3
"AutoCAD 2000"
 90
        0
280
       0
281
       0
  0
CLASS
  1
ACDBPLACEHOLDER
  2
AcDbPlaceHolder
  3
"AutoCAD 2000"
 90
        0
280
       0
281
       0
  0
CLASS
  1
VBA_PROJECT
  2
AcDbVbaProject
  3
"acadvba"
 90
        0
280
       0
281
       0
  0
CLASS
  1
WIPEOUT
  2
AcDbWipeout
  3
WipeOut|AutoCAD Express Tool|expresstools@autodesk.com
 90
      127
280
       0
281
       1
  0
CLASS
  1
WIPEOUTVARIABLES
  2
AcDbWipeoutVariables
  3
WipeOut|AutoCAD Express Tool|expresstools@autodesk.com
 90
        0
280
       0
281
       0
  0
CLASS
  1
RTEXT
  2
RText
  3
RText|AutoCAD Express Tool|expresstools@autodesk.com
 90
        0
280
       0
281
       1
  0
CLASS
  1
ARCALIGNEDTEXT
  2
AcDbArcAlignedText
  3
ATEXT|AutoCAD Express Tool|expresstools@autodesk.com
 90
        0
280
       0
281
       1
  0
ENDSEC
  0
SECTION
  2
TABLES
  0
TABLE
  2
VPORT
  5
7
100
AcDbSymbolTable
 70
       1
  0
VPORT
  5
15
100
AcDbSymbolTableRecord
100
AcDbViewportTableRecord
  2
*ACTIVE
 70
       0
 10
0.0
 20
0.0
 11
1.0
 21
1.0
 12
0.0
 22
0.0
 13
0.0
 23
0.0
 14
1.0
 24
1.0
 15
0.0
 25
0.0
 16
0.0
 26
0.0
 36
1.0
 17
0.0
 27
0.0
 37
0.0
 40
891.0
 41
0.70707071
 42
50.0
 43
0.0
 44
0.0
 50
0.0
 51
0.0
 71
       0
 72
     100
 73
       1
 74
       1
 75
       0
 76
       0
 77
       0
 78
       0
  0
ENDTAB
  0
TABLE
  2
LTYPE
  5
4
100
AcDbSymbolTable
 70
      30
  0
LTYPE
  5
11
100
AcDbSymbolTableRecord
100
AcDbLinetypeTableRecord
  2
BYBLOCK
 70
      64
  3

 72
      65
 73
       0
 40
0.0
  0
LTYPE
  5
12
100
AcDbSymbolTableRecord
100
AcDbLinetypeTableRecord
  2
BYLAYER
 70
      64
  3

 72
      65
 73
       0
 40
0.0
  0
LTYPE
  5
13
100
AcDbSymbolTableRecord
100
AcDbLinetypeTableRecord
  2
CONTINUOUS
 70
      64
  3
Solid line
 72
      65
 73
       0
 40
0.0
  0
LTYPE
  5
1D
100
AcDbSymbolTableRecord
100
AcDbLinetypeTableRecord
  2
HIDDENX2
 70
      64
  3
CADPAC LINETYPE
 72
      65
 73
       2
 40
7.04626335
 49
5.28469751
 74
       0
 49
-1.76156584
 74
       0
  0
LTYPE
  5
1E
100
AcDbSymbolTableRecord
100
AcDbLinetypeTableRecord
  2
HIDDEN
 70
      64
  3
CADPAC LINETYPE
 72
      65
 73
       2
 40
5.28469751
 49
3.52313167
 74
       0
 49
-1.76156584
 74
       0
  0
LTYPE
  5
1F
100
AcDbSymbolTableRecord
100
AcDbLinetypeTableRecord
  2
HIDDEN2
 70
      64
  3
CADPAC LINETYPE
 72
      65
 73
       2
 40
4.40391459
 49
2.64234875
 74
       0
 49
-1.76156584
 74
       0
  0
LTYPE
  5
20
100
AcDbSymbolTableRecord
100
AcDbLinetypeTableRecord
  2
DASHED
 70
      64
  3
CADPAC LINETYPE
 72
      65
 73
       2
 40
4.93238434
 49
3.52313167
 74
       0
 49
-1.40925267
 74
       0
  0
LTYPE
  5
21
100
AcDbSymbolTableRecord
100
AcDbLinetypeTableRecord
  2
DASHED2
 70
      64
  3
CADPAC LINETYPE
 72
      65
 73
       2
 40
3.17081851
 49
2.113879
 74
       0
 49
-1.0569395
 74
       0
  0
LTYPE
  5
22
100
AcDbSymbolTableRecord
100
AcDbLinetypeTableRecord
  2
DASHEDX2
 70
      64
  3
CADPAC LINETYPE
 72
      65
 73
       2
 40
8.45551601
 49
7.04626335
 74
       0
 49
-1.40925267
 74
       0
  0
LTYPE
  5
23
100
AcDbSymbolTableRecord
100
AcDbLinetypeTableRecord
  2
DOTX2
 70
      64
  3
CADPAC LINETYPE
 72
      65
 73
       2
 40
3.08274021
 49
0.0
 74
       0
 49
-3.08274021
 74
       0
  0
LTYPE
  5
24
100
AcDbSymbolTableRecord
100
AcDbLinetypeTableRecord
  2
DOT
 70
      64
  3
CADPAC LINETYPE
 72
      65
 73
       2
 40
2.46619217
 49
0.0
 74
       0
 49
-2.46619217
 74
       0
  0
LTYPE
  5
25
100
AcDbSymbolTableRecord
100
AcDbLinetypeTableRecord
  2
DOT2
 70
      64
  3
CADPAC LINETYPE
 72
      65
 73
       2
 40
1.84964413
 49
0.0
 74
       0
 49
-1.84964413
 74
       0
  0
LTYPE
  5
26
100
AcDbSymbolTableRecord
100
AcDbLinetypeTableRecord
  2
CENTERX2
 70
      64
  3
CADPAC LINETYPE
 72
      65
 73
       4
 40
10.56939502
 49
4.40391459
 74
       0
 49
-2.2019573
 74
       0
 49
1.76156584
 74
       0
 49
-2.2019573
 74
       0
  0
LTYPE
  5
27
100
AcDbSymbolTableRecord
100
AcDbLinetypeTableRecord
  2
CENTER
 70
      64
  3
CADPAC LINETYPE
 72
      65
 73
       4
 40
8.10320285
 49
3.52313167
 74
       0
 49
-1.76156584
 74
       0
 49
1.0569395
 74
       0
 49
-1.76156584
 74
       0
  0
LTYPE
  5
28
100
AcDbSymbolTableRecord
100
AcDbLinetypeTableRecord
  2
CENTER2
 70
      64
  3
CADPAC LINETYPE
 72
      65
 73
       4
 40
5.63701068
 49
2.64234875
 74
       0
 49
-1.32117438
 74
       0
 49
0.35231317
 74
       0
 49
-1.32117438
 74
       0
  0
LTYPE
  5
29
100
AcDbSymbolTableRecord
100
AcDbLinetypeTableRecord
  2
DASHDOTX2
 70
      64
  3
CADPAC LINETYPE
 72
      65
 73
       4
 40
16.91103203
 49
8.45551601
 74
       0
 49
-2.81850534
 74
       0
 49
2.81850534
 74
       0
 49
-2.81850534
 74
       0
  0
LTYPE
  5
2A
100
AcDbSymbolTableRecord
100
AcDbLinetypeTableRecord
  2
DASHDOT
 70
      64
  3
CADPAC LINETYPE
 72
      65
 73
       4
 40
8.45551601
 49
4.22775801
 74
       0
 49
-1.40925267
 74
       0
 49
1.40925267
 74
       0
 49
-1.40925267
 74
       0
  0
LTYPE
  5
2B
100
AcDbSymbolTableRecord
100
AcDbLinetypeTableRecord
  2
DASHDOT2
 70
      64
  3
CADPAC LINETYPE
 72
      65
 73
       4
 40
5.42562278
 49
3.17081851
 74
       0
 49
-1.0569395
 74
       0
 49
0.14092527
 74
       0
 49
-1.0569395
 74
       0
  0
LTYPE
  5
2C
100
AcDbSymbolTableRecord
100
AcDbLinetypeTableRecord
  2
DIVIDEX2
 70
      64
  3
CADPAC LINETYPE
 72
      65
 73
       6
 40
22.5480427
 49
8.45551601
 74
       0
 49
-2.81850534
 74
       0
 49
2.81850534
 74
       0
 49
-2.81850534
 74
       0
 49
2.81850534
 74
       0
 49
-2.81850534
 74
       0
  0
LTYPE
  5
2D
100
AcDbSymbolTableRecord
100
AcDbLinetypeTableRecord
  2
DIVIDE
 70
      64
  3
CADPAC LINETYPE
 72
      65
 73
       6
 40
11.27402135
 49
4.22775801
 74
       0
 49
-1.40925267
 74
       0
 49
1.40925267
 74
       0
 49
-1.40925267
 74
       0
 49
1.40925267
 74
       0
 49
-1.40925267
 74
       0
  0
LTYPE
  5
2E
100
AcDbSymbolTableRecord
100
AcDbLinetypeTableRecord
  2
DIVIDE2
 70
      64
  3
CADPAC LINETYPE
 72
      65
 73
       6
 40
8.45551601
 49
3.17081851
 74
       0
 49
-1.0569395
 74
       0
 49
1.0569395
 74
       0
 49
-1.0569395
 74
       0
 49
1.0569395
 74
       0
 49
-1.0569395
 74
       0
  0
LTYPE
  5
2F
100
AcDbSymbolTableRecord
100
AcDbLinetypeTableRecord
  2
BORDERX2
 70
      64
  3
CADPAC LINETYPE
 72
      65
 73
       6
 40
15.41370107
 49
4.40391459
 74
       0
 49
-2.2019573
 74
       0
 49
4.40391459
 74
       0
 49
-2.2019573
 74
       0
 49
0.0
 74
       0
 49
-2.2019573
 74
       0
  0
LTYPE
  5
30
100
AcDbSymbolTableRecord
100
AcDbLinetypeTableRecord
  2
BORDER
 70
      64
  3
CADPAC LINETYPE
 72
      65
 73
       6
 40
12.33096085
 49
3.52313167
 74
       0
 49
-1.76156584
 74
       0
 49
3.52313167
 74
       0
 49
-1.76156584
 74
       0
 49
0.0
 74
       0
 49
-1.76156584
 74
       0
  0
LTYPE
  5
31
100
AcDbSymbolTableRecord
100
AcDbLinetypeTableRecord
  2
BORDER2
 70
      64
  3
CADPAC LINETYPE
 72
      65
 73
       6
 40
9.16014235
 49
2.81850534
 74
       0
 49
-1.76156584
 74
       0
 49
1.0569395
 74
       0
 49
-1.76156584
 74
       0
 49
0.0
 74
       0
 49
-1.76156584
 74
       0
  0
LTYPE
  5
32
100
AcDbSymbolTableRecord
100
AcDbLinetypeTableRecord
  2
PHANTOMX2
 70
      64
  3
CADPAC LINETYPE
 72
      65
 73
       6
 40
13.21174377
 49
4.40391459
 74
       0
 49
-1.76156584
 74
       0
 49
1.76156584
 74
       0
 49
-1.76156584
 74
       0
 49
1.76156584
 74
       0
 49
-1.76156584
 74
       0
  0
LTYPE
  5
33
100
AcDbSymbolTableRecord
100
AcDbLinetypeTableRecord
  2
PHANTOM
 70
      64
  3
CADPAC LINETYPE
 72
      65
 73
       6
 40
10.92170819
 49
3.52313167
 74
       0
 49
-1.76156584
 74
       0
 49
1.0569395
 74
       0
 49
-1.76156584
 74
       0
 49
1.0569395
 74
       0
 49
-1.76156584
 74
       0
  0
LTYPE
  5
34
100
AcDbSymbolTableRecord
100
AcDbLinetypeTableRecord
  2
PHANTOM2
 70
      64
  3
CADPAC LINETYPE
 72
      65
 73
       6
 40
9.33629893
 49
2.64234875
 74
       0
 49
-1.76156584
 74
       0
 49
0.70462633
 74
       0
 49
-1.76156584
 74
       0
 49
0.70462633
 74
       0
 49
-1.76156584
 74
       0
  0
LTYPE
  5
35
100
AcDbSymbolTableRecord
100
AcDbLinetypeTableRecord
  2
ACAD_ISO06W100
 70
      64
  3
CADPAC LINETYPE
 72
      65
 73
       8
 40
18.67259786
 49
8.45551601
 74
       0
 49
-1.76156584
 74
       0
 49
1.0569395
 74
       0
 49
-1.76156584
 74
       0
 49
1.0569395
 74
       0
 49
-1.76156584
 74
       0
 49
1.0569395
 74
       0
 49
-1.76156584
 74
       0
  0
LTYPE
  5
36
100
AcDbSymbolTableRecord
100
AcDbLinetypeTableRecord
  2
ACAD_ISO13W100
 70
      64
  3
CADPAC LINETYPE
 72
      65
 73
       8
 40
14.09252669
 49
3.52313167
 74
       0
 49
-1.76156584
 74
       0
 49
3.52313167
 74
       0
 49
-1.76156584
 74
       0
 49
0.0
 74
       0
 49
-1.76156584
 74
       0
 49
0.0
 74
       0
 49
-1.76156584
 74
       0
  0
LTYPE
  5
37
100
AcDbSymbolTableRecord
100
AcDbLinetypeTableRecord
  2
ACAD_ISO14W100
 70
      64
  3
CADPAC LINETYPE
 72
      65
 73
       8
 40
10.56939502
 49
3.52313167
 74
       0
 49
-1.76156584
 74
       0
 49
0.0
 74
       0
 49
-1.76156584
 74
       0
 49
0.0
 74
       0
 49
-1.76156584
 74
       0
 49
0.0
 74
       0
 49
-1.76156584
 74
       0
  0
ENDTAB
  0
TABLE
  2
LAYER
  5
2
100
AcDbSymbolTable
 70
       5
  0
LAYER
  5
14
100
AcDbSymbolTableRecord
100
AcDbLayerTableRecord
  2
0
 70
       0
 62
       7
  6
CONTINUOUS
  0
LAYER
  5
38
100
AcDbSymbolTableRecord
100
AcDbLayerTableRecord
  2
LAYER0240
 70
       0
 62
       7
  6
CONTINUOUS
  0
LAYER
  5
39
100
AcDbSymbolTableRecord
100
AcDbLayerTableRecord
  2
ZUWAKU
 70
       0
 62
       7
  6
CONTINUOUS
  0
LAYER
  5
3A
100
AcDbSymbolTableRecord
100
AcDbLayerTableRecord
  2
LAYER0016
 70
       0
 62
       7
  6
CONTINUOUS
  0
LAYER
  5
3B
100
AcDbSymbolTableRecord
100
AcDbLayerTableRecord
  2
ZUWAKU
 70
       0
 62
       7
  6
CONTINUOUS
  0
ENDTAB
  0
TABLE
  2
STYLE
  5
3
100
AcDbSymbolTable
 70
       2
  0
STYLE
  5
17
100
AcDbSymbolTableRecord
100
AcDbTextStyleTableRecord
  2
STANDARD
 70
       0
 40
10.2
 41
0.8
 50
0.0
 71
       0
 42
10.2
  3
txt.shx
  4
bigfont.shx
  0
STYLE
  5
3C
100
AcDbSymbolTableRecord
100
AcDbTextStyleTableRecord
  2
FDASTYLE1
 70
       4
 40
9.0
 41
1.03494498
 50
0.0
 71
       0
 42
9.0
  3
txt.shx
  4
bigfont.shx
  0
ENDTAB
  0
TABLE
  2
VIEW
  5
5
100
AcDbSymbolTable
 70
       1
  0
VIEW
  5
3D
100
AcDbSymbolTableRecord
100
AcDbViewTableRecord
  2
QQQQ
 70
       0
 40
891.0
 10
0.0
 20
0.0
 41
630.0
 11
0.0
 21
0.0
 31
1.0
 12
100.0
 22
100.0
 32
0.0
 42
50.0
 43
0.0
 44
0.0
 50
0.0
 71
       0
  0
ENDTAB
  0
TABLE
  2
UCS
  5
6
100
AcDbSymbolTable
 70
       0
  0
ENDTAB
  0
TABLE
  2
APPID
  5
8
100
AcDbSymbolTable
 70
       1
  0
APPID
  5
16
100
AcDbSymbolTableRecord
100
AcDbRegAppTableRecord
  2
ACAD
 70
       0
  0
ENDTAB
  0
TABLE
  2
DIMSTYLE
  5
9
100
AcDbSymbolTable
 70
       1
  0
DIMSTYLE
105
18
100
AcDbSymbolTableRecord
100
AcDbDimStyleTableRecord
  2
STANDARD
 70
       0
  3

  4

  5

  6

  7

 40
1.0
 41
0.18
 42
0.0625
 43
0.38
 44
0.18
 45
0.0
 46
0.0
 47
0.0
 48
0.0
 71
       0
 72
       0
 73
       1
 74
       1
 75
       0
 76
       0
 77
       0
 78
       0
140
0.18
141
0.09
142
0.0
143
25.4
144
1.0
145
0.0
146
1.0
147
0.09
170
       0
171
       2
172
       0
173
       0
174
       0
175
       0
176
       0
177
       0
178
       0
270
       2
271
       4
272
       4
273
       2
274
       2
275
       0
280
       0
281
       0
282
       0
283
       1
284
       0
285
       0
286
       0
287
       3
288
       0
340
17
  0
ENDTAB
  0
TABLE
  2
BLOCK_RECORD
  5
1
100
AcDbSymbolTable
 70
      24
  0
BLOCK_RECORD
  5
A
100
AcDbSymbolTableRecord
100
AcDbBlockTableRecord
  2
*MODEL_SPACE
  0
BLOCK_RECORD
  5
B
100
AcDbSymbolTableRecord
100
AcDbBlockTableRecord
  2
*PAPER_SPACE
  0
BLOCK_RECORD
  5
3E
100
AcDbSymbolTableRecord
100
AcDbBlockTableRecord
  2
DA_IMAGEDIMGROUP_1
  0
BLOCK_RECORD
  5
3F
100
AcDbSymbolTableRecord
100
AcDbBlockTableRecord
  2
_OPEN30
  0
BLOCK_RECORD
  5
40
100
AcDbSymbolTableRecord
100
AcDbBlockTableRecord
  2
DA_IMAGEDIMGROUP_2
  0
BLOCK_RECORD
  5
41
100
AcDbSymbolTableRecord
100
AcDbBlockTableRecord
  2
DA_IMAGEDIMGROUP_3
  0
BLOCK_RECORD
  5
42
100
AcDbSymbolTableRecord
100
AcDbBlockTableRecord
  2
DA_IMAGEDIMGROUP_4
  0
BLOCK_RECORD
  5
43
100
AcDbSymbolTableRecord
100
AcDbBlockTableRecord
  2
DA_IMAGEDIMGROUP_5
  0
BLOCK_RECORD
  5
44
100
AcDbSymbolTableRecord
100
AcDbBlockTableRecord
  2
DA_IMAGEDIMGROUP_6
  0
BLOCK_RECORD
  5
45
100
AcDbSymbolTableRecord
100
AcDbBlockTableRecord
  2
DA_IMAGEDIMGROUP_7
  0
BLOCK_RECORD
  5
46
100
AcDbSymbolTableRecord
100
AcDbBlockTableRecord
  2
DA_IMAGEDIMGROUP_8
  0
BLOCK_RECORD
  5
47
100
AcDbSymbolTableRecord
100
AcDbBlockTableRecord
  2
DA_IMAGEDIMGROUP_9
  0
BLOCK_RECORD
  5
48
100
AcDbSymbolTableRecord
100
AcDbBlockTableRecord
  2
GROUP_1
  0
BLOCK_RECORD
  5
49
100
AcDbSymbolTableRecord
100
AcDbBlockTableRecord
  2
GROUP_2
  0
BLOCK_RECORD
  5
4A
100
AcDbSymbolTableRecord
100
AcDbBlockTableRecord
  2
GROUP_3
  0
BLOCK_RECORD
  5
4B
100
AcDbSymbolTableRecord
100
AcDbBlockTableRecord
  2
DA_IMAGEDIMGROUP_10
  0
BLOCK_RECORD
  5
4C
100
AcDbSymbolTableRecord
100
AcDbBlockTableRecord
  2
DA_IMAGEDIMGROUP_11
  0
BLOCK_RECORD
  5
4D
100
AcDbSymbolTableRecord
100
AcDbBlockTableRecord
  2
GROUP_4
  0
BLOCK_RECORD
  5
4E
100
AcDbSymbolTableRecord
100
AcDbBlockTableRecord
  2
GROUP_5
  0
BLOCK_RECORD
  5
4F
100
AcDbSymbolTableRecord
100
AcDbBlockTableRecord
  2
GROUP_6
  0
BLOCK_RECORD
  5
50
100
AcDbSymbolTableRecord
100
AcDbBlockTableRecord
  2
GROUP_7
  0
BLOCK_RECORD
  5
51
100
AcDbSymbolTableRecord
100
AcDbBlockTableRecord
  2
GROUP_8
  0
BLOCK_RECORD
  5
52
100
AcDbSymbolTableRecord
100
AcDbBlockTableRecord
  2
GROUP_9
  0
BLOCK_RECORD
  5
53
100
AcDbSymbolTableRecord
100
AcDbBlockTableRecord
  2
GROUP_10
  0
BLOCK_RECORD
  5
54
100
AcDbSymbolTableRecord
100
AcDbBlockTableRecord
  2
GROUP_11
  0
BLOCK_RECORD
  5
55
100
AcDbSymbolTableRecord
100
AcDbBlockTableRecord
  2
GROUP_12
  0
ENDTAB
  0
ENDSEC
  0
SECTION
  2
BLOCKS
  0
BLOCK
  5
D
100
AcDbEntity
  8
0
100
AcDbBlockBegin
  2
*MODEL_SPACE
 70
       0
 10
0.0
 20
0.0
 30
0.0
  3
*MODEL_SPACE
  1

  0
ENDBLK
  5
E
100
AcDbEntity
  8
0
100
AcDbBlockEnd
  0
BLOCK
  5
F
100
AcDbEntity
 67
       1
  8
0
100
AcDbBlockBegin
  2
*PAPER_SPACE
 70
       0
 10
0.0
 20
0.0
 30
0.0
  3
*PAPER_SPACE
  1

  0
ENDBLK
  5
10
100
AcDbEntity
 67
       1
  8
0
100
AcDbBlockEnd
  0
BLOCK
  5
56
100
AcDbEntity
  8
0
100
AcDbBlockBegin
  2
DA_IMAGEDIMGROUP_1
 70
       0
 10
0.0
 20
0.0
 30
0.0
  3
DA_IMAGEDIMGROUP_1
  1

  0
LINE
  5
57
100
AcDbEntity
  8
LAYER0016
  6
CONTINUOUS
 62
       7
100
AcDbLine
 10
-155.78735599
 20
268.09833937
 30
0.0
 11
-80.78735599
 21
268.09833937
 31
0.0
  0
INSERT
  5
58
100
AcDbEntity
  8
LAYER0016
  6
CONTINUOUS
 62
       7
100
AcDbBlockReference
  2
_OPEN30
 10
-155.78735599
 20
268.09833937
 30
0.0
 41
9.00000836
 42
8.99996782
 50
180.0
  0
INSERT
  5
59
100
AcDbEntity
  8
LAYER0016
  6
CONTINUOUS
 62
       7
100
AcDbBlockReference
  2
_OPEN30
 10
-80.78735599
 20
268.09833937
 30
0.0
 41
9.00000836
 42
8.99996782
 50
360.0
  0
LINE
  5
5A
100
AcDbEntity
  8
LAYER0016
  6
CONTINUOUS
 62
       7
100
AcDbLine
 10
-155.78735599
 20
248.87526019
 30
0.0
 11
-155.78735599
 21
271.09833937
 31
0.0
  0
LINE
  5
5B
100
AcDbEntity
  8
LAYER0016
  6
CONTINUOUS
 62
       7
100
AcDbLine
 10
-80.78735599
 20
248.87526019
 30
0.0
 11
-80.78735599
 21
271.09833937
 31
0.0
  0
TEXT
  5
5C
100
AcDbEntity
  8
LAYER0016
 62
       7
100
AcDbText
 10
-132.68735599
 20
271.09833937
 30
0.0
 40
12.0
  1
φ50
 41
0.8
 72
       5
 11
-103.88735599
 21
271.09833937
 31
0.0
100
AcDbText
  0
ENDBLK
  5
5D
100
AcDbEntity
  8
0
100
AcDbBlockEnd
  0
BLOCK
  5
5E
100
AcDbEntity
  8
0
100
AcDbBlockBegin
  2
_OPEN30
 70
       0
 10
0.0
 20
0.0
 30
0.0
  3
_OPEN30
  1

  0
LINE
  5
5F
100
AcDbEntity
  8
0
  6
CONTINUOUS
 62
       0
100
AcDbLine
 10
0.0
 20
0.0
 30
0.0
 11
-0.96592583
 21
0.25881905
 31
0.0
  0
LINE
  5
60
100
AcDbEntity
  8
0
  6
CONTINUOUS
 62
       0
100
AcDbLine
 10
0.0
 20
0.0
 30
0.0
 11
-0.96592583
 21
-0.25881905
 31
0.0
  0
LINE
  5
61
100
AcDbEntity
  8
0
  6
CONTINUOUS
 62
       0
100
AcDbLine
 10
0.0
 20
0.0
 30
0.0
 11
-1.0
 21
0.0
 31
0.0
  0
ENDBLK
  5
62
100
AcDbEntity
  8
0
100
AcDbBlockEnd
  0
BLOCK
  5
63
100
AcDbEntity
  8
0
100
AcDbBlockBegin
  2
DA_IMAGEDIMGROUP_2
 70
       0
 10
0.0
 20
0.0
 30
0.0
  3
DA_IMAGEDIMGROUP_2
  1

  0
LINE
  5
64
100
AcDbEntity
  8
LAYER0016
  6
CONTINUOUS
 62
       7
100
AcDbLine
 10
-83.78735599
 20
-4.79563928
 30
0.0
 11
-60.82961865
 21
-4.79563928
 31
0.0
  0
LINE
  5
65
100
AcDbEntity
  8
LAYER0016
  6
CONTINUOUS
 62
       7
100
AcDbLine
 10
-83.78735599
 20
49.20436072
 30
0.0
 11
-60.82961865
 21
49.20436072
 31
0.0
  0
LINE
  5
66
100
AcDbEntity
  8
LAYER0016
  6
CONTINUOUS
 62
       7
100
AcDbLine
 10
-63.82961865
 20
-4.79563928
 30
0.0
 11
-63.82961865
 21
49.20436072
 31
0.0
  0
LINE
  5
67
100
AcDbEntity
  8
LAYER0016
  6
CONTINUOUS
 62
       7
100
AcDbLine
 10
-63.82961865
 20
-48.28897928
 30
0.0
 11
-63.82961865
 21
-4.79563928
 31
0.0
  0
INSERT
  5
68
100
AcDbEntity
  8
LAYER0016
  6
CONTINUOUS
 62
       7
100
AcDbBlockReference
  2
_OPEN30
 10
-63.82961865
 20
-4.79563928
 30
0.0
 41
9.00000836
 42
8.99996782
 50
90.0
  0
LINE
  5
69
100
AcDbEntity
  8
LAYER0016
  6
CONTINUOUS
 62
       7
100
AcDbLine
 10
-63.82961865
 20
64.20436072
 30
0.0
 11
-63.82961865
 21
49.20436072
 31
0.0
  0
INSERT
  5
6A
100
AcDbEntity
  8
LAYER0016
  6
CONTINUOUS
 62
       7
100
AcDbBlockReference
  2
_OPEN30
 10
-63.82961865
 20
49.20436072
 30
0.0
 41
9.00000836
 42
8.99996782
 50
270.0
  0
TEXT
  5
6B
100
AcDbEntity
  8
LAYER0016
 62
       7
100
AcDbText
 10
-66.82961865
 20
-45.28897928
 30
0.0
 40
12.0
  1
φ36
 50
90.0
 41
0.8
 72
       5
 11
-66.82961865
 21
-16.48897928
 31
0.0
100
AcDbText
  0
ENDBLK
  5
6C
100
AcDbEntity
  8
0
100
AcDbBlockEnd
  0
BLOCK
  5
6D
100
AcDbEntity
  8
0
100
AcDbBlockBegin
  2
DA_IMAGEDIMGROUP_3
 70
       0
 10
0.0
 20
0.0
 30
0.0
  3
DA_IMAGEDIMGROUP_3
  1

  0
LINE
  5
6E
100
AcDbEntity
  8
LAYER0016
  6
CONTINUOUS
 62
       7
100
AcDbLine
 10
253.72581026
 20
3.45436072
 30
0.0
 11
253.72581026
 21
40.95436072
 31
0.0
  0
LINE
  5
6F
100
AcDbEntity
  8
LAYER0016
  6
CONTINUOUS
 62
       7
100
AcDbLine
 10
232.71264401
 20
3.45436072
 30
0.0
 11
256.72581026
 21
3.45436072
 31
0.0
  0
LINE
  5
70
100
AcDbEntity
  8
LAYER0016
  6
CONTINUOUS
 62
       7
100
AcDbLine
 10
232.71264401
 20
40.95436072
 30
0.0
 11
256.72581026
 21
40.95436072
 31
0.0
  0
LINE
  5
71
100
AcDbEntity
  8
LAYER0016
  6
CONTINUOUS
 62
       7
100
AcDbLine
 10
253.72581026
 20
-62.2269782
 30
0.0
 11
253.72581026
 21
3.45436072
 31
0.0
  0
INSERT
  5
72
100
AcDbEntity
  8
LAYER0016
  6
CONTINUOUS
 62
       7
100
AcDbBlockReference
  2
_OPEN30
 10
253.72581026
 20
3.45436072
 30
0.0
 41
9.00000836
 42
8.99996782
 50
90.0
  0
LINE
  5
73
100
AcDbEntity
  8
LAYER0016
  6
CONTINUOUS
 62
       7
100
AcDbLine
 10
253.72581026
 20
55.95436072
 30
0.0
 11
253.72581026
 21
40.95436072
 31
0.0
  0
INSERT
  5
74
100
AcDbEntity
  8
LAYER0016
  6
CONTINUOUS
 62
       7
100
AcDbBlockReference
  2
_OPEN30
 10
253.72581026
 20
40.95436072
 30
0.0
 41
9.00000836
 42
8.99996782
 50
270.0
  0
TEXT
  5
75
100
AcDbEntity
  8
LAYER0016
 62
       7
100
AcDbText
 10
250.72581026
 20
-59.2269782
 30
0.0
 40
12.0
  1
φ25
 50
90.0
 41
0.8
 72
       5
 11
250.72581026
 21
-30.4269782
 31
0.0
100
AcDbText
  0
ENDBLK
  5
76
100
AcDbEntity
  8
0
100
AcDbBlockEnd
  0
BLOCK
  5
77
100
AcDbEntity
  8
0
100
AcDbBlockBegin
  2
DA_IMAGEDIMGROUP_4
 70
       0
 10
0.0
 20
0.0
 30
0.0
  3
DA_IMAGEDIMGROUP_4
  1

  0
LINE
  5
78
100
AcDbEntity
  8
LAYER0016
  6
CONTINUOUS
 62
       7
100
AcDbLine
 10
-86.78735599
 20
-114.29563928
 30
0.0
 11
-86.78735599
 21
-92.68048684
 31
0.0
  0
LINE
  5
79
100
AcDbEntity
  8
LAYER0016
  6
CONTINUOUS
 62
       7
100
AcDbLine
 10
-149.78735599
 20
-114.29563928
 30
0.0
 11
-149.78735599
 21
-92.68048684
 31
0.0
  0
LINE
  5
7A
100
AcDbEntity
  8
LAYER0016
  6
CONTINUOUS
 62
       7
100
AcDbLine
 10
-86.78735599
 20
-95.68048684
 30
0.0
 11
-149.78735599
 21
-95.68048684
 31
0.0
  0
LINE
  5
7B
100
AcDbEntity
  8
LAYER0016
  6
CONTINUOUS
 62
       7
100
AcDbLine
 10
-214.00056983
 20
-95.68048684
 30
0.0
 11
-149.78735599
 21
-95.68048684
 31
0.0
  0
INSERT
  5
7C
100
AcDbEntity
  8
LAYER0016
  6
CONTINUOUS
 62
       7
100
AcDbBlockReference
  2
_OPEN30
 10
-149.78735599
 20
-95.68048684
 30
0.0
 41
9.00000836
 42
8.99996782
 50
360.0
  0
LINE
  5
7D
100
AcDbEntity
  8
LAYER0016
  6
CONTINUOUS
 62
       7
100
AcDbLine
 10
-71.78735599
 20
-95.68048684
 30
0.0
 11
-86.78735599
 21
-95.68048684
 31
0.0
  0
INSERT
  5
7E
100
AcDbEntity
  8
LAYER0016
  6
CONTINUOUS
 62
       7
100
AcDbBlockReference
  2
_OPEN30
 10
-86.78735599
 20
-95.68048684
 30
0.0
 41
9.00000836
 42
8.99996782
 50
180.0
  0
TEXT
  5
7F
100
AcDbEntity
  8
LAYER0016
 62
       7
100
AcDbText
 10
-211.00056983
 20
-92.68048684
 30
0.0
 40
12.0
  1
φ42
 41
0.8
 72
       5
 11
-182.20056983
 21
-92.68048684
 31
0.0
100
AcDbText
  0
ENDBLK
  5
80
100
AcDbEntity
  8
0
100
AcDbBlockEnd
  0
BLOCK
  5
81
100
AcDbEntity
  8
0
100
AcDbBlockBegin
  2
DA_IMAGEDIMGROUP_5
 70
       0
 10
0.0
 20
0.0
 30
0.0
  3
DA_IMAGEDIMGROUP_5
  1

  0
LINE
  5
82
100
AcDbEntity
  8
LAYER0016
  6
CONTINUOUS
 62
       7
100
AcDbLine
 10
-99.53735599
 20
134.12526019
 30
0.0
 11
-99.53735599
 21
126.44718721
 31
0.0
  0
LINE
  5
83
100
AcDbEntity
  8
LAYER0016
  6
CONTINUOUS
 62
       7
100
AcDbLine
 10
-137.03735599
 20
134.12526019
 30
0.0
 11
-137.03735599
 21
126.44718721
 31
0.0
  0
LINE
  5
84
100
AcDbEntity
  8
LAYER0016
  6
CONTINUOUS
 62
       7
100
AcDbLine
 10
-99.53735599
 20
129.44718721
 30
0.0
 11
-137.03735599
 21
129.44718721
 31
0.0
  0
LINE
  5
85
100
AcDbEntity
  8
LAYER0016
  6
CONTINUOUS
 62
       7
100
AcDbLine
 10
-198.68576207
 20
129.44718721
 30
0.0
 11
-137.03735599
 21
129.44718721
 31
0.0
  0
INSERT
  5
86
100
AcDbEntity
  8
LAYER0016
  6
CONTINUOUS
 62
       7
100
AcDbBlockReference
  2
_OPEN30
 10
-137.03735599
 20
129.44718721
 30
0.0
 41
9.00000836
 42
8.99996782
 50
360.0
  0
LINE
  5
87
100
AcDbEntity
  8
LAYER0016
  6
CONTINUOUS
 62
       7
100
AcDbLine
 10
-84.53735599
 20
129.44718721
 30
0.0
 11
-99.53735599
 21
129.44718721
 31
0.0
  0
INSERT
  5
88
100
AcDbEntity
  8
LAYER0016
  6
CONTINUOUS
 62
       7
100
AcDbBlockReference
  2
_OPEN30
 10
-99.53735599
 20
129.44718721
 30
0.0
 41
9.00000836
 42
8.99996782
 50
180.0
  0
TEXT
  5
89
100
AcDbEntity
  8
LAYER0016
 62
       7
100
AcDbText
 10
-195.68576207
 20
132.44718721
 30
0.0
 40
12.0
  1
φ25
 41
0.8
 72
       5
 11
-166.88576207
 21
132.44718721
 31
0.0
100
AcDbText
  0
ENDBLK
  5
8A
100
AcDbEntity
  8
0
100
AcDbBlockEnd
  0
BLOCK
  5
8B
100
AcDbEntity
  8
0
100
AcDbBlockBegin
  2
DA_IMAGEDIMGROUP_6
 70
       0
 10
0.0
 20
0.0
 30
0.0
  3
DA_IMAGEDIMGROUP_6
  1

  0
LINE
  5
8C
100
AcDbEntity
  8
LAYER0016
  6
CONTINUOUS
 62
       7
100
AcDbLine
 10
-225.92231248
 20
22.20436072
 30
0.0
 11
-225.92231248
 21
86.70436072
 31
0.0
  0
INSERT
  5
8D
100
AcDbEntity
  8
LAYER0016
  6
CONTINUOUS
 62
       7
100
AcDbBlockReference
  2
_OPEN30
 10
-225.92231248
 20
22.20436072
 30
0.0
 41
9.00000836
 42
8.99996782
 50
270.0
  0
INSERT
  5
8E
100
AcDbEntity
  8
LAYER0016
  6
CONTINUOUS
 62
       7
100
AcDbBlockReference
  2
_OPEN30
 10
-225.92231248
 20
86.70436072
 30
0.0
 41
9.00000836
 42
8.99996782
 50
90.0
  0
LINE
  5
8F
100
AcDbEntity
  8
LAYER0016
  6
CONTINUOUS
 62
       7
100
AcDbLine
 10
-163.93229397
 20
22.20436072
 30
0.0
 11
-228.92231248
 21
22.20436072
 31
0.0
  0
LINE
  5
90
100
AcDbEntity
  8
LAYER0016
  6
CONTINUOUS
 62
       7
100
AcDbLine
 10
-152.78735599
 20
86.70436072
 30
0.0
 11
-228.92231248
 21
86.70436072
 31
0.0
  0
TEXT
  5
91
100
AcDbEntity
  8
LAYER0016
 62
       7
100
AcDbText
 10
-228.92231248
 20
44.85436072
 30
0.0
 40
12.0
  1
43
 50
90.0
 41
0.8
 72
       5
 11
-228.92231248
 21
64.05436072
 31
0.0
100
AcDbText
  0
ENDBLK
  5
92
100
AcDbEntity
  8
0
100
AcDbBlockEnd
  0
BLOCK
  5
93
100
AcDbEntity
  8
0
100
AcDbBlockBegin
  2
DA_IMAGEDIMGROUP_7
 70
       0
 10
0.0
 20
0.0
 30
0.0
  3
DA_IMAGEDIMGROUP_7
  1

  0
LINE
  5
94
100
AcDbEntity
  8
LAYER0016
  6
CONTINUOUS
 62
       7
100
AcDbLine
 10
-118.28735599
 20
-173.25
 30
0.0
 11
229.71264401
 21
-173.25
 31
0.0
  0
INSERT
  5
95
100
AcDbEntity
  8
LAYER0016
  6
CONTINUOUS
 62
       7
100
AcDbBlockReference
  2
_OPEN30
 10
-118.28735599
 20
-173.25
 30
0.0
 41
9.00000836
 42
8.99996782
 50
180.0
  0
INSERT
  5
96
100
AcDbEntity
  8
LAYER0016
  6
CONTINUOUS
 62
       7
100
AcDbBlockReference
  2
_OPEN30
 10
229.71264401
 20
-173.25
 30
0.0
 41
9.00000836
 42
8.99996782
 50
360.0
  0
LINE
  5
97
100
AcDbEntity
  8
LAYER0016
  6
CONTINUOUS
 62
       7
100
AcDbLine
 10
-118.28735599
 20
-151.78574834
 30
0.0
 11
-118.28735599
 21
-176.25
 31
0.0
  0
LINE
  5
98
100
AcDbEntity
  8
LAYER0016
  6
CONTINUOUS
 62
       7
100
AcDbLine
 10
229.71264401
 20
0.45436072
 30
0.0
 11
229.71264401
 21
-176.25
 31
0.0
  0
TEXT
  5
99
100
AcDbEntity
  8
LAYER0016
 62
       7
100
AcDbText
 10
22.11264401
 20
-170.25
 30
0.0
 40
12.0
  1
322～332
 41
0.8
 72
       5
 11
89.31264401
 21
-170.25
 31
0.0
100
AcDbText
  0
ENDBLK
  5
9A
100
AcDbEntity
  8
0
100
AcDbBlockEnd
  0
BLOCK
  5
9B
100
AcDbEntity
  8
0
100
AcDbBlockBegin
  2
DA_IMAGEDIMGROUP_8
 70
       0
 10
0.0
 20
0.0
 30
0.0
  3
DA_IMAGEDIMGROUP_8
  1

  0
LINE
  5
9C
100
AcDbEntity
  8
LAYER0016
  6
CONTINUOUS
 62
       7
100
AcDbLine
 10
-118.28735599
 20
-153.45
 30
0.0
 11
-35.03735599
 21
-153.45
 31
0.0
  0
INSERT
  5
9D
100
AcDbEntity
  8
LAYER0016
  6
CONTINUOUS
 62
       7
100
AcDbBlockReference
  2
_OPEN30
 10
-118.28735599
 20
-153.45
 30
0.0
 41
9.00000836
 42
8.99996782
 50
180.0
  0
INSERT
  5
9E
100
AcDbEntity
  8
LAYER0016
  6
CONTINUOUS
 62
       7
100
AcDbBlockReference
  2
_OPEN30
 10
-35.03735599
 20
-153.45
 30
0.0
 41
9.00000836
 42
8.99996782
 50
360.0
  0
LINE
  5
9F
100
AcDbEntity
  8
LAYER0016
  6
CONTINUOUS
 62
       7
100
AcDbLine
 10
-118.28735599
 20
-151.78574834
 30
0.0
 11
-118.28735599
 21
-156.45
 31
0.0
  0
LINE
  5
A0
100
AcDbEntity
  8
LAYER0016
  6
CONTINUOUS
 62
       7
100
AcDbLine
 10
-35.03735599
 20
-6.29563928
 30
0.0
 11
-35.03735599
 21
-156.45
 31
0.0
  0
TEXT
  5
A1
100
AcDbEntity
  8
LAYER0016
 62
       7
100
AcDbText
 10
-95.86235599
 20
-150.45
 30
0.0
 40
12.0
  1
55.5
 41
0.8
 72
       5
 11
-57.46235599
 21
-150.45
 31
0.0
100
AcDbText
  0
ENDBLK
  5
A2
100
AcDbEntity
  8
0
100
AcDbBlockEnd
  0
BLOCK
  5
A3
100
AcDbEntity
  8
0
100
AcDbBlockBegin
  2
DA_IMAGEDIMGROUP_9
 70
       0
 10
0.0
 20
0.0
 30
0.0
  3
DA_IMAGEDIMGROUP_9
  1

  0
LINE
  5
A4
100
AcDbEntity
  8
LAYER0016
  6
CONTINUOUS
 62
       7
100
AcDbLine
 10
-142.28735599
 20
230.12526019
 30
0.0
 11
-142.28735599
 21
218.58945495
 31
0.0
  0
LINE
  5
A5
100
AcDbEntity
  8
LAYER0016
  6
CONTINUOUS
 62
       7
100
AcDbLine
 10
-94.28735599
 20
230.12526019
 30
0.0
 11
-94.28735599
 21
218.58945495
 31
0.0
  0
LINE
  5
A6
100
AcDbEntity
  8
LAYER0016
  6
CONTINUOUS
 62
       7
100
AcDbLine
 10
-142.28735599
 20
221.58945495
 30
0.0
 11
-94.28735599
 21
221.58945495
 31
0.0
  0
LINE
  5
A7
100
AcDbEntity
  8
LAYER0016
  6
CONTINUOUS
 62
       7
100
AcDbLine
 10
-208.68495255
 20
221.58945495
 30
0.0
 11
-142.28735599
 21
221.58945495
 31
0.0
  0
INSERT
  5
A8
100
AcDbEntity
  8
LAYER0016
  6
CONTINUOUS
 62
       7
100
AcDbBlockReference
  2
_OPEN30
 10
-142.28735599
 20
221.58945495
 30
0.0
 41
9.00000836
 42
8.99996782
 50
360.0
  0
LINE
  5
A9
100
AcDbEntity
  8
LAYER0016
  6
CONTINUOUS
 62
       7
100
AcDbLine
 10
-79.28735599
 20
221.58945495
 30
0.0
 11
-94.28735599
 21
221.58945495
 31
0.0
  0
INSERT
  5
AA
100
AcDbEntity
  8
LAYER0016
  6
CONTINUOUS
 62
       7
100
AcDbBlockReference
  2
_OPEN30
 10
-94.28735599
 20
221.58945495
 30
0.0
 41
9.00000836
 42
8.99996782
 50
180.0
  0
TEXT
  5
AB
100
AcDbEntity
  8
LAYER0016
 62
       7
100
AcDbText
 10
-205.68495255
 20
224.58945495
 30
0.0
 40
12.0
  1
φ32
 41
0.8
 72
       5
 11
-176.88495255
 21
224.58945495
 31
0.0
100
AcDbText
  0
ENDBLK
  5
AC
100
AcDbEntity
  8
0
100
AcDbBlockEnd
  0
BLOCK
  5
AD
100
AcDbEntity
  8
0
100
AcDbBlockBegin
  2
GROUP_1
 70
       0
 10
0.0
 20
0.0
 30
0.0
  3
GROUP_1
  1

  0
LINE
  5
AE
100
AcDbEntity
  8
LAYER0016
  6
CONTINUOUS
 62
       7
100
AcDbLine
 10
48.50234485
 20
3.45436072
 30
0.0
 11
86.08203502
 21
-68.36460272
 31
0.0
  0
INSERT
  5
AF
100
AcDbEntity
  8
LAYER0016
  6
CONTINUOUS
 62
       7
100
AcDbBlockReference
  2
_OPEN30
 10
48.50234485
 20
3.45436072
 30
0.0
 41
9.00000836
 42
8.99996782
 50
117.62107498
  0
CIRCLE
  5
B0
100
AcDbEntity
  8
LAYER0016
  6
CONTINUOUS
 62
       7
100
AcDbCircle
 10
92.34093167
 20
-80.32604965
 30
0.0
 40
13.5
  0
TEXT
  5
B1
100
AcDbEntity
  8
LAYER0016
 62
       7
100
AcDbText
 10
87.54093167
 20
-86.32604965
 30
0.0
 40
12.0
  1
9
 41
0.8
 72
       5
 11
97.14093167
 21
-86.32604965
 31
0.0
100
AcDbText
  0
ENDBLK
  5
B2
100
AcDbEntity
  8
0
100
AcDbBlockEnd
  0
BLOCK
  5
B3
100
AcDbEntity
  8
0
100
AcDbBlockBegin
  2
GROUP_2
 70
       0
 10
0.0
 20
0.0
 30
0.0
  3
GROUP_2
  1

  0
LINE
  5
B4
100
AcDbEntity
  8
LAYER0016
  6
CONTINUOUS
 62
       7
100
AcDbLine
 10
-86.78735599
 20
71.24528219
 30
0.0
 11
-50.77810589
 21
87.86493609
 31
0.0
  0
INSERT
  5
B5
100
AcDbEntity
  8
LAYER0016
  6
CONTINUOUS
 62
       7
100
AcDbBlockReference
  2
_OPEN30
 10
-86.78735599
 20
71.24528219
 30
0.0
 41
9.00000836
 42
8.99996782
 50
204.77514057
  0
LINE
  5
B6
100
AcDbEntity
  8
LAYER0016
  6
CONTINUOUS
 62
       7
100
AcDbLine
 10
-50.77810589
 20
87.86493609
 30
0.0
 11
27.77674975
 21
70.87079643
 31
0.0
  0
CIRCLE
  5
B7
100
AcDbEntity
  8
LAYER0016
  6
CONTINUOUS
 62
       7
100
AcDbCircle
 10
40.97151802
 20
68.01631044
 30
0.0
 40
13.5
  0
TEXT
  5
B8
100
AcDbEntity
  8
LAYER0016
 62
       7
100
AcDbText
 10
36.17151802
 20
62.01631044
 30
0.0
 40
12.0
  1
8
 41
0.8
 72
       5
 11
45.77151802
 21
62.01631044
 31
0.0
100
AcDbText
  0
ENDBLK
  5
B9
100
AcDbEntity
  8
0
100
AcDbBlockEnd
  0
BLOCK
  5
BA
100
AcDbEntity
  8
0
100
AcDbBlockBegin
  2
GROUP_3
 70
       0
 10
0.0
 20
0.0
 30
0.0
  3
GROUP_3
  1

  0
LINE
  5
BB
100
AcDbEntity
  8
LAYER0016
  6
CONTINUOUS
 62
       7
100
AcDbLine
 10
168.68301504
 20
-21.35471679
 30
0.0
 11
188.06209604
 21
-67.86451119
 31
0.0
  0
INSERT
  5
BC
100
AcDbEntity
  8
LAYER0016
  6
CONTINUOUS
 62
       7
100
AcDbBlockReference
  2
_OPEN30
 10
168.68301504
 20
-21.35471679
 30
0.0
 41
9.00000836
 42
8.99996782
 50
112.61986495
  0
CIRCLE
  5
BD
100
AcDbEntity
  8
LAYER0016
  6
CONTINUOUS
 62
       7
100
AcDbCircle
 10
193.25440373
 20
-80.32604965
 30
0.0
 40
13.5
  0
TEXT
  5
BE
100
AcDbEntity
  8
LAYER0016
 62
       7
100
AcDbText
 10
183.65440373
 20
-86.32604965
 30
0.0
 40
12.0
  1
10
 41
0.8
 72
       5
 11
202.85440373
 21
-86.32604965
 31
0.0
100
AcDbText
  0
ENDBLK
  5
BF
100
AcDbEntity
  8
0
100
AcDbBlockEnd
  0
BLOCK
  5
C0
100
AcDbEntity
  8
0
100
AcDbBlockBegin
  2
DA_IMAGEDIMGROUP_10
 70
       0
 10
0.0
 20
0.0
 30
0.0
  3
DA_IMAGEDIMGROUP_10
  1

  0
LINE
  5
C1
100
AcDbEntity
  8
LAYER0016
  6
CONTINUOUS
 62
       7
100
AcDbLine
 10
274.6583796
 20
-22.79563928
 30
0.0
 11
274.6583796
 21
67.20436072
 31
0.0
  0
INSERT
  5
C2
100
AcDbEntity
  8
LAYER0016
  6
CONTINUOUS
 62
       7
100
AcDbBlockReference
  2
_OPEN30
 10
274.6583796
 20
-22.79563928
 30
0.0
 41
9.00000836
 42
8.99996782
 50
270.0
  0
INSERT
  5
C3
100
AcDbEntity
  8
LAYER0016
  6
CONTINUOUS
 62
       7
100
AcDbBlockReference
  2
_OPEN30
 10
274.6583796
 20
67.20436072
 30
0.0
 41
9.00000836
 42
8.99996782
 50
90.0
  0
LINE
  5
C4
100
AcDbEntity
  8
LAYER0016
  6
CONTINUOUS
 62
       7
100
AcDbLine
 10
181.69054918
 20
-22.79563928
 30
0.0
 11
277.6583796
 21
-22.79563928
 31
0.0
  0
LINE
  5
C5
100
AcDbEntity
  8
LAYER0016
  6
CONTINUOUS
 62
       7
100
AcDbLine
 10
181.69054918
 20
67.20436072
 30
0.0
 11
277.6583796
 21
67.20436072
 31
0.0
  0
TEXT
  5
C6
100
AcDbEntity
  8
LAYER0016
 62
       7
100
AcDbText
 10
271.6583796
 20
7.80436072
 30
0.0
 40
12.0
  1
φ60
 50
90.0
 41
0.8
 72
       5
 11
271.6583796
 21
36.60436072
 31
0.0
100
AcDbText
  0
ENDBLK
  5
C7
100
AcDbEntity
  8
0
100
AcDbBlockEnd
  0
BLOCK
  5
C8
100
AcDbEntity
  8
0
100
AcDbBlockBegin
  2
DA_IMAGEDIMGROUP_11
 70
       0
 10
0.0
 20
0.0
 30
0.0
  3
DA_IMAGEDIMGROUP_11
  1

  0
LINE
  5
C9
100
AcDbEntity
  8
LAYER0016
  6
CONTINUOUS
 62
       7
100
AcDbLine
 10
154.69054918
 20
43.95436072
 30
0.0
 11
154.69054918
 21
93.09471798
 31
0.0
  0
LINE
  5
CA
100
AcDbEntity
  8
LAYER0016
  6
CONTINUOUS
 62
       7
100
AcDbLine
 10
178.69054918
 20
70.20436072
 30
0.0
 11
178.69054918
 21
93.09471798
 31
0.0
  0
LINE
  5
CB
100
AcDbEntity
  8
LAYER0016
  6
CONTINUOUS
 62
       7
100
AcDbLine
 10
154.69054918
 20
90.09471798
 30
0.0
 11
178.69054918
 21
90.09471798
 31
0.0
  0
INSERT
  5
CC
100
AcDbEntity
  8
LAYER0016
  6
CONTINUOUS
 62
       7
100
AcDbBlockReference
  2
_OPEN30
 10
154.69054918
 20
90.09471798
 30
0.0
 41
9.00000836
 42
8.99996782
 50
180.0
  0
INSERT
  5
CD
100
AcDbEntity
  8
LAYER0016
  6
CONTINUOUS
 62
       7
100
AcDbBlockReference
  2
_OPEN30
 10
178.69054918
 20
90.09471798
 30
0.0
 41
9.00000836
 42
8.99996782
 50
360.0
  0
TEXT
  5
CE
100
AcDbEntity
  8
LAYER0016
 62
       7
100
AcDbText
 10
157.09054918
 20
93.09471798
 30
0.0
 40
12.0
  1
16
 41
0.8
 72
       5
 11
176.29054918
 21
93.09471798
 31
0.0
100
AcDbText
  0
ENDBLK
  5
CF
100
AcDbEntity
  8
0
100
AcDbBlockEnd
  0
BLOCK
  5
D0
100
AcDbEntity
  8
0
100
AcDbBlockBegin
  2
GROUP_4
 70
       0
 10
0.0
 20
0.0
 30
0.0
  3
GROUP_4
  1

  0
LINE
  5
D1
100
AcDbEntity
  8
LAYER0016
  6
CONTINUOUS
 62
       7
100
AcDbLine
 10
-137.03735599
 20
152.66682398
 30
0.0
 11
-183.93939027
 21
162.96213355
 31
0.0
  0
INSERT
  5
D2
100
AcDbEntity
  8
LAYER0016
  6
CONTINUOUS
 62
       7
100
AcDbBlockReference
  2
_OPEN30
 10
-137.03735599
 20
152.66682398
 30
0.0
 41
9.00000836
 42
8.99996782
 50
347.61954483
  0
CIRCLE
  5
D3
100
AcDbEntity
  8
LAYER0016
  6
CONTINUOUS
 62
       7
100
AcDbCircle
 10
-197.12545415
 20
165.85656259
 30
0.0
 40
13.5
  0
TEXT
  5
D4
100
AcDbEntity
  8
LAYER0016
 62
       7
100
AcDbText
 10
-206.72545415
 20
159.85656259
 30
0.0
 40
12.0
  1
11
 41
0.8
 72
       5
 11
-187.52545415
 21
159.85656259
 31
0.0
100
AcDbText
  0
ENDBLK
  5
D5
100
AcDbEntity
  8
0
100
AcDbBlockEnd
  0
BLOCK
  5
D6
100
AcDbEntity
  8
0
100
AcDbBlockBegin
  2
GROUP_5
 70
       0
 10
0.0
 20
0.0
 30
0.0
  3
GROUP_5
  1

  0
LINE
  5
D7
100
AcDbEntity
  8
LAYER0016
  6
CONTINUOUS
 62
       7
100
AcDbLine
 10
-163.93229397
 20
22.20436072
 30
0.0
 11
-255.57331485
 21
22.20436072
 31
0.0
  0
LINE
  5
D8
100
AcDbEntity
  8
LAYER0016
  6
CONTINUOUS
 62
       7
100
AcDbLine
 10
-152.78735599
 20
-117.29563928
 30
0.0
 11
-255.57331485
 21
-117.29563928
 31
0.0
  0
LINE
  5
D9
100
AcDbEntity
  8
LAYER0016
  6
CONTINUOUS
 62
       7
100
AcDbLine
 10
-158.78735599
 20
245.87526019
 30
0.0
 11
-255.57331485
 21
245.87526019
 31
0.0
  0
LINE
  5
DA
100
AcDbEntity
  8
LAYER0016
  6
CONTINUOUS
 62
       7
100
AcDbLine
 10
-252.57331485
 20
-117.29563928
 30
0.0
 11
-252.57331485
 21
22.20436072
 31
0.0
  0
INSERT
  5
DB
100
AcDbEntity
  8
LAYER0016
  6
CONTINUOUS
 62
       7
100
AcDbBlockReference
  2
_OPEN30
 10
-252.57331485
 20
-117.29563928
 30
0.0
 41
9.00000836
 42
8.99996782
 50
270.0
  0
INSERT
  5
DC
100
AcDbEntity
  8
LAYER0016
  6
CONTINUOUS
 62
       7
100
AcDbBlockReference
  2
_OPEN30
 10
-252.57331485
 20
22.20436072
 30
0.0
 41
9.00000836
 42
8.99996782
 50
90.0
  0
LINE
  5
DD
100
AcDbEntity
  8
LAYER0016
  6
CONTINUOUS
 62
       7
100
AcDbLine
 10
-252.57331485
 20
22.20436072
 30
0.0
 11
-252.57331485
 21
245.87526019
 31
0.0
  0
INSERT
  5
DE
100
AcDbEntity
  8
LAYER0016
  6
CONTINUOUS
 62
       7
100
AcDbBlockReference
  2
_OPEN30
 10
-252.57331485
 20
22.20436072
 30
0.0
 41
9.00000836
 42
8.99996782
 50
270.0
  0
INSERT
  5
DF
100
AcDbEntity
  8
LAYER0016
  6
CONTINUOUS
 62
       7
100
AcDbBlockReference
  2
_OPEN30
 10
-252.57331485
 20
245.87526019
 30
0.0
 41
9.00000836
 42
8.99996782
 50
90.0
  0
TEXT
  5
E0
100
AcDbEntity
  8
LAYER0016
 62
       7
100
AcDbText
 10
-255.57331485
 20
-57.14563928
 30
0.0
 40
12.0
  1
93
 50
90.0
 41
0.8
 72
       5
 11
-255.57331485
 21
-37.94563928
 31
0.0
100
AcDbText
  0
TEXT
  5
E1
100
AcDbEntity
  8
LAYER0016
 62
       7
100
AcDbText
 10
-255.57331485
 20
87.77526019
 30
0.0
 40
12.0
  1
130～180
 50
90.0
 41
0.8
 72
       5
 11
-255.57331485
 21
154.97526019
 31
0.0
100
AcDbText
  0
ENDBLK
  5
E2
100
AcDbEntity
  8
0
100
AcDbBlockEnd
  0
BLOCK
  5
E3
100
AcDbEntity
  8
0
100
AcDbBlockBegin
  2
GROUP_6
 70
       0
 10
0.0
 20
0.0
 30
0.0
  3
GROUP_6
  1

  0
LINE
  5
E4
100
AcDbEntity
  8
LAYER0016
  6
CONTINUOUS
 62
       7
100
AcDbLine
 10
-80.78735599
 20
245.87526019
 30
0.0
 11
28.95117008
 21
301.97555992
 31
0.0
  0
INSERT
  5
E5
100
AcDbEntity
  8
LAYER0016
  6
CONTINUOUS
 62
       7
100
AcDbBlockReference
  2
_OPEN30
 10
-80.78735599
 20
245.87526019
 30
0.0
 41
9.00000836
 42
8.99996782
 50
207.07693163
  0
CIRCLE
  5
E6
100
AcDbEntity
  8
LAYER0016
  6
CONTINUOUS
 62
       7
100
AcDbCircle
 10
40.97151802
 20
308.12057705
 30
0.0
 40
13.5
  0
TEXT
  5
E7
100
AcDbEntity
  8
LAYER0016
 62
       7
100
AcDbText
 10
36.17151802
 20
302.12057705
 30
0.0
 40
12.0
  1
2
 41
0.8
 72
       5
 11
45.77151802
 21
302.12057705
 31
0.0
100
AcDbText
  0
ENDBLK
  5
E8
100
AcDbEntity
  8
0
100
AcDbBlockEnd
  0
BLOCK
  5
E9
100
AcDbEntity
  8
0
100
AcDbBlockBegin
  2
GROUP_7
 70
       0
 10
0.0
 20
0.0
 30
0.0
  3
GROUP_7
  1

  0
LINE
  5
EA
100
AcDbEntity
  8
LAYER0016
  6
CONTINUOUS
 62
       7
100
AcDbLine
 10
-80.78735599
 20
236.67159827
 30
0.0
 11
28.00452446
 21
268.18358046
 31
0.0
  0
INSERT
  5
EB
100
AcDbEntity
  8
LAYER0016
  6
CONTINUOUS
 62
       7
100
AcDbBlockReference
  2
_OPEN30
 10
-80.78735599
 20
236.67159827
 30
0.0
 41
9.00000836
 42
8.99996782
 50
196.1538606
  0
CIRCLE
  5
EC
100
AcDbEntity
  8
LAYER0016
  6
CONTINUOUS
 62
       7
100
AcDbCircle
 10
40.97151802
 20
271.93951949
 30
0.0
 40
13.5
  0
TEXT
  5
ED
100
AcDbEntity
  8
LAYER0016
 62
       7
100
AcDbText
 10
36.17151802
 20
265.93951949
 30
0.0
 40
12.0
  1
3
 41
0.8
 72
       5
 11
45.77151802
 21
265.93951949
 31
0.0
100
AcDbText
  0
ENDBLK
  5
EE
100
AcDbEntity
  8
0
100
AcDbBlockEnd
  0
BLOCK
  5
EF
100
AcDbEntity
  8
0
100
AcDbBlockBegin
  2
GROUP_8
 70
       0
 10
0.0
 20
0.0
 30
0.0
  3
GROUP_8
  1

  0
LINE
  5
F0
100
AcDbEntity
  8
LAYER0016
  6
CONTINUOUS
 62
       7
100
AcDbLine
 10
-77.03735599
 20
200.87526019
 30
0.0
 11
27.85148598
 21
175.44960401
 31
0.0
  0
INSERT
  5
F1
100
AcDbEntity
  8
LAYER0016
  6
CONTINUOUS
 62
       7
100
AcDbBlockReference
  2
_OPEN30
 10
-77.03735599
 20
200.87526019
 30
0.0
 41
9.00000836
 42
8.99996782
 50
166.37400702
  0
CIRCLE
  5
F2
100
AcDbEntity
  8
LAYER0016
  6
CONTINUOUS
 62
       7
100
AcDbCircle
 10
40.97151802
 20
172.26923308
 30
0.0
 40
13.5
  0
TEXT
  5
F3
100
AcDbEntity
  8
LAYER0016
 62
       7
100
AcDbText
 10
36.17151802
 20
166.26923308
 30
0.0
 40
12.0
  1
5
 41
0.8
 72
       5
 11
45.77151802
 21
166.26923308
 31
0.0
100
AcDbText
  0
ENDBLK
  5
F4
100
AcDbEntity
  8
0
100
AcDbBlockEnd
  0
BLOCK
  5
F5
100
AcDbEntity
  8
0
100
AcDbBlockBegin
  2
GROUP_9
 70
       0
 10
0.0
 20
0.0
 30
0.0
  3
GROUP_9
  1

  0
LINE
  5
F6
100
AcDbEntity
  8
LAYER0016
  6
CONTINUOUS
 62
       7
100
AcDbLine
 10
-91.28735599
 20
171.62526019
 30
0.0
 11
29.03357613
 21
108.09197588
 31
0.0
  0
INSERT
  5
F7
100
AcDbEntity
  8
LAYER0016
  6
CONTINUOUS
 62
       7
100
AcDbBlockReference
  2
_OPEN30
 10
-91.28735599
 20
171.62526019
 30
0.0
 41
9.00000836
 42
8.99996782
 50
152.16451907
  0
CIRCLE
  5
F8
100
AcDbEntity
  8
LAYER0016
  6
CONTINUOUS
 62
       7
100
AcDbCircle
 10
40.97151802
 20
101.78836235
 30
0.0
 40
13.5
  0
TEXT
  5
F9
100
AcDbEntity
  8
LAYER0016
 62
       7
100
AcDbText
 10
36.17151802
 20
95.78836235
 30
0.0
 40
12.0
  1
7
 41
0.8
 72
       5
 11
45.77151802
 21
95.78836235
 31
0.0
100
AcDbText
  0
ENDBLK
  5
FA
100
AcDbEntity
  8
0
100
AcDbBlockEnd
  0
BLOCK
  5
FB
100
AcDbEntity
  8
0
100
AcDbBlockBegin
  2
GROUP_10
 70
       0
 10
0.0
 20
0.0
 30
0.0
  3
GROUP_10
  1

  0
LINE
  5
FC
100
AcDbEntity
  8
LAYER0016
  6
CONTINUOUS
 62
       7
100
AcDbLine
 10
-90.53735599
 20
192.53173807
 30
0.0
 11
28.46165334
 21
144.25843036
 31
0.0
  0
INSERT
  5
FD
100
AcDbEntity
  8
LAYER0016
  6
CONTINUOUS
 62
       7
100
AcDbBlockReference
  2
_OPEN30
 10
-90.53735599
 20
192.53173807
 30
0.0
 41
9.00000836
 42
8.99996782
 50
157.91950329
  0
CIRCLE
  5
FE
100
AcDbEntity
  8
LAYER0016
  6
CONTINUOUS
 62
       7
100
AcDbCircle
 10
40.97151802
 20
139.18366083
 30
0.0
 40
13.5
  0
TEXT
  5
FF
100
AcDbEntity
  8
LAYER0016
 62
       7
100
AcDbText
 10
36.17151802
 20
133.18366083
 30
0.0
 40
12.0
  1
6
 41
0.8
 72
       5
 11
45.77151802
 21
133.18366083
 31
0.0
100
AcDbText
  0
ENDBLK
  5
100
100
AcDbEntity
  8
0
100
AcDbBlockEnd
  0
BLOCK
  5
101
100
AcDbEntity
  8
0
100
AcDbBlockBegin
  2
GROUP_11
 70
       0
 10
0.0
 20
0.0
 30
0.0
  3
GROUP_11
  1

  0
LINE
  5
102
100
AcDbEntity
  8
LAYER0016
  6
CONTINUOUS
 62
       7
100
AcDbLine
 10
-79.5780241
 20
205.62876199
 30
0.0
 11
28.00452446
 21
236.79045659
 31
0.0
  0
INSERT
  5
103
100
AcDbEntity
  8
LAYER0016
  6
CONTINUOUS
 62
       7
100
AcDbBlockReference
  2
_OPEN30
 10
-79.5780241
 20
205.62876199
 30
0.0
 41
9.00000836
 42
8.99996782
 50
196.1538606
  0
CIRCLE
  5
104
100
AcDbEntity
  8
LAYER0016
  6
CONTINUOUS
 62
       7
100
AcDbCircle
 10
40.97151802
 20
240.54639562
 30
0.0
 40
13.5
  0
TEXT
  5
105
100
AcDbEntity
  8
LAYER0016
 62
       7
100
AcDbText
 10
36.17151802
 20
234.54639562
 30
0.0
 40
12.0
  1
4
 41
0.8
 72
       5
 11
45.77151802
 21
234.54639562
 31
0.0
100
AcDbText
  0
ENDBLK
  5
106
100
AcDbEntity
  8
0
100
AcDbBlockEnd
  0
BLOCK
  5
107
100
AcDbEntity
  8
0
100
AcDbBlockBegin
  2
GROUP_12
 70
       0
 10
0.0
 20
0.0
 30
0.0
  3
GROUP_12
  1

  0
LINE
  5
108
100
AcDbEntity
  8
LAYER0016
  6
CONTINUOUS
 62
       7
100
AcDbLine
 10
-98.80040113
 20
337.13942132
 30
0.0
 11
27.47940249
 21
341.4571812
 31
0.0
  0
INSERT
  5
109
100
AcDbEntity
  8
LAYER0016
  6
CONTINUOUS
 62
       7
100
AcDbBlockReference
  2
_OPEN30
 10
-98.80040113
 20
337.13942132
 30
0.0
 41
9.00000836
 42
8.99996782
 50
181.95829477
  0
CIRCLE
  5
10A
100
AcDbEntity
  8
LAYER0016
  6
CONTINUOUS
 62
       7
100
AcDbCircle
 10
40.97151802
 20
341.9185037
 30
0.0
 40
13.5
  0
TEXT
  5
10B
100
AcDbEntity
  8
LAYER0016
 62
       7
100
AcDbText
 10
36.17151802
 20
335.9185037
 30
0.0
 40
12.0
  1
1
 41
0.8
 72
       5
 11
45.77151802
 21
335.9185037
 31
0.0
100
AcDbText
  0
ENDBLK
  5
10C
100
AcDbEntity
  8
0
100
AcDbBlockEnd
  0
ENDSEC
  0
SECTION
  2
ENTITIES
  0
LINE
  5
10D
100
AcDbEntity
  8
ZUWAKU
  6
CONTINUOUS
 62
       7
100
AcDbLine
 10
-169.87781536
 20
-415.71154968
 30
0.0
 11
-168.19031536
 21
-411.02404968
 31
0.0
  0
LINE
  5
10E
100
AcDbEntity
  8
ZUWAKU
  6
CONTINUOUS
 62
       7
100
AcDbLine
 10
-182.36531536
 20
-415.71154968
 30
0.0
 11
-179.74031536
 21
-408.58654968
 31
0.0
  0
LINE
  5
10F
100
AcDbEntity
  8
ZUWAKU
  6
CONTINUOUS
 62
       7
100
AcDbLine
 10
-184.80281536
 20
-405.96154968
 30
0.0
 11
-185.74031536
 21
-408.58654968
 31
0.0
  0
LINE
  5
110
100
AcDbEntity
  8
ZUWAKU
  6
CONTINUOUS
 62
       7
100
AcDbLine
 10
-176.17781536
 20
-415.71154968
 30
0.0
 11
-173.36531536
 21
-407.46154968
 31
0.0
  0
LINE
  5
111
100
AcDbEntity
  8
ZUWAKU
  6
CONTINUOUS
 62
       7
100
AcDbLine
 10
-136.84031536
 20
-415.71154968
 30
0.0
 11
-140.02781536
 21
-410.46154968
 31
0.0
  0
LINE
  5
112
100
AcDbEntity
  8
ZUWAKU
  6
CONTINUOUS
 62
       7
100
AcDbLine
 10
-184.80281536
 20
-405.96154968
 30
0.0
 11
-181.24031536
 21
-405.96154968
 31
0.0
  0
LINE
  5
113
100
AcDbEntity
  8
ZUWAKU
  6
CONTINUOUS
 62
       7
100
AcDbLine
 10
-165.75281536
 20
-404.27404968
 30
0.0
 11
-159.56531536
 21
-404.27404968
 31
0.0
  0
LINE
  5
114
100
AcDbEntity
  8
ZUWAKU
  6
CONTINUOUS
 62
       7
100
AcDbLine
 10
-152.44031536
 20
-403.71154968
 30
0.0
 11
-150.56531536
 21
-403.71154968
 31
0.0
  0
LINE
  5
115
100
AcDbEntity
  8
ZUWAKU
  6
CONTINUOUS
 62
       7
100
AcDbLine
 10
-164.44031536
 20
-400.89904968
 30
0.0
 11
-165.75281536
 21
-404.27404968
 31
0.0
  0
LINE
  5
116
100
AcDbEntity
  8
ZUWAKU
  6
CONTINUOUS
 62
       7
100
AcDbLine
 10
-158.44031536
 20
-400.89904968
 30
0.0
 11
-159.56531536
 21
-404.27404968
 31
0.0
  0
LINE
  5
117
100
AcDbEntity
  8
ZUWAKU
  6
CONTINUOUS
 62
       7
100
AcDbLine
 10
-182.36531536
 20
-415.71154968
 30
0.0
 11
-176.17781536
 21
-415.71154968
 31
0.0
  0
LINE
  5
118
100
AcDbEntity
  8
ZUWAKU
  6
CONTINUOUS
 62
       7
100
AcDbLine
 10
-172.80281536
 20
-400.89904968
 30
0.0
 11
-165.86531536
 21
-400.89904968
 31
0.0
  0
LINE
  5
119
100
AcDbEntity
  8
ZUWAKU
  6
CONTINUOUS
 62
       7
100
AcDbLine
 10
-142.21803844
 20
-404.27404968
 30
0.0
 11
-148.84031536
 21
-404.27404968
 31
0.0
  0
LINE
  5
11A
100
AcDbEntity
  8
ZUWAKU
  6
CONTINUOUS
 62
       7
100
AcDbLine
 10
-134.96531536
 20
-400.89904968
 30
0.0
 11
-147.71531536
 21
-400.89904968
 31
0.0
  0
LINE
  5
11B
100
AcDbEntity
  8
ZUWAKU
  6
CONTINUOUS
 62
       7
100
AcDbLine
 10
-185.74031536
 20
-408.58654968
 30
0.0
 11
-179.74031536
 21
-408.58654968
 31
0.0
  0
LINE
  5
11C
100
AcDbEntity
  8
ZUWAKU
  6
CONTINUOUS
 62
       7
100
AcDbLine
 10
-169.87781536
 20
-415.71154968
 30
0.0
 11
-159.94031536
 21
-415.71154968
 31
0.0
  0
LINE
  5
11D
100
AcDbEntity
  8
ZUWAKU
  6
CONTINUOUS
 62
       7
100
AcDbLine
 10
-168.19031536
 20
-411.02404968
 30
0.0
 11
-159.19031536
 21
-411.02404968
 31
0.0
  0
LINE
  5
11E
100
AcDbEntity
  8
ZUWAKU
  6
CONTINUOUS
 62
       7
100
AcDbLine
 10
-136.84031536
 20
-415.71154968
 30
0.0
 11
-141.52781536
 21
-415.71154968
 31
0.0
  0
LINE
  5
11F
100
AcDbEntity
  8
ZUWAKU
  6
CONTINUOUS
 62
       7
100
AcDbLine
 10
-148.84031536
 20
-404.27404968
 30
0.0
 11
-147.71531536
 21
-400.89904968
 31
0.0
  0
LINE
  5
120
100
AcDbEntity
  8
ZUWAKU
  6
CONTINUOUS
 62
       7
100
AcDbLine
 10
-214.05281536
 20
-400.89904968
 30
0.0
 11
-217.24031536
 21
-409.89904968
 31
0.0
  0
LINE
  5
121
100
AcDbEntity
  8
ZUWAKU
  6
CONTINUOUS
 62
       7
100
AcDbLine
 10
-217.24031536
 20
-409.89904968
 30
0.0
 11
-212.92781536
 21
-409.89904968
 31
0.0
  0
LINE
  5
122
100
AcDbEntity
  8
ZUWAKU
  6
CONTINUOUS
 62
       7
100
AcDbLine
 10
-212.92781536
 20
-409.89904968
 30
0.0
 11
-209.55281536
 21
-400.89904968
 31
0.0
  0
LINE
  5
123
100
AcDbEntity
  8
ZUWAKU
  6
CONTINUOUS
 62
       7
100
AcDbLine
 10
-209.55281536
 20
-400.89904968
 30
0.0
 11
-214.05281536
 21
-400.89904968
 31
0.0
  0
LINE
  5
124
100
AcDbEntity
  8
ZUWAKU
  6
CONTINUOUS
 62
       7
100
AcDbLine
 10
-156.94031536
 20
-409.89904968
 30
0.0
 11
-154.87781536
 21
-408.21154968
 31
0.0
  0
LINE
  5
125
100
AcDbEntity
  8
ZUWAKU
  6
CONTINUOUS
 62
       7
100
AcDbLine
 10
-154.87781536
 20
-408.21154968
 30
0.0
 11
-153.37781536
 21
-406.14904968
 31
0.0
  0
LINE
  5
126
100
AcDbEntity
  8
ZUWAKU
  6
CONTINUOUS
 62
       7
100
AcDbLine
 10
-153.37781536
 20
-406.14904968
 30
0.0
 11
-152.44031536
 21
-403.71154968
 31
0.0
  0
LINE
  5
127
100
AcDbEntity
  8
ZUWAKU
  6
CONTINUOUS
 62
       7
100
AcDbLine
 10
-198.64031536
 20
-400.89904968
 30
0.0
 11
-184.95281536
 21
-400.89904968
 31
0.0
  0
LINE
  5
128
100
AcDbEntity
  8
ZUWAKU
  6
CONTINUOUS
 62
       7
100
AcDbLine
 10
-184.95281536
 20
-400.89904968
 30
0.0
 11
-186.07781536
 21
-404.27404968
 31
0.0
  0
LINE
  5
129
100
AcDbEntity
  8
ZUWAKU
  6
CONTINUOUS
 62
       7
100
AcDbLine
 10
-184.95281536
 20
-400.89904968
 30
0.0
 11
-186.07781536
 21
-404.27404968
 31
0.0
  0
LINE
  5
12A
100
AcDbEntity
  8
ZUWAKU
  6
CONTINUOUS
 62
       7
100
AcDbLine
 10
-186.07781536
 20
-404.27404968
 30
0.0
 11
-199.76531536
 21
-404.27404968
 31
0.0
  0
LINE
  5
12B
100
AcDbEntity
  8
ZUWAKU
  6
CONTINUOUS
 62
       7
100
AcDbLine
 10
-199.76531536
 20
-404.27404968
 30
0.0
 11
-198.64031536
 21
-400.89904968
 31
0.0
  0
LINE
  5
12C
100
AcDbEntity
  8
ZUWAKU
  6
CONTINUOUS
 62
       7
100
AcDbLine
 10
-199.76531536
 20
-404.27404968
 30
0.0
 11
-198.64031536
 21
-400.89904968
 31
0.0
  0
LINE
  5
12D
100
AcDbEntity
  8
ZUWAKU
  6
CONTINUOUS
 62
       7
100
AcDbLine
 10
-184.95281536
 20
-400.89904968
 30
0.0
 11
-198.64031536
 21
-400.89904968
 31
0.0
  0
LINE
  5
12E
100
AcDbEntity
  8
ZUWAKU
  6
CONTINUOUS
 62
       7
100
AcDbLine
 10
-198.64031536
 20
-400.89904968
 30
0.0
 11
-199.76531536
 21
-404.27404968
 31
0.0
  0
LINE
  5
12F
100
AcDbEntity
  8
ZUWAKU
  6
CONTINUOUS
 62
       7
100
AcDbLine
 10
-199.76531536
 20
-404.27404968
 30
0.0
 11
-186.07781536
 21
-404.27404968
 31
0.0
  0
LINE
  5
130
100
AcDbEntity
  8
ZUWAKU
  6
CONTINUOUS
 62
       7
100
AcDbLine
 10
-192.82781536
 20
-415.33654968
 30
0.0
 11
-191.32781536
 21
-414.58654968
 31
0.0
  0
LINE
  5
131
100
AcDbEntity
  8
ZUWAKU
  6
CONTINUOUS
 62
       7
100
AcDbLine
 10
-191.32781536
 20
-414.58654968
 30
0.0
 11
-190.20281536
 21
-413.46154968
 31
0.0
  0
LINE
  5
132
100
AcDbEntity
  8
ZUWAKU
  6
CONTINUOUS
 62
       7
100
AcDbLine
 10
-190.20281536
 20
-413.46154968
 30
0.0
 11
-188.89031536
 21
-412.14904968
 31
0.0
  0
LINE
  5
133
100
AcDbEntity
  8
ZUWAKU
  6
CONTINUOUS
 62
       7
100
AcDbLine
 10
-188.89031536
 20
-412.14904968
 30
0.0
 11
-186.64031536
 21
-405.96154968
 31
0.0
  0
LINE
  5
134
100
AcDbEntity
  8
ZUWAKU
  6
CONTINUOUS
 62
       7
100
AcDbLine
 10
-186.64031536
 20
-405.96154968
 30
0.0
 11
-200.14031536
 21
-405.96154968
 31
0.0
  0
LINE
  5
135
100
AcDbEntity
  8
ZUWAKU
  6
CONTINUOUS
 62
       7
100
AcDbLine
 10
-200.14031536
 20
-405.96154968
 30
0.0
 11
-200.89031536
 21
-408.58654968
 31
0.0
  0
LINE
  5
136
100
AcDbEntity
  8
ZUWAKU
  6
CONTINUOUS
 62
       7
100
AcDbLine
 10
-200.89031536
 20
-408.58654968
 30
0.0
 11
-193.01531536
 21
-408.58654968
 31
0.0
  0
LINE
  5
137
100
AcDbEntity
  8
ZUWAKU
  6
CONTINUOUS
 62
       7
100
AcDbLine
 10
-193.01531536
 20
-408.58654968
 30
0.0
 11
-193.39031536
 21
-409.89904968
 31
0.0
  0
LINE
  5
138
100
AcDbEntity
  8
ZUWAKU
  6
CONTINUOUS
 62
       7
100
AcDbLine
 10
-193.39031536
 20
-409.89904968
 30
0.0
 11
-194.32781536
 21
-411.02404968
 31
0.0
  0
LINE
  5
139
100
AcDbEntity
  8
ZUWAKU
  6
CONTINUOUS
 62
       7
100
AcDbLine
 10
-194.32781536
 20
-411.02404968
 30
0.0
 11
-195.26531536
 21
-411.96154968
 31
0.0
  0
LINE
  5
13A
100
AcDbEntity
  8
ZUWAKU
  6
CONTINUOUS
 62
       7
100
AcDbLine
 10
-195.26531536
 20
-411.96154968
 30
0.0
 11
-196.57781536
 21
-412.89904968
 31
0.0
  0
LINE
  5
13B
100
AcDbEntity
  8
ZUWAKU
  6
CONTINUOUS
 62
       7
100
AcDbLine
 10
-196.57781536
 20
-412.89904968
 30
0.0
 11
-202.76531536
 21
-412.89904968
 31
0.0
  0
LINE
  5
13C
100
AcDbEntity
  8
ZUWAKU
  6
CONTINUOUS
 62
       7
100
AcDbLine
 10
-202.76531536
 20
-412.89904968
 30
0.0
 11
-203.89031536
 21
-415.71154968
 31
0.0
  0
LINE
  5
13D
100
AcDbEntity
  8
ZUWAKU
  6
CONTINUOUS
 62
       7
100
AcDbLine
 10
-215.92781536
 20
-415.71154968
 30
0.0
 11
-214.99031536
 21
-412.89904968
 31
0.0
  0
LINE
  5
13E
100
AcDbEntity
  8
ZUWAKU
  6
CONTINUOUS
 62
       7
100
AcDbLine
 10
-214.99031536
 20
-412.89904968
 30
0.0
 11
-213.30281536
 21
-412.89904968
 31
0.0
  0
LINE
  5
13F
100
AcDbEntity
  8
ZUWAKU
  6
CONTINUOUS
 62
       7
100
AcDbLine
 10
-213.30281536
 20
-412.89904968
 30
0.0
 11
-211.80281536
 21
-412.71154968
 31
0.0
  0
LINE
  5
140
100
AcDbEntity
  8
ZUWAKU
  6
CONTINUOUS
 62
       7
100
AcDbLine
 10
-211.80281536
 20
-412.71154968
 30
0.0
 11
-210.30281536
 21
-411.96154968
 31
0.0
  0
LINE
  5
141
100
AcDbEntity
  8
ZUWAKU
  6
CONTINUOUS
 62
       7
100
AcDbLine
 10
-210.30281536
 20
-411.96154968
 30
0.0
 11
-209.36531536
 21
-410.46154968
 31
0.0
  0
LINE
  5
142
100
AcDbEntity
  8
ZUWAKU
  6
CONTINUOUS
 62
       7
100
AcDbLine
 10
-209.36531536
 20
-410.46154968
 30
0.0
 11
-205.80281536
 21
-400.89904968
 31
0.0
  0
LINE
  5
143
100
AcDbEntity
  8
ZUWAKU
  6
CONTINUOUS
 62
       7
100
AcDbLine
 10
-205.80281536
 20
-400.89904968
 30
0.0
 11
-200.74031536
 21
-400.89904968
 31
0.0
  0
LINE
  5
144
100
AcDbEntity
  8
ZUWAKU
  6
CONTINUOUS
 62
       7
100
AcDbLine
 10
-200.74031536
 20
-400.89904968
 30
0.0
 11
-204.49031536
 21
-411.96154968
 31
0.0
  0
LINE
  5
145
100
AcDbEntity
  8
ZUWAKU
  6
CONTINUOUS
 62
       7
100
AcDbLine
 10
-204.49031536
 20
-411.96154968
 30
0.0
 11
-205.99031536
 21
-413.46154968
 31
0.0
  0
LINE
  5
146
100
AcDbEntity
  8
ZUWAKU
  6
CONTINUOUS
 62
       7
100
AcDbLine
 10
-205.99031536
 20
-413.46154968
 30
0.0
 11
-207.49031536
 21
-414.77404968
 31
0.0
  0
LINE
  5
147
100
AcDbEntity
  8
ZUWAKU
  6
CONTINUOUS
 62
       7
100
AcDbLine
 10
-207.49031536
 20
-414.77404968
 30
0.0
 11
-209.36531536
 21
-415.52404968
 31
0.0
  0
LINE
  5
148
100
AcDbEntity
  8
ZUWAKU
  6
CONTINUOUS
 62
       7
100
AcDbLine
 10
-165.86531536
 20
-400.89904968
 30
0.0
 11
-166.99031536
 21
-403.33654968
 31
0.0
  0
LINE
  5
149
100
AcDbEntity
  8
ZUWAKU
  6
CONTINUOUS
 62
       7
100
AcDbLine
 10
-166.99031536
 20
-403.33654968
 30
0.0
 11
-168.86531536
 21
-405.21154968
 31
0.0
  0
LINE
  5
14A
100
AcDbEntity
  8
ZUWAKU
  6
CONTINUOUS
 62
       7
100
AcDbLine
 10
-166.99031536
 20
-403.33654968
 30
0.0
 11
-168.86531536
 21
-405.21154968
 31
0.0
  0
LINE
  5
14B
100
AcDbEntity
  8
ZUWAKU
  6
CONTINUOUS
 62
       7
100
AcDbLine
 10
-168.86531536
 20
-405.21154968
 30
0.0
 11
-170.92781536
 21
-406.71154968
 31
0.0
  0
LINE
  5
14C
100
AcDbEntity
  8
ZUWAKU
  6
CONTINUOUS
 62
       7
100
AcDbLine
 10
-170.92781536
 20
-406.71154968
 30
0.0
 11
-173.36531536
 21
-407.46154968
 31
0.0
  0
LINE
  5
14D
100
AcDbEntity
  8
ZUWAKU
  6
CONTINUOUS
 62
       7
100
AcDbLine
 10
-170.92781536
 20
-406.71154968
 30
0.0
 11
-173.36531536
 21
-407.46154968
 31
0.0
  0
LINE
  5
14E
100
AcDbEntity
  8
ZUWAKU
  6
CONTINUOUS
 62
       7
100
AcDbLine
 10
-173.36531536
 20
-407.46154968
 30
0.0
 11
-176.17781536
 21
-415.71154968
 31
0.0
  0
LINE
  5
14F
100
AcDbEntity
  8
ZUWAKU
  6
CONTINUOUS
 62
       7
100
AcDbLine
 10
-176.17781536
 20
-415.71154968
 30
0.0
 11
-182.36531536
 21
-415.71154968
 31
0.0
  0
LINE
  5
150
100
AcDbEntity
  8
ZUWAKU
  6
CONTINUOUS
 62
       7
100
AcDbLine
 10
-176.17781536
 20
-415.71154968
 30
0.0
 11
-182.36531536
 21
-415.71154968
 31
0.0
  0
LINE
  5
151
100
AcDbEntity
  8
ZUWAKU
  6
CONTINUOUS
 62
       7
100
AcDbLine
 10
-180.04031536
 20
-408.58654968
 30
0.0
 11
-185.74031536
 21
-408.58654968
 31
0.0
  0
LINE
  5
152
100
AcDbEntity
  8
ZUWAKU
  6
CONTINUOUS
 62
       7
100
AcDbLine
 10
-185.74031536
 20
-408.58654968
 30
0.0
 11
-184.80281536
 21
-405.96154968
 31
0.0
  0
LINE
  5
153
100
AcDbEntity
  8
ZUWAKU
  6
CONTINUOUS
 62
       7
100
AcDbLine
 10
-182.36531536
 20
-415.71154968
 30
0.0
 11
-179.74031536
 21
-408.58654968
 31
0.0
  0
LINE
  5
154
100
AcDbEntity
  8
ZUWAKU
  6
CONTINUOUS
 62
       7
100
AcDbLine
 10
-182.36531536
 20
-415.71154968
 30
0.0
 11
-179.74031536
 21
-408.58654968
 31
0.0
  0
LINE
  5
155
100
AcDbEntity
  8
ZUWAKU
  6
CONTINUOUS
 62
       7
100
AcDbLine
 10
-184.80281536
 20
-405.96154968
 30
0.0
 11
-181.24031536
 21
-405.96154968
 31
0.0
  0
LINE
  5
156
100
AcDbEntity
  8
ZUWAKU
  6
CONTINUOUS
 62
       7
100
AcDbLine
 10
-184.80281536
 20
-405.96154968
 30
0.0
 11
-181.24031536
 21
-405.96154968
 31
0.0
  0
LINE
  5
157
100
AcDbEntity
  8
ZUWAKU
  6
CONTINUOUS
 62
       7
100
AcDbLine
 10
-181.24031536
 20
-405.96154968
 30
0.0
 11
-178.80281536
 21
-405.77404968
 31
0.0
  0
LINE
  5
158
100
AcDbEntity
  8
ZUWAKU
  6
CONTINUOUS
 62
       7
100
AcDbLine
 10
-181.24031536
 20
-405.96154968
 30
0.0
 11
-178.80281536
 21
-405.77404968
 31
0.0
  0
LINE
  5
159
100
AcDbEntity
  8
ZUWAKU
  6
CONTINUOUS
 62
       7
100
AcDbLine
 10
-178.80281536
 20
-405.77404968
 30
0.0
 11
-176.17781536
 21
-404.64904968
 31
0.0
  0
LINE
  5
15A
100
AcDbEntity
  8
ZUWAKU
  6
CONTINUOUS
 62
       7
100
AcDbLine
 10
-178.80281536
 20
-405.77404968
 30
0.0
 11
-176.17781536
 21
-404.64904968
 31
0.0
  0
LINE
  5
15B
100
AcDbEntity
  8
ZUWAKU
  6
CONTINUOUS
 62
       7
100
AcDbLine
 10
-176.17781536
 20
-404.64904968
 30
0.0
 11
-174.30281536
 21
-402.96154968
 31
0.0
  0
LINE
  5
15C
100
AcDbEntity
  8
ZUWAKU
  6
CONTINUOUS
 62
       7
100
AcDbLine
 10
-176.17781536
 20
-404.64904968
 30
0.0
 11
-174.30281536
 21
-402.96154968
 31
0.0
  0
LINE
  5
15D
100
AcDbEntity
  8
ZUWAKU
  6
CONTINUOUS
 62
       7
100
AcDbLine
 10
-209.55281536
 20
-400.89904968
 30
0.0
 11
-212.92781536
 21
-409.89904968
 31
0.0
  0
LINE
  5
15E
100
AcDbEntity
  8
ZUWAKU
  6
CONTINUOUS
 62
       7
100
AcDbLine
 10
-212.92781536
 20
-409.89904968
 30
0.0
 11
-217.24031536
 21
-409.89904968
 31
0.0
  0
LINE
  5
15F
100
AcDbEntity
  8
ZUWAKU
  6
CONTINUOUS
 62
       7
100
AcDbLine
 10
-212.92781536
 20
-409.89904968
 30
0.0
 11
-217.24031536
 21
-409.89904968
 31
0.0
  0
LINE
  5
160
100
AcDbEntity
  8
ZUWAKU
  6
CONTINUOUS
 62
       7
100
AcDbLine
 10
-217.24031536
 20
-409.89904968
 30
0.0
 11
-214.05281536
 21
-400.89904968
 31
0.0
  0
LINE
  5
161
100
AcDbEntity
  8
ZUWAKU
  6
CONTINUOUS
 62
       7
100
AcDbLine
 10
-214.05281536
 20
-400.89904968
 30
0.0
 11
-209.55281536
 21
-400.89904968
 31
0.0
  0
LINE
  5
162
100
AcDbEntity
  8
ZUWAKU
  6
CONTINUOUS
 62
       7
100
AcDbLine
 10
-214.05281536
 20
-400.89904968
 30
0.0
 11
-209.55281536
 21
-400.89904968
 31
0.0
  0
LINE
  5
163
100
AcDbEntity
  8
ZUWAKU
  6
CONTINUOUS
 62
       7
100
AcDbLine
 10
-147.71531536
 20
-400.89904968
 30
0.0
 11
-148.84031536
 21
-404.27404968
 31
0.0
  0
LINE
  5
164
100
AcDbEntity
  8
ZUWAKU
  6
CONTINUOUS
 62
       7
100
AcDbLine
 10
-148.84031536
 20
-404.27404968
 30
0.0
 11
-142.84031536
 21
-404.27404968
 31
0.0
  0
LINE
  5
165
100
AcDbEntity
  8
ZUWAKU
  6
CONTINUOUS
 62
       7
100
AcDbLine
 10
-148.84031536
 20
-404.27404968
 30
0.0
 11
-142.84031536
 21
-404.27404968
 31
0.0
  0
LINE
  5
166
100
AcDbEntity
  8
ZUWAKU
  6
CONTINUOUS
 62
       7
100
AcDbLine
 10
-152.96531536
 20
-412.71154968
 30
0.0
 11
-154.09031536
 21
-415.89904968
 31
0.0
  0
LINE
  5
167
100
AcDbEntity
  8
ZUWAKU
  6
CONTINUOUS
 62
       7
100
AcDbLine
 10
-152.96531536
 20
-412.71154968
 30
0.0
 11
-154.09031536
 21
-415.89904968
 31
0.0
  0
LINE
  5
168
100
AcDbEntity
  8
ZUWAKU
  6
CONTINUOUS
 62
       7
100
AcDbLine
 10
-154.09031536
 20
-415.89904968
 30
0.0
 11
-148.46531536
 21
-414.96154968
 31
0.0
  0
LINE
  5
169
100
AcDbEntity
  8
ZUWAKU
  6
CONTINUOUS
 62
       7
100
AcDbLine
 10
-148.46531536
 20
-414.96154968
 30
0.0
 11
-145.84031536
 21
-414.21154968
 31
0.0
  0
LINE
  5
16A
100
AcDbEntity
  8
ZUWAKU
  6
CONTINUOUS
 62
       7
100
AcDbLine
 10
-148.46531536
 20
-414.96154968
 30
0.0
 11
-145.84031536
 21
-414.21154968
 31
0.0
  0
LINE
  5
16B
100
AcDbEntity
  8
ZUWAKU
  6
CONTINUOUS
 62
       7
100
AcDbLine
 10
-143.02781536
 20
-413.27404968
 30
0.0
 11
-141.52781536
 21
-415.71154968
 31
0.0
  0
LINE
  5
16C
100
AcDbEntity
  8
ZUWAKU
  6
CONTINUOUS
 62
       7
100
AcDbLine
 10
-141.52781536
 20
-415.71154968
 30
0.0
 11
-136.84031536
 21
-415.71154968
 31
0.0
  0
LINE
  5
16D
100
AcDbEntity
  8
ZUWAKU
  6
CONTINUOUS
 62
       7
100
AcDbLine
 10
-141.52781536
 20
-415.71154968
 30
0.0
 11
-136.84031536
 21
-415.71154968
 31
0.0
  0
LINE
  5
16E
100
AcDbEntity
  8
ZUWAKU
  6
CONTINUOUS
 62
       7
100
AcDbLine
 10
-140.02781536
 20
-410.46154968
 30
0.0
 11
-138.34031536
 21
-408.21154968
 31
0.0
  0
LINE
  5
16F
100
AcDbEntity
  8
ZUWAKU
  6
CONTINUOUS
 62
       7
100
AcDbLine
 10
-138.34031536
 20
-408.21154968
 30
0.0
 11
-136.84031536
 21
-405.96154968
 31
0.0
  0
LINE
  5
170
100
AcDbEntity
  8
ZUWAKU
  6
CONTINUOUS
 62
       7
100
AcDbLine
 10
-136.84031536
 20
-405.96154968
 30
0.0
 11
-135.71531536
 21
-403.52404968
 31
0.0
  0
LINE
  5
171
100
AcDbEntity
  8
ZUWAKU
  6
CONTINUOUS
 62
       7
100
AcDbLine
 10
-135.71531536
 20
-403.52404968
 30
0.0
 11
-134.96531536
 21
-400.89904968
 31
0.0
  0
LINE
  5
172
100
AcDbEntity
  8
ZUWAKU
  6
CONTINUOUS
 62
       7
100
AcDbLine
 10
-135.71531536
 20
-403.52404968
 30
0.0
 11
-134.96531536
 21
-400.89904968
 31
0.0
  0
LINE
  5
173
100
AcDbEntity
  8
ZUWAKU
  6
CONTINUOUS
 62
       7
100
AcDbLine
 10
-134.96531536
 20
-400.89904968
 30
0.0
 11
-147.71531536
 21
-400.89904968
 31
0.0
  0
LINE
  5
174
100
AcDbEntity
  8
ZUWAKU
  6
CONTINUOUS
 62
       7
100
AcDbLine
 10
-146.40281536
 20
-410.27404968
 30
0.0
 11
-149.40281536
 21
-411.96154968
 31
0.0
  0
LINE
  5
175
100
AcDbEntity
  8
ZUWAKU
  6
CONTINUOUS
 62
       7
100
AcDbLine
 10
-145.84031536
 20
-414.21154968
 30
0.0
 11
-143.02781536
 21
-413.27404968
 31
0.0
  0
LINE
  5
176
100
AcDbEntity
  8
ZUWAKU
  6
CONTINUOUS
 62
       7
100
AcDbLine
 10
-145.84031536
 20
-414.21154968
 30
0.0
 11
-143.02781536
 21
-413.27404968
 31
0.0
  0
LINE
  5
177
100
AcDbEntity
  8
ZUWAKU
  6
CONTINUOUS
 62
       7
100
AcDbLine
 10
-136.84031536
 20
-415.71154968
 30
0.0
 11
-140.02781536
 21
-410.46154968
 31
0.0
  0
LINE
  5
178
100
AcDbEntity
  8
ZUWAKU
  6
CONTINUOUS
 62
       7
100
AcDbLine
 10
-136.84031536
 20
-415.71154968
 30
0.0
 11
-140.02781536
 21
-410.46154968
 31
0.0
  0
LINE
  5
179
100
AcDbEntity
  8
ZUWAKU
  6
CONTINUOUS
 62
       7
100
AcDbLine
 10
-143.96531536
 20
-407.46154968
 30
0.0
 11
-146.40281536
 21
-410.27404968
 31
0.0
  0
LINE
  5
17A
100
AcDbEntity
  8
ZUWAKU
  6
CONTINUOUS
 62
       7
100
AcDbLine
 10
-143.96531536
 20
-407.46154968
 30
0.0
 11
-146.40281536
 21
-410.27404968
 31
0.0
  0
LINE
  5
17B
100
AcDbEntity
  8
ZUWAKU
  6
CONTINUOUS
 62
       7
100
AcDbLine
 10
-181.24031536
 20
-405.96154968
 30
0.0
 11
-178.80281536
 21
-405.77404968
 31
0.0
  0
LINE
  5
17C
100
AcDbEntity
  8
ZUWAKU
  6
CONTINUOUS
 62
       7
100
AcDbLine
 10
-178.80281536
 20
-405.77404968
 30
0.0
 11
-176.17781536
 21
-404.64904968
 31
0.0
  0
LINE
  5
17D
100
AcDbEntity
  8
ZUWAKU
  6
CONTINUOUS
 62
       7
100
AcDbLine
 10
-176.17781536
 20
-404.64904968
 30
0.0
 11
-174.30281536
 21
-402.96154968
 31
0.0
  0
LINE
  5
17E
100
AcDbEntity
  8
ZUWAKU
  6
CONTINUOUS
 62
       7
100
AcDbLine
 10
-174.30281536
 20
-402.96154968
 30
0.0
 11
-172.80281536
 21
-400.89904968
 31
0.0
  0
LINE
  5
17F
100
AcDbEntity
  8
ZUWAKU
  6
CONTINUOUS
 62
       7
100
AcDbLine
 10
-159.94031536
 20
-415.71154968
 30
0.0
 11
-156.56531536
 21
-414.21154968
 31
0.0
  0
LINE
  5
180
100
AcDbEntity
  8
ZUWAKU
  6
CONTINUOUS
 62
       7
100
AcDbLine
 10
-156.56531536
 20
-414.21154968
 30
0.0
 11
-153.56531536
 21
-411.39904968
 31
0.0
  0
LINE
  5
181
100
AcDbEntity
  8
ZUWAKU
  6
CONTINUOUS
 62
       7
100
AcDbLine
 10
-153.56531536
 20
-411.39904968
 30
0.0
 11
-151.31531536
 21
-407.64904968
 31
0.0
  0
LINE
  5
182
100
AcDbEntity
  8
ZUWAKU
  6
CONTINUOUS
 62
       7
100
AcDbLine
 10
-151.31531536
 20
-407.64904968
 30
0.0
 11
-150.56531536
 21
-403.71154968
 31
0.0
  0
LINE
  5
183
100
AcDbEntity
  8
ZUWAKU
  6
CONTINUOUS
 62
       7
100
AcDbLine
 10
-152.96531536
 20
-412.71154968
 30
0.0
 11
-149.40281536
 21
-411.96154968
 31
0.0
  0
LINE
  5
184
100
AcDbEntity
  8
ZUWAKU
  6
CONTINUOUS
 62
       7
100
AcDbLine
 10
-149.40281536
 20
-411.96154968
 30
0.0
 11
-146.40281536
 21
-410.27404968
 31
0.0
  0
LINE
  5
185
100
AcDbEntity
  8
ZUWAKU
  6
CONTINUOUS
 62
       7
100
AcDbLine
 10
-146.40281536
 20
-410.27404968
 30
0.0
 11
-143.96531536
 21
-407.46154968
 31
0.0
  0
LINE
  5
186
100
AcDbEntity
  8
ZUWAKU
  6
CONTINUOUS
 62
       7
100
AcDbLine
 10
-173.36531536
 20
-407.46154968
 30
0.0
 11
-170.92781536
 21
-406.71154968
 31
0.0
  0
LINE
  5
187
100
AcDbEntity
  8
ZUWAKU
  6
CONTINUOUS
 62
       7
100
AcDbLine
 10
-170.92781536
 20
-406.71154968
 30
0.0
 11
-168.86531536
 21
-405.21154968
 31
0.0
  0
LINE
  5
188
100
AcDbEntity
  8
ZUWAKU
  6
CONTINUOUS
 62
       7
100
AcDbLine
 10
-168.86531536
 20
-405.21154968
 30
0.0
 11
-166.99031536
 21
-403.33654968
 31
0.0
  0
LINE
  5
189
100
AcDbEntity
  8
ZUWAKU
  6
CONTINUOUS
 62
       7
100
AcDbLine
 10
-166.99031536
 20
-403.33654968
 30
0.0
 11
-165.86531536
 21
-400.89904968
 31
0.0
  0
LINE
  5
18A
100
AcDbEntity
  8
ZUWAKU
  6
CONTINUOUS
 62
       7
100
AcDbLine
 10
-140.02781536
 20
-410.46154968
 30
0.0
 11
-138.34031536
 21
-408.21154968
 31
0.0
  0
LINE
  5
18B
100
AcDbEntity
  8
ZUWAKU
  6
CONTINUOUS
 62
       7
100
AcDbLine
 10
-138.34031536
 20
-408.21154968
 30
0.0
 11
-136.84031536
 21
-405.96154968
 31
0.0
  0
LINE
  5
18C
100
AcDbEntity
  8
ZUWAKU
  6
CONTINUOUS
 62
       7
100
AcDbLine
 10
-136.84031536
 20
-405.96154968
 30
0.0
 11
-135.71531536
 21
-403.52404968
 31
0.0
  0
LINE
  5
18D
100
AcDbEntity
  8
ZUWAKU
  6
CONTINUOUS
 62
       7
100
AcDbLine
 10
-135.71531536
 20
-403.52404968
 30
0.0
 11
-134.96531536
 21
-400.89904968
 31
0.0
  0
LINE
  5
18E
100
AcDbEntity
  8
ZUWAKU
  6
CONTINUOUS
 62
       7
100
AcDbLine
 10
-148.46531536
 20
-414.96154968
 30
0.0
 11
-145.84031536
 21
-414.21154968
 31
0.0
  0
LINE
  5
18F
100
AcDbEntity
  8
ZUWAKU
  6
CONTINUOUS
 62
       7
100
AcDbLine
 10
-145.84031536
 20
-414.21154968
 30
0.0
 11
-143.02781536
 21
-413.27404968
 31
0.0
  0
LINE
  5
190
100
AcDbEntity
  8
ZUWAKU
  6
CONTINUOUS
 62
       7
100
AcDbLine
 10
-153.37781536
 20
-406.14904968
 30
0.0
 11
-152.44031536
 21
-403.71154968
 31
0.0
  0
LINE
  5
191
100
AcDbEntity
  8
ZUWAKU
  6
CONTINUOUS
 62
       7
100
AcDbLine
 10
-152.44031536
 20
-403.71154968
 30
0.0
 11
-150.56531536
 21
-403.71154968
 31
0.0
  0
LINE
  5
192
100
AcDbEntity
  8
ZUWAKU
  6
CONTINUOUS
 62
       7
100
AcDbLine
 10
-152.44031536
 20
-403.71154968
 30
0.0
 11
-150.56531536
 21
-403.71154968
 31
0.0
  0
LINE
  5
193
100
AcDbEntity
  8
ZUWAKU
  6
CONTINUOUS
 62
       7
100
AcDbLine
 10
-150.56531536
 20
-403.71154968
 30
0.0
 11
-151.31531536
 21
-407.64904968
 31
0.0
  0
LINE
  5
194
100
AcDbEntity
  8
ZUWAKU
  6
CONTINUOUS
 62
       7
100
AcDbLine
 10
-151.31531536
 20
-407.64904968
 30
0.0
 11
-153.56531536
 21
-411.39904968
 31
0.0
  0
LINE
  5
195
100
AcDbEntity
  8
ZUWAKU
  6
CONTINUOUS
 62
       7
100
AcDbLine
 10
-151.31531536
 20
-407.64904968
 30
0.0
 11
-153.56531536
 21
-411.39904968
 31
0.0
  0
LINE
  5
196
100
AcDbEntity
  8
ZUWAKU
  6
CONTINUOUS
 62
       7
100
AcDbLine
 10
-153.56531536
 20
-411.39904968
 30
0.0
 11
-156.56531536
 21
-414.21154968
 31
0.0
  0
LINE
  5
197
100
AcDbEntity
  8
ZUWAKU
  6
CONTINUOUS
 62
       7
100
AcDbLine
 10
-160.31531536
 20
-415.71154968
 30
0.0
 11
-169.87781536
 21
-415.71154968
 31
0.0
  0
LINE
  5
198
100
AcDbEntity
  8
ZUWAKU
  6
CONTINUOUS
 62
       7
100
AcDbLine
 10
-169.87781536
 20
-415.71154968
 30
0.0
 11
-168.19031536
 21
-411.02404968
 31
0.0
  0
LINE
  5
199
100
AcDbEntity
  8
ZUWAKU
  6
CONTINUOUS
 62
       7
100
AcDbLine
 10
-169.87781536
 20
-415.71154968
 30
0.0
 11
-168.19031536
 21
-411.02404968
 31
0.0
  0
LINE
  5
19A
100
AcDbEntity
  8
ZUWAKU
  6
CONTINUOUS
 62
       7
100
AcDbLine
 10
-154.87781536
 20
-408.21154968
 30
0.0
 11
-153.37781536
 21
-406.14904968
 31
0.0
  0
LINE
  5
19B
100
AcDbEntity
  8
ZUWAKU
  6
CONTINUOUS
 62
       7
100
AcDbLine
 10
-168.19031536
 20
-411.02404968
 30
0.0
 11
-159.19031536
 21
-411.02404968
 31
0.0
  0
LINE
  5
19C
100
AcDbEntity
  8
ZUWAKU
  6
CONTINUOUS
 62
       7
100
AcDbLine
 10
-168.19031536
 20
-411.02404968
 30
0.0
 11
-159.19031536
 21
-411.02404968
 31
0.0
  0
LINE
  5
19D
100
AcDbEntity
  8
ZUWAKU
  6
CONTINUOUS
 62
       7
100
AcDbLine
 10
-159.19031536
 20
-411.02404968
 30
0.0
 11
-156.94031536
 21
-409.89904968
 31
0.0
  0
LINE
  5
19E
100
AcDbEntity
  8
ZUWAKU
  6
CONTINUOUS
 62
       7
100
AcDbLine
 10
-159.19031536
 20
-411.02404968
 30
0.0
 11
-156.94031536
 21
-409.89904968
 31
0.0
  0
LINE
  5
19F
100
AcDbEntity
  8
ZUWAKU
  6
CONTINUOUS
 62
       7
100
AcDbLine
 10
-156.94031536
 20
-409.89904968
 30
0.0
 11
-154.87781536
 21
-408.21154968
 31
0.0
  0
LINE
  5
1A0
100
AcDbEntity
  8
ZUWAKU
  6
CONTINUOUS
 62
       7
100
AcDbLine
 10
-186.64031536
 20
-405.96154968
 30
0.0
 11
-188.89031536
 21
-412.14904968
 31
0.0
  0
LINE
  5
1A1
100
AcDbEntity
  8
ZUWAKU
  6
CONTINUOUS
 62
       7
100
AcDbLine
 10
-188.89031536
 20
-412.14904968
 30
0.0
 11
-190.20281536
 21
-413.46154968
 31
0.0
  0
LINE
  5
1A2
100
AcDbEntity
  8
ZUWAKU
  6
CONTINUOUS
 62
       7
100
AcDbLine
 10
-188.89031536
 20
-412.14904968
 30
0.0
 11
-190.20281536
 21
-413.46154968
 31
0.0
  0
LINE
  5
1A3
100
AcDbEntity
  8
ZUWAKU
  6
CONTINUOUS
 62
       7
100
AcDbLine
 10
-190.20281536
 20
-413.46154968
 30
0.0
 11
-191.32781536
 21
-414.58654968
 31
0.0
  0
LINE
  5
1A4
100
AcDbEntity
  8
ZUWAKU
  6
CONTINUOUS
 62
       7
100
AcDbLine
 10
-191.32781536
 20
-414.58654968
 30
0.0
 11
-192.82781536
 21
-415.33654968
 31
0.0
  0
LINE
  5
1A5
100
AcDbEntity
  8
ZUWAKU
  6
CONTINUOUS
 62
       7
100
AcDbLine
 10
-191.32781536
 20
-414.58654968
 30
0.0
 11
-192.82781536
 21
-415.33654968
 31
0.0
  0
LINE
  5
1A6
100
AcDbEntity
  8
ZUWAKU
  6
CONTINUOUS
 62
       7
100
AcDbLine
 10
-192.82781536
 20
-415.33654968
 30
0.0
 11
-194.32781536
 21
-415.71154968
 31
0.0
  0
LINE
  5
1A7
100
AcDbEntity
  8
ZUWAKU
  6
CONTINUOUS
 62
       7
100
AcDbLine
 10
-194.32781536
 20
-415.71154968
 30
0.0
 11
-203.89031536
 21
-415.71154968
 31
0.0
  0
LINE
  5
1A8
100
AcDbEntity
  8
ZUWAKU
  6
CONTINUOUS
 62
       7
100
AcDbLine
 10
-194.32781536
 20
-415.71154968
 30
0.0
 11
-203.89031536
 21
-415.71154968
 31
0.0
  0
LINE
  5
1A9
100
AcDbEntity
  8
ZUWAKU
  6
CONTINUOUS
 62
       7
100
AcDbLine
 10
-203.89031536
 20
-415.71154968
 30
0.0
 11
-202.76531536
 21
-412.89904968
 31
0.0
  0
LINE
  5
1AA
100
AcDbEntity
  8
ZUWAKU
  6
CONTINUOUS
 62
       7
100
AcDbLine
 10
-202.76531536
 20
-412.89904968
 30
0.0
 11
-196.57781536
 21
-412.89904968
 31
0.0
  0
LINE
  5
1AB
100
AcDbEntity
  8
ZUWAKU
  6
CONTINUOUS
 62
       7
100
AcDbLine
 10
-202.76531536
 20
-412.89904968
 30
0.0
 11
-196.57781536
 21
-412.89904968
 31
0.0
  0
LINE
  5
1AC
100
AcDbEntity
  8
ZUWAKU
  6
CONTINUOUS
 62
       7
100
AcDbLine
 10
-193.01531536
 20
-408.58654968
 30
0.0
 11
-200.89031536
 21
-408.58654968
 31
0.0
  0
LINE
  5
1AD
100
AcDbEntity
  8
ZUWAKU
  6
CONTINUOUS
 62
       7
100
AcDbLine
 10
-200.89031536
 20
-408.58654968
 30
0.0
 11
-200.14031536
 21
-405.96154968
 31
0.0
  0
LINE
  5
1AE
100
AcDbEntity
  8
ZUWAKU
  6
CONTINUOUS
 62
       7
100
AcDbLine
 10
-200.89031536
 20
-408.58654968
 30
0.0
 11
-200.14031536
 21
-405.96154968
 31
0.0
  0
LINE
  5
1AF
100
AcDbEntity
  8
ZUWAKU
  6
CONTINUOUS
 62
       7
100
AcDbLine
 10
-196.57781536
 20
-412.89904968
 30
0.0
 11
-195.26531536
 21
-411.96154968
 31
0.0
  0
LINE
  5
1B0
100
AcDbEntity
  8
ZUWAKU
  6
CONTINUOUS
 62
       7
100
AcDbLine
 10
-196.57781536
 20
-412.89904968
 30
0.0
 11
-195.26531536
 21
-411.96154968
 31
0.0
  0
LINE
  5
1B1
100
AcDbEntity
  8
ZUWAKU
  6
CONTINUOUS
 62
       7
100
AcDbLine
 10
-195.26531536
 20
-411.96154968
 30
0.0
 11
-194.32781536
 21
-411.02404968
 31
0.0
  0
LINE
  5
1B2
100
AcDbEntity
  8
ZUWAKU
  6
CONTINUOUS
 62
       7
100
AcDbLine
 10
-195.26531536
 20
-411.96154968
 30
0.0
 11
-194.32781536
 21
-411.02404968
 31
0.0
  0
LINE
  5
1B3
100
AcDbEntity
  8
ZUWAKU
  6
CONTINUOUS
 62
       7
100
AcDbLine
 10
-194.32781536
 20
-411.02404968
 30
0.0
 11
-193.39031536
 21
-409.89904968
 31
0.0
  0
LINE
  5
1B4
100
AcDbEntity
  8
ZUWAKU
  6
CONTINUOUS
 62
       7
100
AcDbLine
 10
-194.32781536
 20
-411.02404968
 30
0.0
 11
-193.39031536
 21
-409.89904968
 31
0.0
  0
LINE
  5
1B5
100
AcDbEntity
  8
ZUWAKU
  6
CONTINUOUS
 62
       7
100
AcDbLine
 10
-193.39031536
 20
-409.89904968
 30
0.0
 11
-193.01531536
 21
-408.58654968
 31
0.0
  0
LINE
  5
1B6
100
AcDbEntity
  8
ZUWAKU
  6
CONTINUOUS
 62
       7
100
AcDbLine
 10
-193.39031536
 20
-409.89904968
 30
0.0
 11
-193.01531536
 21
-408.58654968
 31
0.0
  0
LINE
  5
1B7
100
AcDbEntity
  8
ZUWAKU
  6
CONTINUOUS
 62
       7
100
AcDbLine
 10
-205.20281536
 20
-400.89904968
 30
0.0
 11
-201.07930415
 21
-400.89904968
 31
0.0
  0
LINE
  5
1B8
100
AcDbEntity
  8
ZUWAKU
  6
CONTINUOUS
 62
       7
100
AcDbLine
 10
-204.49031536
 20
-411.96154968
 30
0.0
 11
-205.99031536
 21
-413.46154968
 31
0.0
  0
LINE
  5
1B9
100
AcDbEntity
  8
ZUWAKU
  6
CONTINUOUS
 62
       7
100
AcDbLine
 10
-205.99031536
 20
-413.46154968
 30
0.0
 11
-207.49031536
 21
-414.77404968
 31
0.0
  0
LINE
  5
1BA
100
AcDbEntity
  8
ZUWAKU
  6
CONTINUOUS
 62
       7
100
AcDbLine
 10
-205.99031536
 20
-413.46154968
 30
0.0
 11
-207.49031536
 21
-414.77404968
 31
0.0
  0
LINE
  5
1BB
100
AcDbEntity
  8
ZUWAKU
  6
CONTINUOUS
 62
       7
100
AcDbLine
 10
-207.49031536
 20
-414.77404968
 30
0.0
 11
-209.36531536
 21
-415.52404968
 31
0.0
  0
LINE
  5
1BC
100
AcDbEntity
  8
ZUWAKU
  6
CONTINUOUS
 62
       7
100
AcDbLine
 10
-209.36531536
 20
-415.52404968
 30
0.0
 11
-211.24031536
 21
-415.71154968
 31
0.0
  0
LINE
  5
1BD
100
AcDbEntity
  8
ZUWAKU
  6
CONTINUOUS
 62
       7
100
AcDbLine
 10
-211.24031536
 20
-415.71154968
 30
0.0
 11
-215.92781536
 21
-415.71154968
 31
0.0
  0
LINE
  5
1BE
100
AcDbEntity
  8
ZUWAKU
  6
CONTINUOUS
 62
       7
100
AcDbLine
 10
-215.92781536
 20
-415.71154968
 30
0.0
 11
-214.99031536
 21
-412.89904968
 31
0.0
  0
LINE
  5
1BF
100
AcDbEntity
  8
ZUWAKU
  6
CONTINUOUS
 62
       7
100
AcDbLine
 10
-215.92781536
 20
-415.71154968
 30
0.0
 11
-214.99031536
 21
-412.89904968
 31
0.0
  0
LINE
  5
1C0
100
AcDbEntity
  8
ZUWAKU
  6
CONTINUOUS
 62
       7
100
AcDbLine
 10
-209.36531536
 20
-410.46154968
 30
0.0
 11
-205.80281536
 21
-400.89904968
 31
0.0
  0
LINE
  5
1C1
100
AcDbEntity
  8
ZUWAKU
  6
CONTINUOUS
 62
       7
100
AcDbLine
 10
-214.99031536
 20
-412.89904968
 30
0.0
 11
-213.30281536
 21
-412.89904968
 31
0.0
  0
LINE
  5
1C2
100
AcDbEntity
  8
ZUWAKU
  6
CONTINUOUS
 62
       7
100
AcDbLine
 10
-214.99031536
 20
-412.89904968
 30
0.0
 11
-213.30281536
 21
-412.89904968
 31
0.0
  0
LINE
  5
1C3
100
AcDbEntity
  8
ZUWAKU
  6
CONTINUOUS
 62
       7
100
AcDbLine
 10
-210.30281536
 20
-411.96154968
 30
0.0
 11
-209.36531536
 21
-410.46154968
 31
0.0
  0
LINE
  5
1C4
100
AcDbEntity
  8
ZUWAKU
  6
CONTINUOUS
 62
       7
100
AcDbLine
 10
-211.80281536
 20
-412.71154968
 30
0.0
 11
-210.30281536
 21
-411.96154968
 31
0.0
  0
LINE
  5
1C5
100
AcDbEntity
  8
ZUWAKU
  6
CONTINUOUS
 62
       7
100
AcDbLine
 10
-213.30281536
 20
-412.89904968
 30
0.0
 11
-211.80281536
 21
-412.71154968
 31
0.0
  0
LINE
  5
1C6
100
AcDbEntity
  8
ZUWAKU
  6
CONTINUOUS
 62
       7
100
AcDbLine
 10
-213.30281536
 20
-412.89904968
 30
0.0
 11
-211.80281536
 21
-412.71154968
 31
0.0
  0
LINE
  5
1C7
100
AcDbEntity
  8
ZUWAKU
  6
CONTINUOUS
 62
       7
100
AcDbLine
 10
-164.44031536
 20
-400.89904968
 30
0.0
 11
-158.44031536
 21
-400.89904968
 31
0.0
  0
LINE
  5
1C8
100
AcDbEntity
  8
ZUWAKU
  6
CONTINUOUS
 62
       7
100
AcDbLine
 10
-158.44031536
 20
-400.89904968
 30
0.0
 11
-159.56531536
 21
-404.27404968
 31
0.0
  0
LINE
  5
1C9
100
AcDbEntity
  8
ZUWAKU
  6
CONTINUOUS
 62
       7
100
AcDbLine
 10
-158.44031536
 20
-400.89904968
 30
0.0
 11
-159.56531536
 21
-404.27404968
 31
0.0
  0
LINE
  5
1CA
100
AcDbEntity
  8
ZUWAKU
  6
CONTINUOUS
 62
       7
100
AcDbLine
 10
-159.86531536
 20
-404.27404968
 30
0.0
 11
-165.75281536
 21
-404.27404968
 31
0.0
  0
LINE
  5
1CB
100
AcDbEntity
  8
ZUWAKU
  6
CONTINUOUS
 62
       7
100
AcDbLine
 10
-142.21803844
 20
-404.24910626
 30
0.0
 11
-143.96531536
 21
-407.46154968
 31
0.0
  0
LINE
  5
1CC
100
AcDbEntity
  8
ZUWAKU
  6
CONTINUOUS
 62
       7
100
AcDbLine
 10
-137.02781536
 20
-400.89904968
 30
0.0
 11
-146.40281536
 21
-410.27404968
 31
0.0
  0
LINE
  5
1CD
100
AcDbEntity
  8
ZUWAKU
  6
CONTINUOUS
 62
       7
100
AcDbLine
 10
-146.40281536
 20
-410.27404968
 30
0.0
 11
-151.61531536
 21
-415.48654968
 31
0.0
  0
LINE
  5
1CE
100
AcDbEntity
  8
ZUWAKU
  6
CONTINUOUS
 62
       7
100
AcDbLine
 10
-137.8763435
 20
-400.89904968
 30
0.0
 11
-143.40061177
 21
-406.42331795
 31
0.0
  0
LINE
  5
1CF
100
AcDbEntity
  8
ZUWAKU
  6
CONTINUOUS
 62
       7
100
AcDbLine
 10
-148.34230825
 20
-411.36501443
 30
0.0
 11
-152.63354912
 21
-415.65625531
 31
0.0
  0
LINE
  5
1D0
100
AcDbEntity
  8
ZUWAKU
  6
CONTINUOUS
 62
       7
100
AcDbLine
 10
-138.72487163
 20
-400.89904968
 30
0.0
 11
-142.38870381
 21
-404.56288186
 31
0.0
  0
LINE
  5
1D1
100
AcDbEntity
  8
ZUWAKU
  6
CONTINUOUS
 62
       7
100
AcDbLine
 10
-149.88991997
 20
-412.06409802
 30
0.0
 11
-153.65178289
 21
-415.82596094
 31
0.0
  0
LINE
  5
1D2
100
AcDbEntity
  8
ZUWAKU
  6
CONTINUOUS
 62
       7
100
AcDbLine
 10
-139.57339977
 20
-400.89904968
 30
0.0
 11
-142.94839977
 21
-404.27404968
 31
0.0
  0
LINE
  5
1D3
100
AcDbEntity
  8
ZUWAKU
  6
CONTINUOUS
 62
       7
100
AcDbLine
 10
-150.96472228
 20
-412.29037219
 30
0.0
 11
-153.82681477
 21
-415.15246468
 31
0.0
  0
LINE
  5
1D4
100
AcDbEntity
  8
ZUWAKU
  6
CONTINUOUS
 62
       7
100
AcDbLine
 10
-140.42192791
 20
-400.89904968
 30
0.0
 11
-143.79692791
 21
-404.27404968
 31
0.0
  0
LINE
  5
1D5
100
AcDbEntity
  8
ZUWAKU
  6
CONTINUOUS
 62
       7
100
AcDbLine
 10
-152.03952459
 20
-412.51664636
 30
0.0
 11
-153.36398124
 21
-413.84110301
 31
0.0
  0
LINE
  5
1D6
100
AcDbEntity
  8
ZUWAKU
  6
CONTINUOUS
 62
       7
100
AcDbLine
 10
-141.27045605
 20
-400.89904968
 30
0.0
 11
-144.64545605
 21
-404.27404968
 31
0.0
  0
LINE
  5
1D7
100
AcDbEntity
  8
ZUWAKU
  6
CONTINUOUS
 62
       7
100
AcDbLine
 10
-142.11898418
 20
-400.89904968
 30
0.0
 11
-145.49398418
 21
-404.27404968
 31
0.0
  0
LINE
  5
1D8
100
AcDbEntity
  8
ZUWAKU
  6
CONTINUOUS
 62
       7
100
AcDbLine
 10
-142.96751232
 20
-400.89904968
 30
0.0
 11
-146.34251232
 21
-404.27404968
 31
0.0
  0
LINE
  5
1D9
100
AcDbEntity
  8
ZUWAKU
  6
CONTINUOUS
 62
       7
100
AcDbLine
 10
-143.81604046
 20
-400.89904968
 30
0.0
 11
-147.19104046
 21
-404.27404968
 31
0.0
  0
LINE
  5
1DA
100
AcDbEntity
  8
ZUWAKU
  6
CONTINUOUS
 62
       7
100
AcDbLine
 10
-144.6645686
 20
-400.89904968
 30
0.0
 11
-148.0395686
 21
-404.27404968
 31
0.0
  0
LINE
  5
1DB
100
AcDbEntity
  8
ZUWAKU
  6
CONTINUOUS
 62
       7
100
AcDbLine
 10
-145.51309673
 20
-400.89904968
 30
0.0
 11
-148.81642467
 21
-404.20237762
 31
0.0
  0
LINE
  5
1DC
100
AcDbEntity
  8
ZUWAKU
  6
CONTINUOUS
 62
       7
100
AcDbLine
 10
-146.36162487
 20
-400.89904968
 30
0.0
 11
-148.3921606
 21
-402.92958541
 31
0.0
  0
LINE
  5
1DD
100
AcDbEntity
  8
ZUWAKU
  6
CONTINUOUS
 62
       7
100
AcDbLine
 10
-147.21015301
 20
-400.89904968
 30
0.0
 11
-147.96789654
 21
-401.65679321
 31
0.0
  0
LINE
  5
1DE
100
AcDbEntity
  8
ZUWAKU
  6
CONTINUOUS
 62
       7
100
AcDbLine
 10
-136.17928722
 20
-400.89904968
 30
0.0
 11
-150.5970816
 21
-415.31684405
 31
0.0
  0
LINE
  5
1DF
100
AcDbEntity
  8
ZUWAKU
  6
CONTINUOUS
 62
       7
100
AcDbLine
 10
-135.33075909
 20
-400.89904968
 30
0.0
 11
-149.57884783
 21
-415.14713843
 31
0.0
  0
LINE
  5
1E0
100
AcDbEntity
  8
ZUWAKU
  6
CONTINUOUS
 62
       7
100
AcDbLine
 10
-135.15854912
 20
-401.57536786
 30
0.0
 11
-148.56061407
 21
-414.9774328
 31
0.0
  0
LINE
  5
1E1
100
AcDbEntity
  8
ZUWAKU
  6
CONTINUOUS
 62
       7
100
AcDbLine
 10
-135.49796038
 20
-402.76330725
 30
0.0
 11
-147.38855779
 21
-414.65390466
 31
0.0
  0
LINE
  5
1E2
100
AcDbEntity
  8
ZUWAKU
  6
CONTINUOUS
 62
       7
100
AcDbLine
 10
-135.97686452
 20
-404.09073953
 30
0.0
 11
-146.2006184
 21
-414.31449341
 31
0.0
  0
LINE
  5
1E3
100
AcDbEntity
  8
ZUWAKU
  6
CONTINUOUS
 62
       7
100
AcDbLine
 10
-136.70417435
 20
-405.6665775
 30
0.0
 11
-144.95356212
 21
-413.91596527
 31
0.0
  0
LINE
  5
1E4
100
AcDbEntity
  8
ZUWAKU
  6
CONTINUOUS
 62
       7
100
AcDbLine
 10
-138.21970928
 20
-408.03064057
 30
0.0
 11
-143.68076992
 21
-413.4917012
 31
0.0
  0
LINE
  5
1E5
100
AcDbEntity
  8
ZUWAKU
  6
CONTINUOUS
 62
       7
100
AcDbLine
 10
-139.94254143
 20
-410.60200085
 30
0.0
 11
-142.87039627
 21
-413.5298557
 31
0.0
  0
LINE
  5
1E6
100
AcDbEntity
  8
ZUWAKU
  6
CONTINUOUS
 62
       7
100
AcDbLine
 10
-139.62198636
 20
-411.12997392
 30
0.0
 11
-142.54714746
 21
-414.05513502
 31
0.0
  0
LINE
  5
1E7
100
AcDbEntity
  8
ZUWAKU
  6
CONTINUOUS
 62
       7
100
AcDbLine
 10
-139.30143129
 20
-411.65794698
 30
0.0
 11
-142.22389865
 21
-414.58041434
 31
0.0
  0
LINE
  5
1E8
100
AcDbEntity
  8
ZUWAKU
  6
CONTINUOUS
 62
       7
100
AcDbLine
 10
-138.98087621
 20
-412.18592004
 30
0.0
 11
-141.90064983
 21
-415.10569366
 31
0.0
  0
LINE
  5
1E9
100
AcDbEntity
  8
ZUWAKU
  6
CONTINUOUS
 62
       7
100
AcDbLine
 10
-138.66032114
 20
-412.71389311
 30
0.0
 11
-141.57740102
 21
-415.63097299
 31
0.0
  0
LINE
  5
1EA
100
AcDbEntity
  8
ZUWAKU
  6
CONTINUOUS
 62
       7
100
AcDbLine
 10
-138.33976606
 20
-413.24186617
 30
0.0
 11
-140.80944957
 21
-415.71154968
 31
0.0
  0
LINE
  5
1EB
100
AcDbEntity
  8
ZUWAKU
  6
CONTINUOUS
 62
       7
100
AcDbLine
 10
-138.01921099
 20
-413.76983923
 30
0.0
 11
-139.96092144
 21
-415.71154968
 31
0.0
  0
LINE
  5
1EC
100
AcDbEntity
  8
ZUWAKU
  6
CONTINUOUS
 62
       7
100
AcDbLine
 10
-137.69865591
 20
-414.2978123
 30
0.0
 11
-139.1123933
 21
-415.71154968
 31
0.0
  0
LINE
  5
1ED
100
AcDbEntity
  8
ZUWAKU
  6
CONTINUOUS
 62
       7
100
AcDbLine
 10
-137.37810084
 20
-414.82578536
 30
0.0
 11
-138.26386516
 21
-415.71154968
 31
0.0
  0
LINE
  5
1EE
100
AcDbEntity
  8
ZUWAKU
  6
CONTINUOUS
 62
       7
100
AcDbLine
 10
-137.05754577
 20
-415.35375842
 30
0.0
 11
-137.41533702
 21
-415.71154968
 31
0.0
  0
LINE
  5
1EF
100
AcDbEntity
  8
ZUWAKU
  6
CONTINUOUS
 62
       7
100
AcDbLine
 10
-160.40906536
 20
-400.89904968
 30
0.0
 11
-163.78406536
 21
-404.27404968
 31
0.0
  0
LINE
  5
1F0
100
AcDbEntity
  8
ZUWAKU
  6
CONTINUOUS
 62
       7
100
AcDbLine
 10
-161.2575935
 20
-400.89904968
 30
0.0
 11
-164.6325935
 21
-404.27404968
 31
0.0
  0
LINE
  5
1F1
100
AcDbEntity
  8
ZUWAKU
  6
CONTINUOUS
 62
       7
100
AcDbLine
 10
-162.10612163
 20
-400.89904968
 30
0.0
 11
-165.48112163
 21
-404.27404968
 31
0.0
  0
LINE
  5
1F2
100
AcDbEntity
  8
ZUWAKU
  6
CONTINUOUS
 62
       7
100
AcDbLine
 10
-162.95464977
 20
-400.89904968
 30
0.0
 11
-165.38573892
 21
-403.33013882
 31
0.0
  0
LINE
  5
1F3
100
AcDbEntity
  8
ZUWAKU
  6
CONTINUOUS
 62
       7
100
AcDbLine
 10
-163.80317791
 20
-400.89904968
 30
0.0
 11
-164.84576646
 21
-401.94163824
 31
0.0
  0
LINE
  5
1F4
100
AcDbEntity
  8
ZUWAKU
  6
CONTINUOUS
 62
       7
100
AcDbLine
 10
-159.56053722
 20
-400.89904968
 30
0.0
 11
-162.93553722
 21
-404.27404968
 31
0.0
  0
LINE
  5
1F5
100
AcDbEntity
  8
ZUWAKU
  6
CONTINUOUS
 62
       7
100
AcDbLine
 10
-158.71200909
 20
-400.89904968
 30
0.0
 11
-162.08700909
 21
-404.27404968
 31
0.0
  0
LINE
  5
1F6
100
AcDbEntity
  8
ZUWAKU
  6
CONTINUOUS
 62
       7
100
AcDbLine
 10
-158.72873257
 20
-401.7643013
 30
0.0
 11
-161.23848095
 21
-404.27404968
 31
0.0
  0
LINE
  5
1F7
100
AcDbEntity
  8
ZUWAKU
  6
CONTINUOUS
 62
       7
100
AcDbLine
 10
-159.15299663
 20
-403.03709351
 30
0.0
 11
-160.38995281
 21
-404.27404968
 31
0.0
  0
LINE
  5
1F8
100
AcDbEntity
  8
ZUWAKU
  6
CONTINUOUS
 62
       7
100
AcDbLine
 10
-159.54142467
 20
-404.27404968
 30
0.0
 11
-159.5772607
 21
-404.30988571
 31
0.0
  0
LINE
  5
1F9
100
AcDbEntity
  8
ZUWAKU
  6
CONTINUOUS
 62
       7
100
AcDbLine
 10
-161.53406536
 20
-411.02404968
 30
0.0
 11
-166.22156536
 21
-415.71154968
 31
0.0
  0
LINE
  5
1FA
100
AcDbEntity
  8
ZUWAKU
  6
CONTINUOUS
 62
       7
100
AcDbLine
 10
-162.3825935
 20
-411.02404968
 30
0.0
 11
-167.0700935
 21
-415.71154968
 31
0.0
  0
LINE
  5
1FB
100
AcDbEntity
  8
ZUWAKU
  6
CONTINUOUS
 62
       7
100
AcDbLine
 10
-163.23112163
 20
-411.02404968
 30
0.0
 11
-167.91862163
 21
-415.71154968
 31
0.0
  0
LINE
  5
1FC
100
AcDbEntity
  8
ZUWAKU
  6
CONTINUOUS
 62
       7
100
AcDbLine
 10
-164.07964977
 20
-411.02404968
 30
0.0
 11
-168.76714977
 21
-415.71154968
 31
0.0
  0
LINE
  5
1FD
100
AcDbEntity
  8
ZUWAKU
  6
CONTINUOUS
 62
       7
100
AcDbLine
 10
-164.92817791
 20
-411.02404968
 30
0.0
 11
-169.61567791
 21
-415.71154968
 31
0.0
  0
LINE
  5
1FE
100
AcDbEntity
  8
ZUWAKU
  6
CONTINUOUS
 62
       7
100
AcDbLine
 10
-165.77670605
 20
-411.02404968
 30
0.0
 11
-169.5479706
 21
-414.79531423
 31
0.0
  0
LINE
  5
1FF
100
AcDbEntity
  8
ZUWAKU
  6
CONTINUOUS
 62
       7
100
AcDbLine
 10
-166.62523418
 20
-411.02404968
 30
0.0
 11
-169.07067352
 21
-413.46948902
 31
0.0
  0
LINE
  5
200
100
AcDbEntity
  8
ZUWAKU
  6
CONTINUOUS
 62
       7
100
AcDbLine
 10
-167.47376232
 20
-411.02404968
 30
0.0
 11
-168.59337644
 21
-412.1436638
 31
0.0
  0
LINE
  5
201
100
AcDbEntity
  8
ZUWAKU
  6
CONTINUOUS
 62
       7
100
AcDbLine
 10
-160.68553722
 20
-411.02404968
 30
0.0
 11
-165.37303722
 21
-415.71154968
 31
0.0
  0
LINE
  5
202
100
AcDbEntity
  8
ZUWAKU
  6
CONTINUOUS
 62
       7
100
AcDbLine
 10
-159.83700909
 20
-411.02404968
 30
0.0
 11
-164.52450909
 21
-415.71154968
 31
0.0
  0
LINE
  5
203
100
AcDbEntity
  8
ZUWAKU
  6
CONTINUOUS
 62
       7
100
AcDbLine
 10
-151.67598095
 20
-403.71154968
 30
0.0
 11
-152.91802437
 21
-404.9535931
 31
0.0
  0
LINE
  5
204
100
AcDbEntity
  8
ZUWAKU
  6
CONTINUOUS
 62
       7
100
AcDbLine
 10
-158.78664654
 20
-410.82221527
 30
0.0
 11
-163.67598095
 21
-415.71154968
 31
0.0
  0
LINE
  5
205
100
AcDbEntity
  8
ZUWAKU
  6
CONTINUOUS
 62
       7
100
AcDbLine
 10
-150.82745281
 20
-403.71154968
 30
0.0
 11
-153.67878216
 21
-406.56287903
 31
0.0
  0
LINE
  5
206
100
AcDbEntity
  8
ZUWAKU
  6
CONTINUOUS
 62
       7
100
AcDbLine
 10
-157.08959026
 20
-409.97368713
 30
0.0
 11
-162.82745281
 21
-415.71154968
 31
0.0
  0
LINE
  5
207
100
AcDbEntity
  8
ZUWAKU
  6
CONTINUOUS
 62
       7
100
AcDbLine
 10
-150.70328964
 20
-404.43591465
 30
0.0
 11
-161.97892467
 21
-415.71154968
 31
0.0
  0
LINE
  5
208
100
AcDbEntity
  8
ZUWAKU
  6
CONTINUOUS
 62
       7
100
AcDbLine
 10
-150.90294332
 20
-405.48409646
 30
0.0
 11
-161.13039654
 21
-415.71154968
 31
0.0
  0
LINE
  5
209
100
AcDbEntity
  8
ZUWAKU
  6
CONTINUOUS
 62
       7
100
AcDbLine
 10
-151.102597
 20
-406.53227828
 30
0.0
 11
-160.2818684
 21
-415.71154968
 31
0.0
  0
LINE
  5
20A
100
AcDbEntity
  8
ZUWAKU
  6
CONTINUOUS
 62
       7
100
AcDbLine
 10
-151.30225068
 20
-407.5804601
 30
0.0
 11
-159.02776018
 21
-415.3059696
 31
0.0
  0
LINE
  5
20B
100
AcDbEntity
  8
ZUWAKU
  6
CONTINUOUS
 62
       7
100
AcDbLine
 10
-152.50482022
 20
-409.63155777
 30
0.0
 11
-157.50040953
 21
-414.62714709
 31
0.0
  0
LINE
  5
20C
100
AcDbEntity
  8
ZUWAKU
  6
CONTINUOUS
 62
       7
100
AcDbLine
 10
-168.39656536
 20
-400.89904968
 30
0.0
 11
-181.87312786
 21
-414.37561218
 31
0.0
  0
LINE
  5
20D
100
AcDbEntity
  8
ZUWAKU
  6
CONTINUOUS
 62
       7
100
AcDbLine
 10
-169.2450935
 20
-400.89904968
 30
0.0
 11
-181.37815311
 21
-413.0321093
 31
0.0
  0
LINE
  5
20E
100
AcDbEntity
  8
ZUWAKU
  6
CONTINUOUS
 62
       7
100
AcDbLine
 10
-170.09362163
 20
-400.89904968
 30
0.0
 11
-180.88317837
 21
-411.68860641
 31
0.0
  0
LINE
  5
20F
100
AcDbEntity
  8
ZUWAKU
  6
CONTINUOUS
 62
       7
100
AcDbLine
 10
-170.94214977
 20
-400.89904968
 30
0.0
 11
-180.38820362
 21
-410.34510353
 31
0.0
  0
LINE
  5
210
100
AcDbEntity
  8
ZUWAKU
  6
CONTINUOUS
 62
       7
100
AcDbLine
 10
-171.79067791
 20
-400.89904968
 30
0.0
 11
-179.89322887
 21
-409.00160064
 31
0.0
  0
LINE
  5
211
100
AcDbEntity
  8
ZUWAKU
  6
CONTINUOUS
 62
       7
100
AcDbLine
 10
-172.63920605
 20
-400.89904968
 30
0.0
 11
-173.23910686
 21
-401.4989505
 31
0.0
  0
LINE
  5
212
100
AcDbEntity
  8
ZUWAKU
  6
CONTINUOUS
 62
       7
100
AcDbLine
 10
-176.54774906
 20
-404.8075927
 30
0.0
 11
-180.32670605
 21
-408.58654968
 31
0.0
  0
LINE
  5
213
100
AcDbEntity
  8
ZUWAKU
  6
CONTINUOUS
 62
       7
100
AcDbLine
 10
-178.0326733
 20
-405.4439888
 30
0.0
 11
-181.17523418
 21
-408.58654968
 31
0.0
  0
LINE
  5
214
100
AcDbEntity
  8
ZUWAKU
  6
CONTINUOUS
 62
       7
100
AcDbLine
 10
-179.24529957
 20
-405.80808693
 30
0.0
 11
-182.02376232
 21
-408.58654968
 31
0.0
  0
LINE
  5
215
100
AcDbEntity
  8
ZUWAKU
  6
CONTINUOUS
 62
       7
100
AcDbLine
 10
-180.16453838
 20
-405.87879761
 30
0.0
 11
-182.87229046
 21
-408.58654968
 31
0.0
  0
LINE
  5
216
100
AcDbEntity
  8
ZUWAKU
  6
CONTINUOUS
 62
       7
100
AcDbLine
 10
-181.0837772
 20
-405.94950828
 30
0.0
 11
-183.7208186
 21
-408.58654968
 31
0.0
  0
LINE
  5
217
100
AcDbEntity
  8
ZUWAKU
  6
CONTINUOUS
 62
       7
100
AcDbLine
 10
-181.94434673
 20
-405.96154968
 30
0.0
 11
-184.56934673
 21
-408.58654968
 31
0.0
  0
LINE
  5
218
100
AcDbEntity
  8
ZUWAKU
  6
CONTINUOUS
 62
       7
100
AcDbLine
 10
-182.79287487
 20
-405.96154968
 30
0.0
 11
-185.41787487
 21
-408.58654968
 31
0.0
  0
LINE
  5
219
100
AcDbEntity
  8
ZUWAKU
  6
CONTINUOUS
 62
       7
100
AcDbLine
 10
-183.64140301
 20
-405.96154968
 30
0.0
 11
-185.44804444
 21
-407.76819112
 31
0.0
  0
LINE
  5
21A
100
AcDbEntity
  8
ZUWAKU
  6
CONTINUOUS
 62
       7
100
AcDbLine
 10
-184.48993115
 20
-405.96154968
 30
0.0
 11
-184.97663992
 21
-406.44825846
 31
0.0
  0
LINE
  5
21B
100
AcDbEntity
  8
ZUWAKU
  6
CONTINUOUS
 62
       7
100
AcDbLine
 10
-167.54803722
 20
-400.89904968
 30
0.0
 11
-182.36810261
 21
-415.71911507
 31
0.0
  0
LINE
  5
21C
100
AcDbEntity
  8
ZUWAKU
  6
CONTINUOUS
 62
       7
100
AcDbLine
 10
-166.69950909
 20
-400.89904968
 30
0.0
 11
-173.21609519
 21
-407.41563578
 31
0.0
  0
LINE
  5
21D
100
AcDbEntity
  8
ZUWAKU
  6
CONTINUOUS
 62
       7
100
AcDbLine
 10
-173.41874964
 20
-407.61829024
 30
0.0
 11
-181.51200909
 21
-415.71154968
 31
0.0
  0
LINE
  5
21E
100
AcDbEntity
  8
ZUWAKU
  6
CONTINUOUS
 62
       7
100
AcDbLine
 10
-165.85098095
 20
-400.89904968
 30
0.0
 11
-171.99044343
 21
-407.03851216
 31
0.0
  0
LINE
  5
21F
100
AcDbEntity
  8
ZUWAKU
  6
CONTINUOUS
 62
       7
100
AcDbLine
 10
-173.8576435
 20
-408.90571224
 30
0.0
 11
-180.66348095
 21
-415.71154968
 31
0.0
  0
LINE
  5
220
100
AcDbEntity
  8
ZUWAKU
  6
CONTINUOUS
 62
       7
100
AcDbLine
 10
-166.60491183
 20
-402.5015087
 30
0.0
 11
-170.51398601
 21
-406.41058288
 31
0.0
  0
LINE
  5
221
100
AcDbEntity
  8
ZUWAKU
  6
CONTINUOUS
 62
       7
100
AcDbLine
 10
-174.29653737
 20
-410.19313424
 30
0.0
 11
-179.81495281
 21
-415.71154968
 31
0.0
  0
LINE
  5
222
100
AcDbEntity
  8
ZUWAKU
  6
CONTINUOUS
 62
       7
100
AcDbLine
 10
-174.73543123
 20
-411.48055624
 30
0.0
 11
-178.96642467
 21
-415.71154968
 31
0.0
  0
LINE
  5
223
100
AcDbEntity
  8
ZUWAKU
  6
CONTINUOUS
 62
       7
100
AcDbLine
 10
-175.1743251
 20
-412.76797824
 30
0.0
 11
-178.11789654
 21
-415.71154968
 31
0.0
  0
LINE
  5
224
100
AcDbEntity
  8
ZUWAKU
  6
CONTINUOUS
 62
       7
100
AcDbLine
 10
-175.61321896
 20
-414.05540024
 30
0.0
 11
-177.2693684
 21
-415.71154968
 31
0.0
  0
LINE
  5
225
100
AcDbEntity
  8
ZUWAKU
  6
CONTINUOUS
 62
       7
100
AcDbLine
 10
-176.05211283
 20
-415.34282225
 30
0.0
 11
-176.42084026
 21
-415.71154968
 31
0.0
  0
LINE
  5
226
100
AcDbEntity
  8
ZUWAKU
  6
CONTINUOUS
 62
       7
100
AcDbLine
 10
-190.67156536
 20
-400.89904968
 30
0.0
 11
-194.04656536
 21
-404.27404968
 31
0.0
  0
LINE
  5
227
100
AcDbEntity
  8
ZUWAKU
  6
CONTINUOUS
 62
       7
100
AcDbLine
 10
-191.5200935
 20
-400.89904968
 30
0.0
 11
-194.8950935
 21
-404.27404968
 31
0.0
  0
LINE
  5
228
100
AcDbEntity
  8
ZUWAKU
  6
CONTINUOUS
 62
       7
100
AcDbLine
 10
-192.36862163
 20
-400.89904968
 30
0.0
 11
-195.74362163
 21
-404.27404968
 31
0.0
  0
LINE
  5
229
100
AcDbEntity
  8
ZUWAKU
  6
CONTINUOUS
 62
       7
100
AcDbLine
 10
-193.21714977
 20
-400.89904968
 30
0.0
 11
-196.59214977
 21
-404.27404968
 31
0.0
  0
LINE
  5
22A
100
AcDbEntity
  8
ZUWAKU
  6
CONTINUOUS
 62
       7
100
AcDbLine
 10
-194.06567791
 20
-400.89904968
 30
0.0
 11
-197.44067791
 21
-404.27404968
 31
0.0
  0
LINE
  5
22B
100
AcDbEntity
  8
ZUWAKU
  6
CONTINUOUS
 62
       7
100
AcDbLine
 10
-194.91420605
 20
-400.89904968
 30
0.0
 11
-198.28920605
 21
-404.27404968
 31
0.0
  0
LINE
  5
22C
100
AcDbEntity
  8
ZUWAKU
  6
CONTINUOUS
 62
       7
100
AcDbLine
 10
-195.76273418
 20
-400.89904968
 30
0.0
 11
-199.13773418
 21
-404.27404968
 31
0.0
  0
LINE
  5
22D
100
AcDbEntity
  8
ZUWAKU
  6
CONTINUOUS
 62
       7
100
AcDbLine
 10
-196.61126232
 20
-400.89904968
 30
0.0
 11
-199.65484188
 21
-403.94262924
 31
0.0
  0
LINE
  5
22E
100
AcDbEntity
  8
ZUWAKU
  6
CONTINUOUS
 62
       7
100
AcDbLine
 10
-197.45979046
 20
-400.89904968
 30
0.0
 11
-199.23057781
 21
-402.66983703
 31
0.0
  0
LINE
  5
22F
100
AcDbEntity
  8
ZUWAKU
  6
CONTINUOUS
 62
       7
100
AcDbLine
 10
-198.3083186
 20
-400.89904968
 30
0.0
 11
-198.80631374
 21
-401.39704483
 31
0.0
  0
LINE
  5
230
100
AcDbEntity
  8
ZUWAKU
  6
CONTINUOUS
 62
       7
100
AcDbLine
 10
-189.82303722
 20
-400.89904968
 30
0.0
 11
-193.19803722
 21
-404.27404968
 31
0.0
  0
LINE
  5
231
100
AcDbEntity
  8
ZUWAKU
  6
CONTINUOUS
 62
       7
100
AcDbLine
 10
-188.97450909
 20
-400.89904968
 30
0.0
 11
-192.34950909
 21
-404.27404968
 31
0.0
  0
LINE
  5
232
100
AcDbEntity
  8
ZUWAKU
  6
CONTINUOUS
 62
       7
100
AcDbLine
 10
-188.12598095
 20
-400.89904968
 30
0.0
 11
-191.50098095
 21
-404.27404968
 31
0.0
  0
LINE
  5
233
100
AcDbEntity
  8
ZUWAKU
  6
CONTINUOUS
 62
       7
100
AcDbLine
 10
-187.27745281
 20
-400.89904968
 30
0.0
 11
-190.65245281
 21
-404.27404968
 31
0.0
  0
LINE
  5
234
100
AcDbEntity
  8
ZUWAKU
  6
CONTINUOUS
 62
       7
100
AcDbLine
 10
-186.42892467
 20
-400.89904968
 30
0.0
 11
-189.80392467
 21
-404.27404968
 31
0.0
  0
LINE
  5
235
100
AcDbEntity
  8
ZUWAKU
  6
CONTINUOUS
 62
       7
100
AcDbLine
 10
-185.58039654
 20
-400.89904968
 30
0.0
 11
-188.95539654
 21
-404.27404968
 31
0.0
  0
LINE
  5
236
100
AcDbEntity
  8
ZUWAKU
  6
CONTINUOUS
 62
       7
100
AcDbLine
 10
-185.06328884
 20
-401.23047012
 30
0.0
 11
-188.1068684
 21
-404.27404968
 31
0.0
  0
LINE
  5
237
100
AcDbEntity
  8
ZUWAKU
  6
CONTINUOUS
 62
       7
100
AcDbLine
 10
-185.48755291
 20
-402.50326233
 30
0.0
 11
-187.25834026
 21
-404.27404968
 31
0.0
  0
LINE
  5
238
100
AcDbEntity
  8
ZUWAKU
  6
CONTINUOUS
 62
       7
100
AcDbLine
 10
-185.91181698
 20
-403.77605454
 30
0.0
 11
-186.40981212
 21
-404.27404968
 31
0.0
  0
LINE
  5
239
100
AcDbEntity
  8
ZUWAKU
  6
CONTINUOUS
 62
       7
100
AcDbLine
 10
-190.39031536
 20
-405.96154968
 30
0.0
 11
-193.01531536
 21
-408.58654968
 31
0.0
  0
LINE
  5
23A
100
AcDbEntity
  8
ZUWAKU
  6
CONTINUOUS
 62
       7
100
AcDbLine
 10
-197.32781536
 20
-412.89904968
 30
0.0
 11
-200.14031536
 21
-415.71154968
 31
0.0
  0
LINE
  5
23B
100
AcDbEntity
  8
ZUWAKU
  6
CONTINUOUS
 62
       7
100
AcDbLine
 10
-191.2388435
 20
-405.96154968
 30
0.0
 11
-193.8638435
 21
-408.58654968
 31
0.0
  0
LINE
  5
23C
100
AcDbEntity
  8
ZUWAKU
  6
CONTINUOUS
 62
       7
100
AcDbLine
 10
-198.1763435
 20
-412.89904968
 30
0.0
 11
-200.9888435
 21
-415.71154968
 31
0.0
  0
LINE
  5
23D
100
AcDbEntity
  8
ZUWAKU
  6
CONTINUOUS
 62
       7
100
AcDbLine
 10
-192.08737163
 20
-405.96154968
 30
0.0
 11
-194.71237163
 21
-408.58654968
 31
0.0
  0
LINE
  5
23E
100
AcDbEntity
  8
ZUWAKU
  6
CONTINUOUS
 62
       7
100
AcDbLine
 10
-199.02487163
 20
-412.89904968
 30
0.0
 11
-201.83737163
 21
-415.71154968
 31
0.0
  0
LINE
  5
23F
100
AcDbEntity
  8
ZUWAKU
  6
CONTINUOUS
 62
       7
100
AcDbLine
 10
-192.93589977
 20
-405.96154968
 30
0.0
 11
-195.56089977
 21
-408.58654968
 31
0.0
  0
LINE
  5
240
100
AcDbEntity
  8
ZUWAKU
  6
CONTINUOUS
 62
       7
100
AcDbLine
 10
-199.87339977
 20
-412.89904968
 30
0.0
 11
-202.68589977
 21
-415.71154968
 31
0.0
  0
LINE
  5
241
100
AcDbEntity
  8
ZUWAKU
  6
CONTINUOUS
 62
       7
100
AcDbLine
 10
-193.78442791
 20
-405.96154968
 30
0.0
 11
-196.40942791
 21
-408.58654968
 31
0.0
  0
LINE
  5
242
100
AcDbEntity
  8
ZUWAKU
  6
CONTINUOUS
 62
       7
100
AcDbLine
 10
-200.72192791
 20
-412.89904968
 30
0.0
 11
-203.53442791
 21
-415.71154968
 31
0.0
  0
LINE
  5
243
100
AcDbEntity
  8
ZUWAKU
  6
CONTINUOUS
 62
       7
100
AcDbLine
 10
-194.63295605
 20
-405.96154968
 30
0.0
 11
-197.25795605
 21
-408.58654968
 31
0.0
  0
LINE
  5
244
100
AcDbEntity
  8
ZUWAKU
  6
CONTINUOUS
 62
       7
100
AcDbLine
 10
-201.57045605
 20
-412.89904968
 30
0.0
 11
-203.56188824
 21
-414.89048187
 31
0.0
  0
LINE
  5
245
100
AcDbEntity
  8
ZUWAKU
  6
CONTINUOUS
 62
       7
100
AcDbLine
 10
-195.48148418
 20
-405.96154968
 30
0.0
 11
-198.10648418
 21
-408.58654968
 31
0.0
  0
LINE
  5
246
100
AcDbEntity
  8
ZUWAKU
  6
CONTINUOUS
 62
       7
100
AcDbLine
 10
-202.41898418
 20
-412.89904968
 30
0.0
 11
-202.99620281
 21
-413.47626831
 31
0.0
  0
LINE
  5
247
100
AcDbEntity
  8
ZUWAKU
  6
CONTINUOUS
 62
       7
100
AcDbLine
 10
-196.33001232
 20
-405.96154968
 30
0.0
 11
-198.95501232
 21
-408.58654968
 31
0.0
  0
LINE
  5
248
100
AcDbEntity
  8
ZUWAKU
  6
CONTINUOUS
 62
       7
100
AcDbLine
 10
-197.17854046
 20
-405.96154968
 30
0.0
 11
-199.80354046
 21
-408.58654968
 31
0.0
  0
LINE
  5
249
100
AcDbEntity
  8
ZUWAKU
  6
CONTINUOUS
 62
       7
100
AcDbLine
 10
-198.0270686
 20
-405.96154968
 30
0.0
 11
-200.6520686
 21
-408.58654968
 31
0.0
  0
LINE
  5
24A
100
AcDbEntity
  8
ZUWAKU
  6
CONTINUOUS
 62
       7
100
AcDbLine
 10
-198.87559673
 20
-405.96154968
 30
0.0
 11
-200.64620281
 21
-407.73215576
 31
0.0
  0
LINE
  5
24B
100
AcDbEntity
  8
ZUWAKU
  6
CONTINUOUS
 62
       7
100
AcDbLine
 10
-199.72412487
 20
-405.96154968
 30
0.0
 11
-200.30679156
 21
-406.54421636
 31
0.0
  0
LINE
  5
24C
100
AcDbEntity
  8
ZUWAKU
  6
CONTINUOUS
 62
       7
100
AcDbLine
 10
-189.54178722
 20
-405.96154968
 30
0.0
 11
-193.35472661
 21
-409.77448907
 31
0.0
  0
LINE
  5
24D
100
AcDbEntity
  8
ZUWAKU
  6
CONTINUOUS
 62
       7
100
AcDbLine
 10
-196.23296688
 20
-412.65272934
 30
0.0
 11
-199.29178722
 21
-415.71154968
 31
0.0
  0
LINE
  5
24E
100
AcDbEntity
  8
ZUWAKU
  6
CONTINUOUS
 62
       7
100
AcDbLine
 10
-188.69325909
 20
-405.96154968
 30
0.0
 11
-198.44325909
 21
-415.71154968
 31
0.0
  0
LINE
  5
24F
100
AcDbEntity
  8
ZUWAKU
  6
CONTINUOUS
 62
       7
100
AcDbLine
 10
-187.84473095
 20
-405.96154968
 30
0.0
 11
-197.59473095
 21
-415.71154968
 31
0.0
  0
LINE
  5
250
100
AcDbEntity
  8
ZUWAKU
  6
CONTINUOUS
 62
       7
100
AcDbLine
 10
-186.99620281
 20
-405.96154968
 30
0.0
 11
-196.74620281
 21
-415.71154968
 31
0.0
  0
LINE
  5
251
100
AcDbEntity
  8
ZUWAKU
  6
CONTINUOUS
 62
       7
100
AcDbLine
 10
-186.92182432
 20
-406.73569933
 30
0.0
 11
-195.89767467
 21
-415.71154968
 31
0.0
  0
LINE
  5
252
100
AcDbEntity
  8
ZUWAKU
  6
CONTINUOUS
 62
       7
100
AcDbLine
 10
-187.40669755
 20
-408.06910069
 30
0.0
 11
-195.04914654
 21
-415.71154968
 31
0.0
  0
LINE
  5
253
100
AcDbEntity
  8
ZUWAKU
  6
CONTINUOUS
 62
       7
100
AcDbLine
 10
-187.89157077
 20
-409.40250205
 30
0.0
 11
-194.15821941
 21
-415.66915069
 31
0.0
  0
LINE
  5
254
100
AcDbEntity
  8
ZUWAKU
  6
CONTINUOUS
 62
       7
100
AcDbLine
 10
-188.37644399
 20
-410.73590341
 30
0.0
 11
-193.02684856
 21
-415.38630798
 31
0.0
  0
LINE
  5
255
100
AcDbEntity
  8
ZUWAKU
  6
CONTINUOUS
 62
       7
100
AcDbLine
 10
-188.86131721
 20
-412.06930477
 30
0.0
 11
-191.42930889
 21
-414.63729644
 31
0.0
  0
LINE
  5
256
100
AcDbEntity
  8
ZUWAKU
  6
CONTINUOUS
 62
       7
100
AcDbLine
 10
-200.92781536
 20
-400.89904968
 30
0.0
 11
-208.69734661
 21
-408.66858093
 31
0.0
  0
LINE
  5
257
100
AcDbEntity
  8
ZUWAKU
  6
CONTINUOUS
 62
       7
100
AcDbLine
 10
-212.87424393
 20
-412.84547825
 30
0.0
 11
-215.74031536
 21
-415.71154968
 31
0.0
  0
LINE
  5
258
100
AcDbEntity
  8
ZUWAKU
  6
CONTINUOUS
 62
       7
100
AcDbLine
 10
-201.7763435
 20
-400.89904968
 30
0.0
 11
-208.19353303
 21
-407.31623921
 31
0.0
  0
LINE
  5
259
100
AcDbEntity
  8
ZUWAKU
  6
CONTINUOUS
 62
       7
100
AcDbLine
 10
-213.7763435
 20
-412.89904968
 30
0.0
 11
-215.59730129
 21
-414.72000748
 31
0.0
  0
LINE
  5
25A
100
AcDbEntity
  8
ZUWAKU
  6
CONTINUOUS
 62
       7
100
AcDbLine
 10
-202.62487163
 20
-400.89904968
 30
0.0
 11
-207.68971945
 21
-405.96389749
 31
0.0
  0
LINE
  5
25B
100
AcDbEntity
  8
ZUWAKU
  6
CONTINUOUS
 62
       7
100
AcDbLine
 10
-214.62487163
 20
-412.89904968
 30
0.0
 11
-215.17303722
 21
-413.44721527
 31
0.0
  0
LINE
  5
25C
100
AcDbEntity
  8
ZUWAKU
  6
CONTINUOUS
 62
       7
100
AcDbLine
 10
-203.47339977
 20
-400.89904968
 30
0.0
 11
-207.18590587
 21
-404.61155577
 31
0.0
  0
LINE
  5
25D
100
AcDbEntity
  8
ZUWAKU
  6
CONTINUOUS
 62
       7
100
AcDbLine
 10
-204.32192791
 20
-400.89904968
 30
0.0
 11
-206.68209228
 21
-403.25921406
 31
0.0
  0
LINE
  5
25E
100
AcDbEntity
  8
ZUWAKU
  6
CONTINUOUS
 62
       7
100
AcDbLine
 10
-205.17045605
 20
-400.89904968
 30
0.0
 11
-206.1782787
 21
-401.90687234
 31
0.0
  0
LINE
  5
25F
100
AcDbEntity
  8
ZUWAKU
  6
CONTINUOUS
 62
       7
100
AcDbLine
 10
-201.07930415
 20
-401.89906661
 30
0.0
 11
-209.20116019
 21
-410.02092265
 31
0.0
  0
LINE
  5
260
100
AcDbEntity
  8
ZUWAKU
  6
CONTINUOUS
 62
       7
100
AcDbLine
 10
-211.90449749
 20
-412.72425995
 30
0.0
 11
-214.89178722
 21
-415.71154968
 31
0.0
  0
LINE
  5
261
100
AcDbEntity
  8
ZUWAKU
  6
CONTINUOUS
 62
       7
100
AcDbLine
 10
-201.51444678
 20
-403.18273738
 30
0.0
 11
-210.28370281
 21
-411.95199341
 31
0.0
  0
LINE
  5
262
100
AcDbEntity
  8
ZUWAKU
  6
CONTINUOUS
 62
       7
100
AcDbLine
 10
-210.31874248
 20
-411.98703308
 30
0.0
 11
-214.04325909
 21
-415.71154968
 31
0.0
  0
LINE
  5
263
100
AcDbEntity
  8
ZUWAKU
  6
CONTINUOUS
 62
       7
100
AcDbLine
 10
-201.94958942
 20
-404.46640815
 30
0.0
 11
-213.19473095
 21
-415.71154968
 31
0.0
  0
LINE
  5
264
100
AcDbEntity
  8
ZUWAKU
  6
CONTINUOUS
 62
       7
100
AcDbLine
 10
-202.38473205
 20
-405.75007892
 30
0.0
 11
-212.34620281
 21
-415.71154968
 31
0.0
  0
LINE
  5
265
100
AcDbEntity
  8
ZUWAKU
  6
CONTINUOUS
 62
       7
100
AcDbLine
 10
-202.81987469
 20
-407.0337497
 30
0.0
 11
-211.49767467
 21
-415.71154968
 31
0.0
  0
LINE
  5
266
100
AcDbEntity
  8
ZUWAKU
  6
CONTINUOUS
 62
       7
100
AcDbLine
 10
-203.25501732
 20
-408.31742047
 30
0.0
 11
-210.58346111
 21
-415.64586426
 31
0.0
  0
LINE
  5
267
100
AcDbEntity
  8
ZUWAKU
  6
CONTINUOUS
 62
       7
100
AcDbLine
 10
-203.69015996
 20
-409.60109124
 30
0.0
 11
-209.64065207
 21
-415.55158335
 31
0.0
  0
LINE
  5
268
100
AcDbEntity
  8
ZUWAKU
  6
CONTINUOUS
 62
       7
100
AcDbLine
 10
-204.12530259
 20
-410.88476201
 30
0.0
 11
-208.36410686
 21
-415.12356628
 31
0.0
  0
LINE
  5
269
100
AcDbEntity
  8
ZUWAKU
  6
CONTINUOUS
 62
       7
100
AcDbLine
 10
-209.94656536
 20
-401.94904968
 30
0.0
 11
-216.88043633
 21
-408.88292065
 31
0.0
  0
LINE
  5
26A
100
AcDbEntity
  8
ZUWAKU
  6
CONTINUOUS
 62
       7
100
AcDbLine
 10
-209.7450935
 20
-400.89904968
 30
0.0
 11
-216.41511445
 21
-407.56907063
 31
0.0
  0
LINE
  5
26B
100
AcDbEntity
  8
ZUWAKU
  6
CONTINUOUS
 62
       7
100
AcDbLine
 10
-210.59362163
 20
-400.89904968
 30
0.0
 11
-215.94979256
 21
-406.25522061
 31
0.0
  0
LINE
  5
26C
100
AcDbEntity
  8
ZUWAKU
  6
CONTINUOUS
 62
       7
100
AcDbLine
 10
-211.44214977
 20
-400.89904968
 30
0.0
 11
-215.48447068
 21
-404.94137059
 31
0.0
  0
LINE
  5
26D
100
AcDbEntity
  8
ZUWAKU
  6
CONTINUOUS
 62
       7
100
AcDbLine
 10
-212.29067791
 20
-400.89904968
 30
0.0
 11
-215.0191488
 21
-403.62752057
 31
0.0
  0
LINE
  5
26E
100
AcDbEntity
  8
ZUWAKU
  6
CONTINUOUS
 62
       7
100
AcDbLine
 10
-213.13920605
 20
-400.89904968
 30
0.0
 11
-214.55382692
 21
-402.31367055
 31
0.0
  0
LINE
  5
26F
100
AcDbEntity
  8
ZUWAKU
  6
CONTINUOUS
 62
       7
100
AcDbLine
 10
-213.98773418
 20
-400.89904968
 30
0.0
 11
-214.08850504
 21
-400.99982053
 31
0.0
  0
LINE
  5
270
100
AcDbEntity
  8
ZUWAKU
  6
CONTINUOUS
 62
       7
100
AcDbLine
 10
-210.45568224
 20
-403.3066947
 30
0.0
 11
-217.04803722
 21
-409.89904968
 31
0.0
  0
LINE
  5
271
100
AcDbEntity
  8
ZUWAKU
  6
CONTINUOUS
 62
       7
100
AcDbLine
 10
-210.96479912
 20
-404.66433972
 30
0.0
 11
-216.19950909
 21
-409.89904968
 31
0.0
  0
LINE
  5
272
100
AcDbEntity
  8
ZUWAKU
  6
CONTINUOUS
 62
       7
100
AcDbLine
 10
-211.47391601
 20
-406.02198474
 30
0.0
 11
-215.35098095
 21
-409.89904968
 31
0.0
  0
LINE
  5
273
100
AcDbEntity
  8
ZUWAKU
  6
CONTINUOUS
 62
       7
100
AcDbLine
 10
-211.98303289
 20
-407.37962976
 30
0.0
 11
-214.50245281
 21
-409.89904968
 31
0.0
  0
LINE
  5
274
100
AcDbEntity
  8
ZUWAKU
  6
CONTINUOUS
 62
       7
100
AcDbLine
 10
-212.49214977
 20
-408.73727478
 30
0.0
 11
-213.65392467
 21
-409.89904968
 31
0.0
  0
LINE
  5
275
100
AcDbEntity
  8
ZUWAKU
  6
CONTINUOUS
 62
       7
100
AcDbLine
 10
-242.21531536
 20
417.53845032
 30
0.0
 11
-244.75794579
 21
422.03695032
 31
0.0
  0
LINE
  5
276
100
AcDbEntity
  8
ZUWAKU
  6
CONTINUOUS
 62
       7
100
AcDbLine
 10
-254.89198284
 20
425.97595032
 30
0.0
 11
-254.57948284
 21
426.91345032
 31
0.0
  0
LINE
  5
277
100
AcDbEntity
  8
ZUWAKU
  6
CONTINUOUS
 62
       7
100
AcDbLine
 10
-230.99620843
 20
418.64800378
 30
0.0
 11
-231.33731536
 21
418.47745032
 31
0.0
  0
LINE
  5
278
100
AcDbEntity
  8
ZUWAKU
  6
CONTINUOUS
 62
       7
100
AcDbLine
 10
-230.77781536
 20
417.53845032
 30
0.0
 11
-229.20281536
 21
419.11345032
 31
0.0
  0
LINE
  5
279
100
AcDbEntity
  8
ZUWAKU
  6
CONTINUOUS
 62
       7
100
AcDbLine
 10
-229.46531536
 20
417.53845032
 30
0.0
 11
-229.20281536
 21
419.11345032
 31
0.0
  0
LINE
  5
27A
100
AcDbEntity
  8
ZUWAKU
  6
CONTINUOUS
 62
       7
100
AcDbLine
 10
-222.52781536
 20
418.85095032
 30
0.0
 11
-222.52781536
 21
418.47745032
 31
0.0
  0
LINE
  5
27B
100
AcDbEntity
  8
ZUWAKU
  6
CONTINUOUS
 62
       7
100
AcDbLine
 10
-214.23275372
 20
417.53845032
 30
0.0
 11
-217.65281536
 21
417.53845032
 31
0.0
  0
LINE
  5
27C
100
AcDbEntity
  8
ZUWAKU
  6
CONTINUOUS
 62
       7
100
AcDbLine
 10
-219.50071793
 20
418.87466057
 30
0.0
 11
-221.02781536
 21
417.53845032
 31
0.0
  0
LINE
  5
27D
100
AcDbEntity
  8
ZUWAKU
  6
CONTINUOUS
 62
       7
100
AcDbLine
 10
-208.66557135
 20
417.53845032
 30
0.0
 11
-212.59031536
 21
417.53845032
 31
0.0
  0
LINE
  5
27E
100
AcDbEntity
  8
ZUWAKU
  6
CONTINUOUS
 62
       7
100
AcDbLine
 10
-247.76944036
 20
418.47745032
 30
0.0
 11
-244.95750286
 21
425.97595032
 31
0.0
  0
LINE
  5
27F
100
AcDbEntity
  8
ZUWAKU
  6
CONTINUOUS
 62
       7
100
AcDbLine
 10
-245.07965042
 20
422.97595032
 30
0.0
 11
-240.69078182
 21
422.97595032
 31
0.0
  0
LINE
  5
280
100
AcDbEntity
  8
ZUWAKU
  6
CONTINUOUS
 62
       7
100
AcDbLine
 10
-216.83463354
 20
419.78845032
 30
0.0
 11
-217.46531536
 21
419.78845032
 31
0.0
  0
LINE
  5
281
100
AcDbEntity
  8
ZUWAKU
  6
CONTINUOUS
 62
       7
100
AcDbLine
 10
-217.46531536
 20
419.78845032
 30
0.0
 11
-218.08515769
 21
419.78845032
 31
0.0
  0
LINE
  5
282
100
AcDbEntity
  8
ZUWAKU
  6
CONTINUOUS
 62
       7
100
AcDbLine
 10
-223.56954977
 20
417.53845032
 30
0.0
 11
-221.02781536
 21
417.53845032
 31
0.0
  0
CIRCLE
  5
283
100
AcDbEntity
  8
ZUWAKU
  6
CONTINUOUS
 62
       7
100
AcDbCircle
 10
-227.68954108
 20
422.78845032
 30
0.0
 40
0.56797572
  0
LINE
  5
284
100
AcDbEntity
  8
ZUWAKU
  6
CONTINUOUS
 62
       7
100
AcDbLine
 10
-247.06687786
 20
425.97595032
 30
0.0
 11
-244.95750286
 21
425.97595032
 31
0.0
  0
LINE
  5
285
100
AcDbEntity
  8
ZUWAKU
  6
CONTINUOUS
 62
       7
100
AcDbLine
 10
-243.95465042
 20
425.97595032
 30
0.0
 11
-240.69078182
 21
425.97595032
 31
0.0
  0
LINE
  5
286
100
AcDbEntity
  8
ZUWAKU
  6
CONTINUOUS
 62
       7
100
AcDbLine
 10
-250.27781536
 20
417.53845032
 30
0.0
 11
-249.92569036
 21
418.47745032
 31
0.0
  0
LINE
  5
287
100
AcDbEntity
  8
ZUWAKU
  6
CONTINUOUS
 62
       7
100
AcDbLine
 10
-247.06687786
 20
425.97595032
 30
0.0
 11
-246.71531536
 21
426.91345032
 31
0.0
  0
LINE
  5
288
100
AcDbEntity
  8
ZUWAKU
  6
CONTINUOUS
 62
       7
100
AcDbLine
 10
-247.53608077
 20
425.97595032
 30
0.0
 11
-247.18451827
 21
426.91345032
 31
0.0
  0
LINE
  5
289
100
AcDbEntity
  8
ZUWAKU
  6
CONTINUOUS
 62
       7
100
AcDbLine
 10
-240.69078182
 20
426.91345032
 30
0.0
 11
-246.71531536
 21
426.91345032
 31
0.0
  0
LINE
  5
28A
100
AcDbEntity
  8
ZUWAKU
  6
CONTINUOUS
 62
       7
100
AcDbLine
 10
-247.18451827
 20
426.91345032
 30
0.0
 11
-248.07524641
 21
426.91345032
 31
0.0
  0
LINE
  5
28B
100
AcDbEntity
  8
ZUWAKU
  6
CONTINUOUS
 62
       7
100
AcDbLine
 10
-248.42680891
 20
425.97595032
 30
0.0
 11
-247.53608077
 21
425.97595032
 31
0.0
  0
LINE
  5
28C
100
AcDbEntity
  8
ZUWAKU
  6
CONTINUOUS
 62
       7
100
AcDbLine
 10
-248.76836624
 20
425.97595032
 30
0.0
 11
-248.41680374
 21
426.91345032
 31
0.0
  0
LINE
  5
28D
100
AcDbEntity
  8
ZUWAKU
  6
CONTINUOUS
 62
       7
100
AcDbLine
 10
-248.41680374
 20
426.91345032
 30
0.0
 11
-249.16344241
 21
426.91345032
 31
0.0
  0
LINE
  5
28E
100
AcDbEntity
  8
ZUWAKU
  6
CONTINUOUS
 62
       7
100
AcDbLine
 10
-249.51500491
 20
425.97595032
 30
0.0
 11
-248.76836624
 21
425.97595032
 31
0.0
  0
LINE
  5
28F
100
AcDbEntity
  8
ZUWAKU
  6
CONTINUOUS
 62
       7
100
AcDbLine
 10
-249.51500491
 20
425.97595032
 30
0.0
 11
-249.16344241
 21
426.91345032
 31
0.0
  0
LINE
  5
290
100
AcDbEntity
  8
ZUWAKU
  6
CONTINUOUS
 62
       7
100
AcDbLine
 10
-249.8009029
 20
426.91345032
 30
0.0
 11
-250.53255226
 21
426.91345032
 31
0.0
  0
LINE
  5
291
100
AcDbEntity
  8
ZUWAKU
  6
CONTINUOUS
 62
       7
100
AcDbLine
 10
-250.88411476
 20
425.97595032
 30
0.0
 11
-250.1524654
 21
425.97595032
 31
0.0
  0
LINE
  5
292
100
AcDbEntity
  8
ZUWAKU
  6
CONTINUOUS
 62
       7
100
AcDbLine
 10
-250.88411476
 20
425.97595032
 30
0.0
 11
-250.53255226
 21
426.91345032
 31
0.0
  0
LINE
  5
293
100
AcDbEntity
  8
ZUWAKU
  6
CONTINUOUS
 62
       7
100
AcDbLine
 10
-248.42680891
 20
425.97595032
 30
0.0
 11
-248.07524641
 21
426.91345032
 31
0.0
  0
LINE
  5
294
100
AcDbEntity
  8
ZUWAKU
  6
CONTINUOUS
 62
       7
100
AcDbLine
 10
-250.1524654
 20
425.97595032
 30
0.0
 11
-249.8009029
 21
426.91345032
 31
0.0
  0
LINE
  5
295
100
AcDbEntity
  8
ZUWAKU
  6
CONTINUOUS
 62
       7
100
AcDbLine
 10
-251.43210891
 20
425.97595032
 30
0.0
 11
-251.08054641
 21
426.91345032
 31
0.0
  0
LINE
  5
296
100
AcDbEntity
  8
ZUWAKU
  6
CONTINUOUS
 62
       7
100
AcDbLine
 10
-251.08054641
 20
426.91345032
 30
0.0
 11
-251.7570273
 21
426.91345032
 31
0.0
  0
LINE
  5
297
100
AcDbEntity
  8
ZUWAKU
  6
CONTINUOUS
 62
       7
100
AcDbLine
 10
-252.1085898
 20
425.97595032
 30
0.0
 11
-251.43210891
 21
425.97595032
 31
0.0
  0
LINE
  5
298
100
AcDbEntity
  8
ZUWAKU
  6
CONTINUOUS
 62
       7
100
AcDbLine
 10
-252.1085898
 20
425.97595032
 30
0.0
 11
-251.7570273
 21
426.91345032
 31
0.0
  0
LINE
  5
299
100
AcDbEntity
  8
ZUWAKU
  6
CONTINUOUS
 62
       7
100
AcDbLine
 10
-252.68124296
 20
425.97595032
 30
0.0
 11
-252.32968046
 21
426.91345032
 31
0.0
  0
LINE
  5
29A
100
AcDbEntity
  8
ZUWAKU
  6
CONTINUOUS
 62
       7
100
AcDbLine
 10
-252.32968046
 20
426.91345032
 30
0.0
 11
-252.93124296
 21
426.91345032
 31
0.0
  0
LINE
  5
29B
100
AcDbEntity
  8
ZUWAKU
  6
CONTINUOUS
 62
       7
100
AcDbLine
 10
-253.24374296
 20
425.97595032
 30
0.0
 11
-252.68124296
 21
425.97595032
 31
0.0
  0
LINE
  5
29C
100
AcDbEntity
  8
ZUWAKU
  6
CONTINUOUS
 62
       7
100
AcDbLine
 10
-253.24374296
 20
425.97595032
 30
0.0
 11
-252.93124296
 21
426.91345032
 31
0.0
  0
LINE
  5
29D
100
AcDbEntity
  8
ZUWAKU
  6
CONTINUOUS
 62
       7
100
AcDbLine
 10
-253.84276052
 20
425.97595032
 30
0.0
 11
-253.53026052
 21
426.91345032
 31
0.0
  0
LINE
  5
29E
100
AcDbEntity
  8
ZUWAKU
  6
CONTINUOUS
 62
       7
100
AcDbLine
 10
-254.32948284
 20
425.97595032
 30
0.0
 11
-254.01698284
 21
426.91345032
 31
0.0
  0
LINE
  5
29F
100
AcDbEntity
  8
ZUWAKU
  6
CONTINUOUS
 62
       7
100
AcDbLine
 10
-255.23573284
 20
425.97595032
 30
0.0
 11
-254.92323284
 21
426.91345032
 31
0.0
  0
LINE
  5
2A0
100
AcDbEntity
  8
ZUWAKU
  6
CONTINUOUS
 62
       7
100
AcDbLine
 10
-255.82948284
 20
425.97595032
 30
0.0
 11
-255.51698284
 21
426.91345032
 31
0.0
  0
LINE
  5
2A1
100
AcDbEntity
  8
ZUWAKU
  6
CONTINUOUS
 62
       7
100
AcDbLine
 10
-255.98573284
 20
425.97595032
 30
0.0
 11
-255.67323284
 21
426.91345032
 31
0.0
  0
LINE
  5
2A2
100
AcDbEntity
  8
ZUWAKU
  6
CONTINUOUS
 62
       7
100
AcDbLine
 10
-253.53026052
 20
426.91345032
 30
0.0
 11
-254.01698284
 21
426.91345032
 31
0.0
  0
LINE
  5
2A3
100
AcDbEntity
  8
ZUWAKU
  6
CONTINUOUS
 62
       7
100
AcDbLine
 10
-254.32948284
 20
425.97595032
 30
0.0
 11
-253.84276052
 21
425.97595032
 31
0.0
  0
LINE
  5
2A4
100
AcDbEntity
  8
ZUWAKU
  6
CONTINUOUS
 62
       7
100
AcDbLine
 10
-254.57948284
 20
426.91345032
 30
0.0
 11
-254.92323284
 21
426.91345032
 31
0.0
  0
LINE
  5
2A5
100
AcDbEntity
  8
ZUWAKU
  6
CONTINUOUS
 62
       7
100
AcDbLine
 10
-255.51698284
 20
426.91345032
 30
0.0
 11
-255.67323284
 21
426.91345032
 31
0.0
  0
LINE
  5
2A6
100
AcDbEntity
  8
ZUWAKU
  6
CONTINUOUS
 62
       7
100
AcDbLine
 10
-255.23573284
 20
425.97595032
 30
0.0
 11
-254.89198284
 21
425.97595032
 31
0.0
  0
LINE
  5
2A7
100
AcDbEntity
  8
ZUWAKU
  6
CONTINUOUS
 62
       7
100
AcDbLine
 10
-255.82948284
 20
425.97595032
 30
0.0
 11
-255.98573284
 21
425.97595032
 31
0.0
  0
ARC
  5
2A8
100
AcDbEntity
  8
ZUWAKU
  6
CONTINUOUS
 62
       7
100
AcDbCircle
 10
-240.69078182
 20
424.47595032
 30
0.0
 40
1.5
100
AcDbArc
 50
270.0
 51
450.0
  0
LINE
  5
2A9
100
AcDbEntity
  8
ZUWAKU
  6
CONTINUOUS
 62
       7
100
AcDbLine
 10
-249.92569036
 20
418.47745032
 30
0.0
 11
-247.76944036
 21
418.47745032
 31
0.0
  0
LINE
  5
2AA
100
AcDbEntity
  8
ZUWAKU
  6
CONTINUOUS
 62
       7
100
AcDbLine
 10
-250.27781536
 20
417.53845032
 30
0.0
 11
-247.11871292
 21
417.53845032
 31
0.0
  0
LINE
  5
2AB
100
AcDbEntity
  8
ZUWAKU
  6
CONTINUOUS
 62
       7
100
AcDbLine
 10
-247.11871292
 20
417.53845032
 30
0.0
 11
-245.43177542
 21
422.03695032
 31
0.0
  0
LINE
  5
2AC
100
AcDbEntity
  8
ZUWAKU
  6
CONTINUOUS
 62
       7
100
AcDbLine
 10
-245.07965042
 20
422.97595032
 30
0.0
 11
-243.95465042
 21
425.97595032
 31
0.0
  0
LINE
  5
2AD
100
AcDbEntity
  8
ZUWAKU
  6
CONTINUOUS
 62
       7
100
AcDbLine
 10
-245.43177542
 20
422.03695032
 30
0.0
 11
-244.75794579
 21
422.03695032
 31
0.0
  0
LINE
  5
2AE
100
AcDbEntity
  8
ZUWAKU
  6
CONTINUOUS
 62
       7
100
AcDbLine
 10
-243.67933325
 20
422.03695032
 30
0.0
 11
-240.69078182
 21
422.03695032
 31
0.0
  0
LINE
  5
2AF
100
AcDbEntity
  8
ZUWAKU
  6
CONTINUOUS
 62
       7
100
AcDbLine
 10
-241.66744194
 20
418.47745032
 30
0.0
 11
-243.67933325
 21
422.03695032
 31
0.0
  0
ARC
  5
2B0
100
AcDbEntity
  8
ZUWAKU
  6
CONTINUOUS
 62
       7
100
AcDbCircle
 10
-240.69078182
 20
424.47595032
 30
0.0
 40
2.4375
100
AcDbArc
 50
270.0
 51
450.0
  0
ELLIPSE
  5
2B1
100
AcDbEntity
  8
ZUWAKU
  6
CONTINUOUS
 62
       7
100
AcDbEllipse
 10
-237.58516205
 20
419.65213005
 30
0.0
 11
-0.2469559898247837
 21
-0.4527526480119946
 31
0.0
210
0.0
220
0.0
230
1.0
 40
0.75209874
 41
0.0
 42
6.2831853071796004
  0
LINE
  5
2B2
100
AcDbEntity
  8
ZUWAKU
  6
CONTINUOUS
 62
       7
100
AcDbLine
 10
-242.21531536
 20
417.53845032
 30
0.0
 11
-238.84031536
 21
417.53845032
 31
0.0
  0
ELLIPSE
  5
2B3
100
AcDbEntity
  8
ZUWAKU
  6
CONTINUOUS
 62
       7
100
AcDbEllipse
 10
-237.58516205
 20
419.65213005
 30
0.0
 11
-0.7889967726031273
 21
-1.4464940831052218
 31
0.0
210
0.0
220
0.0
230
1.0
 40
0.75209874
 41
1.1633802511780436
 42
5.8601607076995652
  0
LINE
  5
2B4
100
AcDbEntity
  8
ZUWAKU
  6
CONTINUOUS
 62
       7
100
AcDbLine
 10
-241.66744194
 20
418.47745032
 30
0.0
 11
-238.89663746
 21
418.47745032
 31
0.0
  0
ARC
  5
2B5
100
AcDbEntity
  8
ZUWAKU
  6
CONTINUOUS
 62
       7
100
AcDbCircle
 10
-239.17595358
 20
420.58335291
 30
0.0
 40
2.12434536
100
AcDbArc
 50
277.55531967
 51
282.61004677
  0
ARC
  5
2B6
100
AcDbEntity
  8
ZUWAKU
  6
CONTINUOUS
 62
       7
100
AcDbCircle
 10
-239.17595358
 20
420.58335291
 30
0.0
 40
3.06334536
100
AcDbArc
 50
276.29029269
 51
293.79815684
  0
ARC
  5
2B7
100
AcDbEntity
  8
ZUWAKU
  6
CONTINUOUS
 62
       7
100
AcDbCircle
 10
-239.17595358
 20
420.58335291
 30
0.0
 40
3.06334536
100
AcDbArc
 50
316.57125834
 51
318.01426788
  0
ARC
  5
2B8
100
AcDbEntity
  8
ZUWAKU
  6
CONTINUOUS
 62
       7
100
AcDbCircle
 10
-236.97570945
 20
419.57441228
 30
0.0
 40
2.03660652
100
AcDbArc
 50
209.3318227
 51
211.50126528
  0
ARC
  5
2B9
100
AcDbEntity
  8
ZUWAKU
  6
CONTINUOUS
 62
       7
100
AcDbCircle
 10
-236.97570945
 20
419.57441228
 30
0.0
 40
2.03660652
100
AcDbArc
 50
241.74457829
 51
270.0
  0
ELLIPSE
  5
2BA
100
AcDbEntity
  8
ZUWAKU
  6
CONTINUOUS
 62
       7
100
AcDbEllipse
 10
-232.79017214
 20
420.91298402
 30
0.0
 11
-0.4111291384866718
 21
-0.8479538481288387
 31
0.0
210
0.0
220
0.0
230
1.0
 40
0.44219156
 41
0.0
 42
6.2831853071796004
  0
ARC
  5
2BB
100
AcDbEntity
  8
ZUWAKU
  6
CONTINUOUS
 62
       7
100
AcDbCircle
 10
-231.92548248
 20
421.16110551
 30
0.0
 40
3.64232051
100
AcDbArc
 50
241.28311564
 51
264.0434522
  0
LINE
  5
2BC
100
AcDbEntity
  8
ZUWAKU
  6
CONTINUOUS
 62
       7
100
AcDbLine
 10
-236.97570945
 20
417.53845032
 30
0.0
 11
-234.86266865
 21
417.53845032
 31
0.0
  0
ARC
  5
2BD
100
AcDbEntity
  8
ZUWAKU
  6
CONTINUOUS
 62
       7
100
AcDbCircle
 10
-231.92548248
 20
421.16110551
 30
0.0
 40
2.70332051
100
AcDbArc
 50
251.08708107
 51
263.08482824
  0
ARC
  5
2BE
100
AcDbEntity
  8
ZUWAKU
  6
CONTINUOUS
 62
       7
100
AcDbCircle
 10
-235.65971159
 20
421.60672474
 30
0.0
 40
3.20661627
100
AcDbArc
 50
282.60950936
 51
291.93126974
  0
ELLIPSE
  5
2BF
100
AcDbEntity
  8
ZUWAKU
  6
CONTINUOUS
 62
       7
100
AcDbEllipse
 10
-232.79017214
 20
420.91298402
 30
0.0
 11
-1.3135116245580321
 21
-2.7091177256514811
 31
0.0
210
0.0
220
0.0
230
1.0
 40
0.44219156
 41
1.1621663820477957
 42
5.8906096214262993
  0
LINE
  5
2C0
100
AcDbEntity
  8
ZUWAKU
  6
CONTINUOUS
 62
       7
100
AcDbLine
 10
-236.95126055
 20
418.47745032
 30
0.0
 11
-234.95969055
 21
418.47745032
 31
0.0
  0
ARC
  5
2C1
100
AcDbEntity
  8
ZUWAKU
  6
CONTINUOUS
 62
       7
100
AcDbCircle
 10
-235.65971159
 20
421.60672474
 30
0.0
 40
4.14561627
100
AcDbArc
 50
313.58286141
 51
326.24939265
  0
ARC
  5
2C2
100
AcDbEntity
  8
ZUWAKU
  6
CONTINUOUS
 62
       7
100
AcDbCircle
 10
-235.65971159
 20
421.60672474
 30
0.0
 40
4.14561627
100
AcDbArc
 50
281.08479974
 51
298.5950739
  0
LINE
  5
2C3
100
AcDbEntity
  8
ZUWAKU
  6
CONTINUOUS
 62
       7
100
AcDbLine
 10
-232.30346139
 20
417.53845032
 30
0.0
 11
-230.77781536
 21
417.53845032
 31
0.0
  0
LINE
  5
2C4
100
AcDbEntity
  8
ZUWAKU
  6
CONTINUOUS
 62
       7
100
AcDbLine
 10
-230.99620843
 20
418.64800378
 30
0.0
 11
-228.44476794
 21
421.19944427
 31
0.0
  0
LINE
  5
2C5
100
AcDbEntity
  8
ZUWAKU
  6
CONTINUOUS
 62
       7
100
AcDbLine
 10
-228.35686302
 20
418.47745032
 30
0.0
 11
-227.94431978
 21
420.95270979
 31
0.0
  0
LINE
  5
2C6
100
AcDbEntity
  8
ZUWAKU
  6
CONTINUOUS
 62
       7
100
AcDbLine
 10
-232.25096149
 20
418.47745032
 30
0.0
 11
-231.33731536
 21
418.47745032
 31
0.0
  0
ARC
  5
2C7
100
AcDbEntity
  8
ZUWAKU
  6
CONTINUOUS
 62
       7
100
AcDbCircle
 10
-228.2317101
 20
421.00060818
 30
0.0
 40
0.29142656
100
AcDbArc
 50
350.53767779
 51
496.97750576
  0
ELLIPSE
  5
2C8
100
AcDbEntity
  8
ZUWAKU
  6
CONTINUOUS
 62
       7
100
AcDbEllipse
 10
-224.25326484
 20
419.30239431
 30
0.0
 11
-0.2735448899302071
 21
-0.460707183040256
 31
0.0
210
0.0
220
0.0
230
1.0
 40
0.58819821
 41
0.0
 42
6.2831853071796004
  0
LINE
  5
2C9
100
AcDbEntity
  8
ZUWAKU
  6
CONTINUOUS
 62
       7
100
AcDbLine
 10
-227.36671312
 20
418.47745032
 30
0.0
 11
-225.80389334
 21
419.22809604
 31
0.0
  0
LINE
  5
2CA
100
AcDbEntity
  8
ZUWAKU
  6
CONTINUOUS
 62
       7
100
AcDbLine
 10
-227.21531536
 20
417.53845032
 30
0.0
 11
-225.90686712
 21
418.11824002
 31
0.0
  0
LINE
  5
2CB
100
AcDbEntity
  8
ZUWAKU
  6
CONTINUOUS
 62
       7
100
AcDbLine
 10
-228.35686302
 20
418.47745032
 30
0.0
 11
-227.36671312
 21
418.47745032
 31
0.0
  0
LINE
  5
2CC
100
AcDbEntity
  8
ZUWAKU
  6
CONTINUOUS
 62
       7
100
AcDbLine
 10
-224.00719299
 20
417.96150544
 30
0.0
 11
-223.56954977
 21
417.53845032
 31
0.0
  0
LINE
  5
2CD
100
AcDbEntity
  8
ZUWAKU
  6
CONTINUOUS
 62
       7
100
AcDbLine
 10
-222.52781536
 20
418.47745032
 30
0.0
 11
-221.20867863
 21
418.47745032
 31
0.0
  0
LINE
  5
2CE
100
AcDbEntity
  8
ZUWAKU
  6
CONTINUOUS
 62
       7
100
AcDbLine
 10
-218.21039292
 20
421.10095032
 30
0.0
 11
-221.20867863
 21
418.47745032
 31
0.0
  0
ELLIPSE
  5
2CF
100
AcDbEntity
  8
ZUWAKU
  6
CONTINUOUS
 62
       7
100
AcDbEllipse
 10
-224.44893225
 20
419.1914422
 30
0.0
 11
-1.1915556281608986
 21
-1.4762483691800981
 31
0.0
210
0.0
220
0.0
230
1.0
 40
0.63020876
 41
2.7713952963881097
 42
5.1608192210644095
  0
ELLIPSE
  5
2D0
100
AcDbEntity
  8
ZUWAKU
  6
CONTINUOUS
 62
       7
100
AcDbEllipse
 10
-224.44893225
 20
419.1914422
 30
0.0
 11
-1.1915556281608986
 21
-1.4762483691800981
 31
0.0
210
0.0
220
0.0
230
1.0
 40
0.63020876
 41
5.8878630804447125
 42
7.48760292607815
  0
LINE
  5
2D1
100
AcDbEntity
  8
ZUWAKU
  6
CONTINUOUS
 62
       7
100
AcDbLine
 10
-222.77468473
 20
420.91973784
 30
0.0
 11
-221.77552899
 21
420.91973784
 31
0.0
  0
LINE
  5
2D2
100
AcDbEntity
  8
ZUWAKU
  6
CONTINUOUS
 62
       7
100
AcDbLine
 10
-223.00149925
 20
420.29599793
 30
0.0
 11
-222.77468473
 21
420.91973784
 31
0.0
  0
LINE
  5
2D3
100
AcDbEntity
  8
ZUWAKU
  6
CONTINUOUS
 62
       7
100
AcDbLine
 10
-222.52781536
 20
418.85095032
 30
0.0
 11
-221.77552899
 21
420.91973784
 31
0.0
  0
LINE
  5
2D4
100
AcDbEntity
  8
ZUWAKU
  6
CONTINUOUS
 62
       7
100
AcDbLine
 10
-219.97587121
 20
417.56798906
 30
0.0
 11
-219.50071793
 21
418.87466057
 31
0.0
  0
LINE
  5
2D5
100
AcDbEntity
  8
ZUWAKU
  6
CONTINUOUS
 62
       7
100
AcDbLine
 10
-218.08515769
 20
419.78845032
 30
0.0
 11
-218.90333951
 21
417.53845032
 31
0.0
  0
LINE
  5
2D6
100
AcDbEntity
  8
ZUWAKU
  6
CONTINUOUS
 62
       7
100
AcDbLine
 10
-217.65281536
 20
417.53845032
 30
0.0
 11
-216.83463354
 21
419.78845032
 31
0.0
  0
LINE
  5
2D7
100
AcDbEntity
  8
ZUWAKU
  6
CONTINUOUS
 62
       7
100
AcDbLine
 10
-215.46668629
 20
420.50343026
 30
0.0
 11
-216.20340627
 21
418.47745032
 31
0.0
  0
LINE
  5
2D8
100
AcDbEntity
  8
ZUWAKU
  6
CONTINUOUS
 62
       7
100
AcDbLine
 10
-215.77843589
 20
421.10095032
 30
0.0
 11
-215.46668629
 21
420.50343026
 31
0.0
  0
LINE
  5
2D9
100
AcDbEntity
  8
ZUWAKU
  6
CONTINUOUS
 62
       7
100
AcDbLine
 10
-217.83551931
 20
420.54324637
 30
0.0
 11
-217.65106642
 21
421.10095032
 31
0.0
  0
LINE
  5
2DA
100
AcDbEntity
  8
ZUWAKU
  6
CONTINUOUS
 62
       7
100
AcDbLine
 10
-217.83551931
 20
420.54324637
 30
0.0
 11
-216.83667355
 21
421.10095032
 31
0.0
  0
LINE
  5
2DB
100
AcDbEntity
  8
ZUWAKU
  6
CONTINUOUS
 62
       7
100
AcDbLine
 10
-215.77843589
 20
421.10095032
 30
0.0
 11
-216.83667355
 21
421.10095032
 31
0.0
  0
LINE
  5
2DC
100
AcDbEntity
  8
ZUWAKU
  6
CONTINUOUS
 62
       7
100
AcDbLine
 10
-217.65106642
 20
421.10095032
 30
0.0
 11
-218.21039292
 21
421.10095032
 31
0.0
  0
ELLIPSE
  5
2DD
100
AcDbEntity
  8
ZUWAKU
  6
CONTINUOUS
 62
       7
100
AcDbEllipse
 10
-207.41041805
 20
419.65213005
 30
0.0
 11
-0.2469559898248122
 21
-0.4527526480119946
 31
0.0
210
0.0
220
0.0
230
1.0
 40
0.75209874
 41
0.0
 42
6.2831853071796004
  0
ELLIPSE
  5
2DE
100
AcDbEntity
  8
ZUWAKU
  6
CONTINUOUS
 62
       7
100
AcDbEllipse
 10
-207.41041805
 20
419.65213005
 30
0.0
 11
-0.7889967726031273
 21
-1.4464940831052218
 31
0.0
210
0.0
220
0.0
230
1.0
 40
0.75209874
 41
1.1633802511780436
 42
5.8601607076995652
  0
ARC
  5
2DF
100
AcDbEntity
  8
ZUWAKU
  6
CONTINUOUS
 62
       7
100
AcDbCircle
 10
-209.00120957
 20
420.58335291
 30
0.0
 40
2.12434536
100
AcDbArc
 50
277.55531967
 51
282.61004677
  0
ARC
  5
2E0
100
AcDbEntity
  8
ZUWAKU
  6
CONTINUOUS
 62
       7
100
AcDbCircle
 10
-209.00120957
 20
420.58335291
 30
0.0
 40
3.06334536
100
AcDbArc
 50
276.29029269
 51
293.79815684
  0
ARC
  5
2E1
100
AcDbEntity
  8
ZUWAKU
  6
CONTINUOUS
 62
       7
100
AcDbCircle
 10
-209.00120957
 20
420.58335291
 30
0.0
 40
3.06334536
100
AcDbArc
 50
316.57125834
 51
318.01426788
  0
ARC
  5
2E2
100
AcDbEntity
  8
ZUWAKU
  6
CONTINUOUS
 62
       7
100
AcDbCircle
 10
-206.80096544
 20
419.57441228
 30
0.0
 40
2.03660652
100
AcDbArc
 50
209.3318227
 51
211.50126528
  0
ARC
  5
2E3
100
AcDbEntity
  8
ZUWAKU
  6
CONTINUOUS
 62
       7
100
AcDbCircle
 10
-206.80096544
 20
419.57441228
 30
0.0
 40
2.03660652
100
AcDbArc
 50
241.74457829
 51
270.0
  0
LINE
  5
2E4
100
AcDbEntity
  8
ZUWAKU
  6
CONTINUOUS
 62
       7
100
AcDbLine
 10
-211.98342119
 20
418.47745032
 30
0.0
 11
-208.72189346
 21
418.47745032
 31
0.0
  0
LINE
  5
2E5
100
AcDbEntity
  8
ZUWAKU
  6
CONTINUOUS
 62
       7
100
AcDbLine
 10
-206.80096544
 20
417.53845032
 30
0.0
 11
-204.99534261
 21
417.53845032
 31
0.0
  0
LINE
  5
2E6
100
AcDbEntity
  8
ZUWAKU
  6
CONTINUOUS
 62
       7
100
AcDbLine
 10
-206.77651654
 20
418.47745032
 30
0.0
 11
-204.78494654
 21
418.47745032
 31
0.0
  0
LINE
  5
2E7
100
AcDbEntity
  8
ZUWAKU
  6
CONTINUOUS
 62
       7
100
AcDbLine
 10
-229.46531536
 20
417.53845032
 30
0.0
 11
-227.21531536
 21
417.53845032
 31
0.0
  0
LINE
  5
2E8
100
AcDbEntity
  8
ZUWAKU
  6
CONTINUOUS
 62
       7
100
AcDbLine
 10
-219.97587121
 20
417.56798906
 30
0.0
 11
-218.90333951
 21
417.53845032
 31
0.0
  0
LINE
  5
2E9
100
AcDbEntity
  8
ZUWAKU
  6
CONTINUOUS
 62
       7
100
AcDbLine
 10
-216.20340627
 20
418.47745032
 30
0.0
 11
-214.46954752
 21
418.47745032
 31
0.0
  0
LINE
  5
2EA
100
AcDbEntity
  8
ZUWAKU
  6
CONTINUOUS
 62
       7
100
AcDbLine
 10
-211.26980381
 20
419.82923446
 30
0.0
 11
-210.56935285
 21
420.39543232
 31
0.0
  0
ARC
  5
2EB
100
AcDbEntity
  8
ZUWAKU
  6
CONTINUOUS
 62
       7
100
AcDbCircle
 10
-211.98342119
 20
419.34745032
 30
0.0
 40
0.87
100
AcDbArc
 50
34.07537472
 51
270.0
  0
ARC
  5
2EC
100
AcDbEntity
  8
ZUWAKU
  6
CONTINUOUS
 62
       7
100
AcDbCircle
 10
-211.98342119
 20
419.34745032
 30
0.0
 40
1.7600726
100
AcDbArc
 50
36.54256145
 51
190.98612084
  0
LINE
  5
2ED
100
AcDbEntity
  8
ZUWAKU
  6
CONTINUOUS
 62
       7
100
AcDbLine
 10
-214.23275372
 20
417.53845032
 30
0.0
 11
-213.34122724
 21
418.19447924
 31
0.0
  0
LINE
  5
2EE
100
AcDbEntity
  8
ZUWAKU
  6
CONTINUOUS
 62
       7
100
AcDbLine
 10
-213.72241792
 20
419.02722493
 30
0.0
 11
-214.46954752
 21
418.47745032
 31
0.0
  0
LINE
  5
2EF
100
AcDbEntity
  8
ZUWAKU
  6
CONTINUOUS
 62
       7
100
AcDbLine
 10
-213.34122724
 20
418.19447924
 30
0.0
 11
-212.59031536
 21
417.53845032
 31
0.0
  0
LINE
  5
2F0
100
AcDbEntity
  8
ZUWAKU
  6
CONTINUOUS
 62
       7
100
AcDbLine
 10
-204.78494654
 20
418.47745032
 30
0.0
 11
-204.99534261
 21
417.53845032
 31
0.0
  0
LINE
  5
2F1
100
AcDbEntity
  8
ZUWAKU
  6
CONTINUOUS
 62
       7
100
AcDbLine
 10
-254.64979534
 20
426.70251282
 30
0.0
 11
-255.16542034
 21
426.18688782
 31
0.0
  0
LINE
  5
2F2
100
AcDbEntity
  8
ZUWAKU
  6
CONTINUOUS
 62
       7
100
AcDbLine
 10
-253.56482994
 20
426.80974206
 30
0.0
 11
-254.29491341
 21
426.07965858
 31
0.0
  0
LINE
  5
2F3
100
AcDbEntity
  8
ZUWAKU
  6
CONTINUOUS
 62
       7
100
AcDbLine
 10
-252.33671171
 20
426.89470032
 30
0.0
 11
-253.23788359
 21
425.99352844
 31
0.0
  0
LINE
  5
2F4
100
AcDbEntity
  8
ZUWAKU
  6
CONTINUOUS
 62
       7
100
AcDbLine
 10
-251.12581811
 20
426.91345032
 30
0.0
 11
-252.06331811
 21
425.97595032
 31
0.0
  0
LINE
  5
2F5
100
AcDbEntity
  8
ZUWAKU
  6
CONTINUOUS
 62
       7
100
AcDbLine
 10
-249.87375883
 20
426.91345032
 30
0.0
 11
-250.81125883
 21
425.97595032
 31
0.0
  0
LINE
  5
2F6
100
AcDbEntity
  8
ZUWAKU
  6
CONTINUOUS
 62
       7
100
AcDbLine
 10
-248.49715433
 20
426.91345032
 30
0.0
 11
-249.43465433
 21
425.97595032
 31
0.0
  0
LINE
  5
2F7
100
AcDbEntity
  8
ZUWAKU
  6
CONTINUOUS
 62
       7
100
AcDbLine
 10
-247.33691359
 20
426.91345032
 30
0.0
 11
-248.27441359
 21
425.97595032
 31
0.0
  0
LINE
  5
2F8
100
AcDbEntity
  8
ZUWAKU
  6
CONTINUOUS
 62
       7
100
AcDbLine
 10
-247.01255855
 20
417.82152864
 30
0.0
 11
-247.29563687
 21
417.53845032
 31
0.0
  0
LINE
  5
2F9
100
AcDbEntity
  8
ZUWAKU
  6
CONTINUOUS
 62
       7
100
AcDbLine
 10
-246.50344167
 20
419.17917366
 30
0.0
 11
-248.14416501
 21
417.53845032
 31
0.0
  0
LINE
  5
2FA
100
AcDbEntity
  8
ZUWAKU
  6
CONTINUOUS
 62
       7
100
AcDbLine
 10
-245.99432479
 20
420.53681868
 30
0.0
 11
-247.59888869
 21
418.93225477
 31
0.0
  0
LINE
  5
2FB
100
AcDbEntity
  8
ZUWAKU
  6
CONTINUOUS
 62
       7
100
AcDbLine
 10
-248.05369315
 20
418.47745032
 30
0.0
 11
-248.99269315
 21
417.53845032
 31
0.0
  0
LINE
  5
2FC
100
AcDbEntity
  8
ZUWAKU
  6
CONTINUOUS
 62
       7
100
AcDbLine
 10
-245.4852079
 20
421.8944637
 30
0.0
 11
-247.08977181
 21
420.28989979
 31
0.0
  0
LINE
  5
2FD
100
AcDbEntity
  8
ZUWAKU
  6
CONTINUOUS
 62
       7
100
AcDbLine
 10
-248.90222128
 20
418.47745032
 30
0.0
 11
-249.84122128
 21
417.53845032
 31
0.0
  0
LINE
  5
2FE
100
AcDbEntity
  8
ZUWAKU
  6
CONTINUOUS
 62
       7
100
AcDbLine
 10
-249.75074942
 20
418.47745032
 30
0.0
 11
-250.03065492
 21
418.19754481
 31
0.0
  0
LINE
  5
2FF
100
AcDbEntity
  8
ZUWAKU
  6
CONTINUOUS
 62
       7
100
AcDbLine
 10
-243.86033383
 20
426.91345032
 30
0.0
 11
-245.05330428
 21
425.72047987
 31
0.0
  0
LINE
  5
300
100
AcDbEntity
  8
ZUWAKU
  6
CONTINUOUS
 62
       7
100
AcDbLine
 10
-244.70886197
 20
426.91345032
 30
0.0
 11
-245.64636197
 21
425.97595032
 31
0.0
  0
LINE
  5
301
100
AcDbEntity
  8
ZUWAKU
  6
CONTINUOUS
 62
       7
100
AcDbLine
 10
-245.55739011
 20
426.91345032
 30
0.0
 11
-246.49489011
 21
425.97595032
 31
0.0
  0
LINE
  5
302
100
AcDbEntity
  8
ZUWAKU
  6
CONTINUOUS
 62
       7
100
AcDbLine
 10
-246.40591824
 20
426.91345032
 30
0.0
 11
-246.90095363
 21
426.41841493
 31
0.0
  0
LINE
  5
303
100
AcDbEntity
  8
ZUWAKU
  6
CONTINUOUS
 62
       7
100
AcDbLine
 10
-237.80262407
 20
421.09176616
 30
0.0
 11
-238.70019408
 21
420.19419615
 31
0.0
  0
LINE
  5
304
100
AcDbEntity
  8
ZUWAKU
  6
CONTINUOUS
 62
       7
100
AcDbLine
 10
-236.89901203
 20
421.14685006
 30
0.0
 11
-238.92149366
 21
419.12436843
 31
0.0
  0
LINE
  5
305
100
AcDbEntity
  8
ZUWAKU
  6
CONTINUOUS
 62
       7
100
AcDbLine
 10
-236.24337189
 20
420.10543392
 30
0.0
 11
-238.80642915
 21
417.54237667
 31
0.0
  0
LINE
  5
306
100
AcDbEntity
  8
ZUWAKU
  6
CONTINUOUS
 62
       7
100
AcDbLine
 10
-242.16327756
 20
426.91345032
 30
0.0
 11
-243.10077756
 21
425.97595032
 31
0.0
  0
LINE
  5
307
100
AcDbEntity
  8
ZUWAKU
  6
CONTINUOUS
 62
       7
100
AcDbLine
 10
-244.46697414
 20
424.60975374
 30
0.0
 11
-246.07153804
 21
423.00518983
 31
0.0
  0
LINE
  5
308
100
AcDbEntity
  8
ZUWAKU
  6
CONTINUOUS
 62
       7
100
AcDbLine
 10
-241.31474942
 20
426.91345032
 30
0.0
 11
-242.25224942
 21
425.97595032
 31
0.0
  0
LINE
  5
309
100
AcDbEntity
  8
ZUWAKU
  6
CONTINUOUS
 62
       7
100
AcDbLine
 10
-244.97609102
 20
423.25210872
 30
0.0
 11
-246.58065492
 21
421.64754481
 31
0.0
  0
LINE
  5
30A
100
AcDbEntity
  8
ZUWAKU
  6
CONTINUOUS
 62
       7
100
AcDbLine
 10
-240.47572673
 20
426.90394487
 30
0.0
 11
-241.40372128
 21
425.97595032
 31
0.0
  0
LINE
  5
30B
100
AcDbEntity
  8
ZUWAKU
  6
CONTINUOUS
 62
       7
100
AcDbLine
 10
-244.40372128
 20
422.97595032
 30
0.0
 11
-245.34272128
 21
422.03695032
 31
0.0
  0
LINE
  5
30C
100
AcDbEntity
  8
ZUWAKU
  6
CONTINUOUS
 62
       7
100
AcDbLine
 10
-239.79017399
 20
426.74096948
 30
0.0
 11
-240.56083267
 21
425.97031079
 31
0.0
  0
LINE
  5
30D
100
AcDbEntity
  8
ZUWAKU
  6
CONTINUOUS
 62
       7
100
AcDbLine
 10
-243.55519315
 20
422.97595032
 30
0.0
 11
-244.66270178
 21
421.86844168
 31
0.0
  0
LINE
  5
30E
100
AcDbEntity
  8
ZUWAKU
  6
CONTINUOUS
 62
       7
100
AcDbLine
 10
-239.24456108
 20
426.43805425
 30
0.0
 11
-239.91990558
 21
425.76270975
 31
0.0
  0
LINE
  5
30F
100
AcDbEntity
  8
ZUWAKU
  6
CONTINUOUS
 62
       7
100
AcDbLine
 10
-238.80893028
 20
426.0251569
 30
0.0
 11
-239.47692088
 21
425.35716631
 31
0.0
  0
LINE
  5
310
100
AcDbEntity
  8
ZUWAKU
  6
CONTINUOUS
 62
       7
100
AcDbLine
 10
-238.48096377
 20
425.50459528
 30
0.0
 11
-239.21916887
 21
424.76639018
 31
0.0
  0
LINE
  5
311
100
AcDbEntity
  8
ZUWAKU
  6
CONTINUOUS
 62
       7
100
AcDbLine
 10
-238.28281192
 20
424.854219
 30
0.0
 11
-239.36758362
 21
423.76944729
 31
0.0
  0
LINE
  5
312
100
AcDbEntity
  8
ZUWAKU
  6
CONTINUOUS
 62
       7
100
AcDbLine
 10
-243.01180569
 20
426.91345032
 30
0.0
 11
-243.94930569
 21
425.97595032
 31
0.0
  0
LINE
  5
313
100
AcDbEntity
  8
ZUWAKU
  6
CONTINUOUS
 62
       7
100
AcDbLine
 10
-243.95785726
 20
425.96739876
 30
0.0
 11
-245.56242116
 21
424.36283485
 31
0.0
  0
LINE
  5
314
100
AcDbEntity
  8
ZUWAKU
  6
CONTINUOUS
 62
       7
100
AcDbLine
 10
-241.85813687
 20
422.97595032
 30
0.0
 11
-242.79713687
 21
422.03695032
 31
0.0
  0
LINE
  5
315
100
AcDbEntity
  8
ZUWAKU
  6
CONTINUOUS
 62
       7
100
AcDbLine
 10
-243.36076233
 20
421.47332485
 30
0.0
 11
-244.04987591
 21
420.78421128
 31
0.0
  0
LINE
  5
316
100
AcDbEntity
  8
ZUWAKU
  6
CONTINUOUS
 62
       7
100
AcDbLine
 10
-242.70666501
 20
422.97595032
 30
0.0
 11
-243.64566501
 21
422.03695032
 31
0.0
  0
LINE
  5
317
100
AcDbEntity
  8
ZUWAKU
  6
CONTINUOUS
 62
       7
100
AcDbLine
 10
-243.66717527
 20
422.01544005
 30
0.0
 11
-244.35628884
 21
421.32632648
 31
0.0
  0
LINE
  5
318
100
AcDbEntity
  8
ZUWAKU
  6
CONTINUOUS
 62
       7
100
AcDbLine
 10
-241.00960873
 20
422.97595032
 30
0.0
 11
-241.94860873
 21
422.03695032
 31
0.0
  0
LINE
  5
319
100
AcDbEntity
  8
ZUWAKU
  6
CONTINUOUS
 62
       7
100
AcDbLine
 10
-243.0543494
 20
420.93120966
 30
0.0
 11
-243.74346297
 21
420.24209608
 31
0.0
  0
LINE
  5
31A
100
AcDbEntity
  8
ZUWAKU
  6
CONTINUOUS
 62
       7
100
AcDbLine
 10
-239.98427879
 20
423.15275212
 30
0.0
 11
-241.1000806
 21
422.03695032
 31
0.0
  0
LINE
  5
31B
100
AcDbEntity
  8
ZUWAKU
  6
CONTINUOUS
 62
       7
100
AcDbLine
 10
-242.74793646
 20
420.38909446
 30
0.0
 11
-243.43705003
 21
419.69998089
 31
0.0
  0
LINE
  5
31C
100
AcDbEntity
  8
ZUWAKU
  6
CONTINUOUS
 62
       7
100
AcDbLine
 10
-238.30316724
 20
423.98533554
 30
0.0
 11
-240.20016704
 21
422.08833574
 31
0.0
  0
LINE
  5
31D
100
AcDbEntity
  8
ZUWAKU
  6
CONTINUOUS
 62
       7
100
AcDbLine
 10
-242.44152352
 20
419.84697926
 30
0.0
 11
-243.13063709
 21
419.15786569
 31
0.0
  0
LINE
  5
31E
100
AcDbEntity
  8
ZUWAKU
  6
CONTINUOUS
 62
       7
100
AcDbLine
 10
-242.13511058
 20
419.30486406
 30
0.0
 11
-242.82422415
 21
418.61575049
 31
0.0
  0
LINE
  5
31F
100
AcDbEntity
  8
ZUWAKU
  6
CONTINUOUS
 62
       7
100
AcDbLine
 10
-241.82869764
 20
418.76274886
 30
0.0
 11
-242.51781121
 21
418.07363529
 31
0.0
  0
LINE
  5
320
100
AcDbEntity
  8
ZUWAKU
  6
CONTINUOUS
 62
       7
100
AcDbLine
 10
-241.26546805
 20
418.47745032
 30
0.0
 11
-242.20446805
 21
417.53845032
 31
0.0
  0
LINE
  5
321
100
AcDbEntity
  8
ZUWAKU
  6
CONTINUOUS
 62
       7
100
AcDbLine
 10
-240.41693991
 20
418.47745032
 30
0.0
 11
-241.35593991
 21
417.53845032
 31
0.0
  0
LINE
  5
322
100
AcDbEntity
  8
ZUWAKU
  6
CONTINUOUS
 62
       7
100
AcDbLine
 10
-239.56841177
 20
418.47745032
 30
0.0
 11
-240.50741177
 21
417.53845032
 31
0.0
  0
LINE
  5
323
100
AcDbEntity
  8
ZUWAKU
  6
CONTINUOUS
 62
       7
100
AcDbLine
 10
-236.43834597
 20
420.75898798
 30
0.0
 11
-237.21597119
 21
419.98136276
 31
0.0
  0
LINE
  5
324
100
AcDbEntity
  8
ZUWAKU
  6
CONTINUOUS
 62
       7
100
AcDbLine
 10
-237.92222205
 20
419.2751119
 30
0.0
 11
-239.65888363
 21
417.53845032
 31
0.0
  0
LINE
  5
325
100
AcDbEntity
  8
ZUWAKU
  6
CONTINUOUS
 62
       7
100
AcDbLine
 10
-231.81909201
 20
423.68118567
 30
0.0
 11
-233.9705992
 21
421.52967847
 31
0.0
  0
LINE
  5
326
100
AcDbEntity
  8
ZUWAKU
  6
CONTINUOUS
 62
       7
100
AcDbLine
 10
-236.57865713
 20
418.92162055
 30
0.0
 11
-237.79180939
 21
417.70846829
 31
0.0
  0
LINE
  5
327
100
AcDbEntity
  8
ZUWAKU
  6
CONTINUOUS
 62
       7
100
AcDbLine
 10
-231.23614483
 20
423.41560471
 30
0.0
 11
-234.45470123
 21
420.19704831
 31
0.0
  0
LINE
  5
328
100
AcDbEntity
  8
ZUWAKU
  6
CONTINUOUS
 62
       7
100
AcDbLine
 10
-236.17429922
 20
418.47745032
 30
0.0
 11
-237.10954173
 21
417.54220781
 31
0.0
  0
LINE
  5
329
100
AcDbEntity
  8
ZUWAKU
  6
CONTINUOUS
 62
       7
100
AcDbLine
 10
-235.32577108
 20
418.47745032
 30
0.0
 11
-236.26477108
 21
417.53845032
 31
0.0
  0
LINE
  5
32A
100
AcDbEntity
  8
ZUWAKU
  6
CONTINUOUS
 62
       7
100
AcDbLine
 10
-231.02487191
 20
422.7783495
 30
0.0
 11
-232.24666899
 21
421.55655241
 31
0.0
  0
LINE
  5
32B
100
AcDbEntity
  8
ZUWAKU
  6
CONTINUOUS
 62
       7
100
AcDbLine
 10
-233.34533191
 20
420.4578895
 30
0.0
 11
-234.56712899
 21
419.23609241
 31
0.0
  0
LINE
  5
32C
100
AcDbEntity
  8
ZUWAKU
  6
CONTINUOUS
 62
       7
100
AcDbLine
 10
-231.07367448
 20
421.88101878
 30
0.0
 11
-235.41624295
 21
417.53845032
 31
0.0
  0
LINE
  5
32D
100
AcDbEntity
  8
ZUWAKU
  6
CONTINUOUS
 62
       7
100
AcDbLine
 10
-231.44220325
 20
420.66396188
 30
0.0
 11
-234.47096644
 21
417.63519869
 31
0.0
  0
LINE
  5
32E
100
AcDbEntity
  8
ZUWAKU
  6
CONTINUOUS
 62
       7
100
AcDbLine
 10
-228.27053186
 20
421.28943738
 30
0.0
 11
-232.02151892
 21
417.53845032
 31
0.0
  0
LINE
  5
32F
100
AcDbEntity
  8
ZUWAKU
  6
CONTINUOUS
 62
       7
100
AcDbLine
 10
-227.9812079
 20
423.27581762
 30
0.0
 11
-228.17690838
 21
423.08011714
 31
0.0
  0
LINE
  5
330
100
AcDbEntity
  8
ZUWAKU
  6
CONTINUOUS
 62
       7
100
AcDbLine
 10
-232.68913688
 20
418.56788864
 30
0.0
 11
-233.41827775
 21
417.83874777
 31
0.0
  0
LINE
  5
331
100
AcDbEntity
  8
ZUWAKU
  6
CONTINUOUS
 62
       7
100
AcDbLine
 10
-227.25468052
 20
423.15381686
 30
0.0
 11
-228.05490762
 21
422.35358976
 31
0.0
  0
LINE
  5
332
100
AcDbEntity
  8
ZUWAKU
  6
CONTINUOUS
 62
       7
100
AcDbLine
 10
-231.93104706
 20
418.47745032
 30
0.0
 11
-232.78648422
 21
417.62201316
 31
0.0
  0
LINE
  5
333
100
AcDbEntity
  8
ZUWAKU
  6
CONTINUOUS
 62
       7
100
AcDbLine
 10
-223.63528768
 20
420.83351274
 30
0.0
 11
-226.70360477
 21
417.76519565
 31
0.0
  0
LINE
  5
334
100
AcDbEntity
  8
ZUWAKU
  6
CONTINUOUS
 62
       7
100
AcDbLine
 10
-227.68840637
 20
418.47745032
 30
0.0
 11
-228.62740637
 21
417.53845032
 31
0.0
  0
LINE
  5
335
100
AcDbEntity
  8
ZUWAKU
  6
CONTINUOUS
 62
       7
100
AcDbLine
 10
-228.32084873
 20
418.6935361
 30
0.0
 11
-229.47593451
 21
417.53845032
 31
0.0
  0
LINE
  5
336
100
AcDbEntity
  8
ZUWAKU
  6
CONTINUOUS
 62
       7
100
AcDbLine
 10
-228.1511431
 20
419.71176987
 30
0.0
 11
-229.2934859
 21
418.56942707
 31
0.0
  0
LINE
  5
337
100
AcDbEntity
  8
ZUWAKU
  6
CONTINUOUS
 62
       7
100
AcDbLine
 10
-231.17299079
 20
417.53845032
 30
0.0
 11
-227.98143747
 21
420.73000363
 31
0.0
  0
LINE
  5
338
100
AcDbEntity
  8
ZUWAKU
  6
CONTINUOUS
 62
       7
100
AcDbLine
 10
-221.8520063
 20
420.91973784
 30
0.0
 11
-225.22764624
 21
417.54409791
 31
0.0
  0
LINE
  5
339
100
AcDbEntity
  8
ZUWAKU
  6
CONTINUOUS
 62
       7
100
AcDbLine
 10
-222.21670089
 20
419.70651512
 30
0.0
 11
-223.98406634
 21
417.93914967
 31
0.0
  0
LINE
  5
33A
100
AcDbEntity
  8
ZUWAKU
  6
CONTINUOUS
 62
       7
100
AcDbLine
 10
-222.52781536
 20
418.54687251
 30
0.0
 11
-223.53623755
 21
417.53845032
 31
0.0
  0
LINE
  5
33B
100
AcDbEntity
  8
ZUWAKU
  6
CONTINUOUS
 62
       7
100
AcDbLine
 10
-221.74870941
 20
418.47745032
 30
0.0
 11
-222.68770941
 21
417.53845032
 31
0.0
  0
LINE
  5
33C
100
AcDbEntity
  8
ZUWAKU
  6
CONTINUOUS
 62
       7
100
AcDbLine
 10
-218.74069977
 20
420.63693183
 30
0.0
 11
-221.83918127
 21
417.53845032
 31
0.0
  0
LINE
  5
33D
100
AcDbEntity
  8
ZUWAKU
  6
CONTINUOUS
 62
       7
100
AcDbLine
 10
-224.9142498
 20
420.40307876
 30
0.0
 11
-225.39651211
 21
419.92081645
 31
0.0
  0
LINE
  5
33E
100
AcDbEntity
  8
ZUWAKU
  6
CONTINUOUS
 62
       7
100
AcDbLine
 10
-226.35295508
 20
418.96437347
 30
0.0
 11
-227.77887824
 21
417.53845032
 31
0.0
  0
LINE
  5
33F
100
AcDbEntity
  8
ZUWAKU
  6
CONTINUOUS
 62
       7
100
AcDbLine
 10
-224.62781187
 20
418.99246041
 30
0.0
 11
-225.77052863
 21
417.84974365
 31
0.0
  0
LINE
  5
340
100
AcDbEntity
  8
ZUWAKU
  6
CONTINUOUS
 62
       7
100
AcDbLine
 10
-222.70053444
 20
420.91973784
 30
0.0
 11
-222.81705633
 21
420.80321595
 31
0.0
  0
LINE
  5
341
100
AcDbEntity
  8
ZUWAKU
  6
CONTINUOUS
 62
       7
100
AcDbLine
 10
-223.11039903
 20
420.50987325
 30
0.0
 11
-223.91711921
 21
419.70315307
 31
0.0
  0
LINE
  5
342
100
AcDbEntity
  8
ZUWAKU
  6
CONTINUOUS
 62
       7
100
AcDbLine
 10
-211.53893349
 20
421.050473
 30
0.0
 11
-215.05095618
 21
417.53845032
 31
0.0
  0
LINE
  5
343
100
AcDbEntity
  8
ZUWAKU
  6
CONTINUOUS
 62
       7
100
AcDbLine
 10
-204.78993062
 20
418.45520632
 30
0.0
 11
-205.70668661
 21
417.53845032
 31
0.0
  0
LINE
  5
344
100
AcDbEntity
  8
ZUWAKU
  6
CONTINUOUS
 62
       7
100
AcDbLine
 10
-205.6266748
 20
418.47745032
 30
0.0
 11
-206.5656748
 21
417.53845032
 31
0.0
  0
LINE
  5
345
100
AcDbEntity
  8
ZUWAKU
  6
CONTINUOUS
 62
       7
100
AcDbLine
 10
-206.48799439
 20
421.01024328
 30
0.0
 11
-207.36016502
 21
420.13807265
 31
0.0
  0
LINE
  5
346
100
AcDbEntity
  8
ZUWAKU
  6
CONTINUOUS
 62
       7
100
AcDbLine
 10
-206.14073115
 20
420.49851833
 30
0.0
 11
-207.00571993
 21
419.63352955
 31
0.0
  0
LINE
  5
347
100
AcDbEntity
  8
ZUWAKU
  6
CONTINUOUS
 62
       7
100
AcDbLine
 10
-207.47473627
 20
419.16451321
 30
0.0
 11
-209.10079916
 21
417.53845032
 31
0.0
  0
LINE
  5
348
100
AcDbEntity
  8
ZUWAKU
  6
CONTINUOUS
 62
       7
100
AcDbLine
 10
-207.1210442
 20
421.21526156
 30
0.0
 11
-208.7240369
 21
419.61226885
 31
0.0
  0
LINE
  5
349
100
AcDbEntity
  8
ZUWAKU
  6
CONTINUOUS
 62
       7
100
AcDbLine
 10
-209.85885544
 20
418.47745032
 30
0.0
 11
-210.79785544
 21
417.53845032
 31
0.0
  0
LINE
  5
34A
100
AcDbEntity
  8
ZUWAKU
  6
CONTINUOUS
 62
       7
100
AcDbLine
 10
-207.81101469
 20
419.68722298
 30
0.0
 11
-208.68318533
 21
418.81505234
 31
0.0
  0
LINE
  5
34B
100
AcDbEntity
  8
ZUWAKU
  6
CONTINUOUS
 62
       7
100
AcDbLine
 10
-209.02078735
 20
418.47745032
 30
0.0
 11
-209.95978735
 21
417.53845032
 31
0.0
  0
LINE
  5
34C
100
AcDbEntity
  8
ZUWAKU
  6
CONTINUOUS
 62
       7
100
AcDbLine
 10
-206.09412594
 20
419.70705545
 30
0.0
 11
-208.16476748
 21
417.63641392
 31
0.0
  0
LINE
  5
34D
100
AcDbEntity
  8
ZUWAKU
  6
CONTINUOUS
 62
       7
100
AcDbLine
 10
-206.46474289
 20
418.47745032
 30
0.0
 11
-207.33352433
 21
417.60866888
 31
0.0
  0
LINE
  5
34E
100
AcDbEntity
  8
ZUWAKU
  6
CONTINUOUS
 62
       7
100
AcDbLine
 10
-210.71784363
 20
418.47745032
 30
0.0
 11
-211.65684363
 21
417.53845032
 31
0.0
  0
LINE
  5
34F
100
AcDbEntity
  8
ZUWAKU
  6
CONTINUOUS
 62
       7
100
AcDbLine
 10
-211.55591171
 20
418.47745032
 30
0.0
 11
-212.49491171
 21
417.53845032
 31
0.0
  0
LINE
  5
350
100
AcDbEntity
  8
ZUWAKU
  6
CONTINUOUS
 62
       7
100
AcDbLine
 10
-210.96254037
 20
420.76787794
 30
0.0
 11
-211.60135218
 21
420.12906613
 31
0.0
  0
LINE
  5
351
100
AcDbEntity
  8
ZUWAKU
  6
CONTINUOUS
 62
       7
100
AcDbLine
 10
-212.33894291
 20
418.55340731
 30
0.0
 11
-212.99785539
 21
417.89449483
 31
0.0
  0
LINE
  5
352
100
AcDbEntity
  8
ZUWAKU
  6
CONTINUOUS
 62
       7
100
AcDbLine
 10
-212.765037
 20
418.96538131
 30
0.0
 11
-214.07835059
 21
417.65206772
 31
0.0
  0
LINE
  5
353
100
AcDbEntity
  8
ZUWAKU
  6
CONTINUOUS
 62
       7
100
AcDbLine
 10
-212.36090854
 20
421.06656604
 30
0.0
 11
-213.70253692
 21
419.72493766
 31
0.0
  0
LINE
  5
354
100
AcDbEntity
  8
ZUWAKU
  6
CONTINUOUS
 62
       7
100
AcDbLine
 10
-214.95002426
 20
418.47745032
 30
0.0
 11
-215.88902426
 21
417.53845032
 31
0.0
  0
LINE
  5
355
100
AcDbEntity
  8
ZUWAKU
  6
CONTINUOUS
 62
       7
100
AcDbLine
 10
-215.80901245
 20
418.47745032
 30
0.0
 11
-216.74801245
 21
417.53845032
 31
0.0
  0
LINE
  5
356
100
AcDbEntity
  8
ZUWAKU
  6
CONTINUOUS
 62
       7
100
AcDbLine
 10
-215.94987812
 20
419.17465274
 30
0.0
 11
-217.58608054
 21
417.53845032
 31
0.0
  0
LINE
  5
357
100
AcDbEntity
  8
ZUWAKU
  6
CONTINUOUS
 62
       7
100
AcDbLine
 10
-215.47128143
 20
420.51223761
 30
0.0
 11
-217.20009915
 21
418.78341989
 31
0.0
  0
LINE
  5
358
100
AcDbEntity
  8
ZUWAKU
  6
CONTINUOUS
 62
       7
100
AcDbLine
 10
-215.76220537
 20
421.06984182
 30
0.0
 11
-217.04359686
 21
419.78845032
 31
0.0
  0
LINE
  5
359
100
AcDbEntity
  8
ZUWAKU
  6
CONTINUOUS
 62
       7
100
AcDbLine
 10
-218.6803353
 20
418.15171188
 30
0.0
 11
-219.29359686
 21
417.53845032
 31
0.0
  0
LINE
  5
35A
100
AcDbEntity
  8
ZUWAKU
  6
CONTINUOUS
 62
       7
100
AcDbLine
 10
-216.579625
 20
421.10095032
 30
0.0
 11
-217.892125
 21
419.78845032
 31
0.0
  0
LINE
  5
35B
100
AcDbEntity
  8
ZUWAKU
  6
CONTINUOUS
 62
       7
100
AcDbLine
 10
-218.19546208
 20
419.48511324
 30
0.0
 11
-219.89774832
 21
417.782827
 31
0.0
  0
LINE
  5
35C
100
AcDbEntity
  8
ZUWAKU
  6
CONTINUOUS
 62
       7
100
AcDbLine
 10
-217.76122552
 20
420.76787794
 30
0.0
 11
-220.73051758
 21
417.79858588
 31
0.0
  0
LINE
  5
35D
100
AcDbEntity
  8
ZUWAKU
  6
CONTINUOUS
 62
       7
100
AcDbLine
 10
298.53468464
 20
-166.14904968
 30
0.0
 11
315.03468464
 21
-166.14904968
 31
0.0
  0
LINE
  5
35E
100
AcDbEntity
  8
ZUWAKU
  6
CONTINUOUS
 62
       7
100
AcDbLine
 10
298.53468464
 20
-151.14904968
 30
0.0
 11
315.03468464
 21
-151.14904968
 31
0.0
  0
LINE
  5
35F
100
AcDbEntity
  8
ZUWAKU
  6
CONTINUOUS
 62
       7
100
AcDbLine
 10
315.03468464
 20
-151.14904968
 30
0.0
 11
315.03468464
 21
-166.14904968
 31
0.0
  0
LINE
  5
360
100
AcDbEntity
  8
ZUWAKU
  6
CONTINUOUS
 62
       7
100
AcDbLine
 10
298.53468464
 20
-151.14904968
 30
0.0
 11
298.53468464
 21
-166.14904968
 31
0.0
  0
LINE
  5
361
100
AcDbEntity
  8
ZUWAKU
  6
CONTINUOUS
 62
       7
100
AcDbLine
 10
315.03468464
 20
-166.09682022
 30
0.0
 11
314.98245518
 21
-166.14904968
 31
0.0
  0
LINE
  5
362
100
AcDbEntity
  8
ZUWAKU
  6
CONTINUOUS
 62
       7
100
AcDbLine
 10
306.23084917
 20
-151.14904968
 30
0.0
 11
298.53468464
 21
-158.84521421
 31
0.0
  0
LINE
  5
363
100
AcDbEntity
  8
ZUWAKU
  6
CONTINUOUS
 62
       7
100
AcDbLine
 10
305.38232103
 20
-151.14904968
 30
0.0
 11
298.53468464
 21
-157.99668608
 31
0.0
  0
LINE
  5
364
100
AcDbEntity
  8
ZUWAKU
  6
CONTINUOUS
 62
       7
100
AcDbLine
 10
304.5337929
 20
-151.14904968
 30
0.0
 11
298.53468464
 21
-157.14815794
 31
0.0
  0
LINE
  5
365
100
AcDbEntity
  8
ZUWAKU
  6
CONTINUOUS
 62
       7
100
AcDbLine
 10
303.68526476
 20
-151.14904968
 30
0.0
 11
298.53468464
 21
-156.2996298
 31
0.0
  0
LINE
  5
366
100
AcDbEntity
  8
ZUWAKU
  6
CONTINUOUS
 62
       7
100
AcDbLine
 10
302.83673662
 20
-151.14904968
 30
0.0
 11
298.53468464
 21
-155.45110166
 31
0.0
  0
LINE
  5
367
100
AcDbEntity
  8
ZUWAKU
  6
CONTINUOUS
 62
       7
100
AcDbLine
 10
301.98820848
 20
-151.14904968
 30
0.0
 11
298.53468464
 21
-154.60257353
 31
0.0
  0
LINE
  5
368
100
AcDbEntity
  8
ZUWAKU
  6
CONTINUOUS
 62
       7
100
AcDbLine
 10
301.13968035
 20
-151.14904968
 30
0.0
 11
298.53468464
 21
-153.75404539
 31
0.0
  0
LINE
  5
369
100
AcDbEntity
  8
ZUWAKU
  6
CONTINUOUS
 62
       7
100
AcDbLine
 10
300.29115221
 20
-151.14904968
 30
0.0
 11
298.53468464
 21
-152.90551725
 31
0.0
  0
LINE
  5
36A
100
AcDbEntity
  8
ZUWAKU
  6
CONTINUOUS
 62
       7
100
AcDbLine
 10
299.44262407
 20
-151.14904968
 30
0.0
 11
298.53468464
 21
-152.05698911
 31
0.0
  0
LINE
  5
36B
100
AcDbEntity
  8
ZUWAKU
  6
CONTINUOUS
 62
       7
100
AcDbLine
 10
307.07937731
 20
-151.14904968
 30
0.0
 11
298.53468464
 21
-159.69374235
 31
0.0
  0
LINE
  5
36C
100
AcDbEntity
  8
ZUWAKU
  6
CONTINUOUS
 62
       7
100
AcDbLine
 10
307.92790545
 20
-151.14904968
 30
0.0
 11
298.53468464
 21
-160.54227049
 31
0.0
  0
LINE
  5
36D
100
AcDbEntity
  8
ZUWAKU
  6
CONTINUOUS
 62
       7
100
AcDbLine
 10
308.77643358
 20
-151.14904968
 30
0.0
 11
298.53468464
 21
-161.39079862
 31
0.0
  0
LINE
  5
36E
100
AcDbEntity
  8
ZUWAKU
  6
CONTINUOUS
 62
       7
100
AcDbLine
 10
309.62496172
 20
-151.14904968
 30
0.0
 11
298.53468464
 21
-162.23932676
 31
0.0
  0
LINE
  5
36F
100
AcDbEntity
  8
ZUWAKU
  6
CONTINUOUS
 62
       7
100
AcDbLine
 10
310.47348986
 20
-151.14904968
 30
0.0
 11
298.53468464
 21
-163.0878549
 31
0.0
  0
LINE
  5
370
100
AcDbEntity
  8
ZUWAKU
  6
CONTINUOUS
 62
       7
100
AcDbLine
 10
311.322018
 20
-151.14904968
 30
0.0
 11
298.53468464
 21
-163.93638304
 31
0.0
  0
LINE
  5
371
100
AcDbEntity
  8
ZUWAKU
  6
CONTINUOUS
 62
       7
100
AcDbLine
 10
312.17054613
 20
-151.14904968
 30
0.0
 11
298.53468464
 21
-164.78491117
 31
0.0
  0
LINE
  5
372
100
AcDbEntity
  8
ZUWAKU
  6
CONTINUOUS
 62
       7
100
AcDbLine
 10
313.01907427
 20
-151.14904968
 30
0.0
 11
298.53468464
 21
-165.63343931
 31
0.0
  0
LINE
  5
373
100
AcDbEntity
  8
ZUWAKU
  6
CONTINUOUS
 62
       7
100
AcDbLine
 10
313.86760241
 20
-151.14904968
 30
0.0
 11
298.86760241
 21
-166.14904968
 31
0.0
  0
LINE
  5
374
100
AcDbEntity
  8
ZUWAKU
  6
CONTINUOUS
 62
       7
100
AcDbLine
 10
314.71613055
 20
-151.14904968
 30
0.0
 11
299.71613055
 21
-166.14904968
 31
0.0
  0
LINE
  5
375
100
AcDbEntity
  8
ZUWAKU
  6
CONTINUOUS
 62
       7
100
AcDbLine
 10
315.03468464
 20
-151.67902372
 30
0.0
 11
300.56465868
 21
-166.14904968
 31
0.0
  0
LINE
  5
376
100
AcDbEntity
  8
ZUWAKU
  6
CONTINUOUS
 62
       7
100
AcDbLine
 10
315.03468464
 20
-152.52755186
 30
0.0
 11
301.41318682
 21
-166.14904968
 31
0.0
  0
LINE
  5
377
100
AcDbEntity
  8
ZUWAKU
  6
CONTINUOUS
 62
       7
100
AcDbLine
 10
315.03468464
 20
-153.37608
 30
0.0
 11
302.26171496
 21
-166.14904968
 31
0.0
  0
LINE
  5
378
100
AcDbEntity
  8
ZUWAKU
  6
CONTINUOUS
 62
       7
100
AcDbLine
 10
315.03468464
 20
-154.22460814
 30
0.0
 11
303.1102431
 21
-166.14904968
 31
0.0
  0
LINE
  5
379
100
AcDbEntity
  8
ZUWAKU
  6
CONTINUOUS
 62
       7
100
AcDbLine
 10
315.03468464
 20
-155.07313627
 30
0.0
 11
303.95877123
 21
-166.14904968
 31
0.0
  0
LINE
  5
37A
100
AcDbEntity
  8
ZUWAKU
  6
CONTINUOUS
 62
       7
100
AcDbLine
 10
315.03468464
 20
-155.92166441
 30
0.0
 11
304.80729937
 21
-166.14904968
 31
0.0
  0
LINE
  5
37B
100
AcDbEntity
  8
ZUWAKU
  6
CONTINUOUS
 62
       7
100
AcDbLine
 10
315.03468464
 20
-156.77019255
 30
0.0
 11
305.65582751
 21
-166.14904968
 31
0.0
  0
LINE
  5
37C
100
AcDbEntity
  8
ZUWAKU
  6
CONTINUOUS
 62
       7
100
AcDbLine
 10
315.03468464
 20
-157.61872069
 30
0.0
 11
306.50435565
 21
-166.14904968
 31
0.0
  0
LINE
  5
37D
100
AcDbEntity
  8
ZUWAKU
  6
CONTINUOUS
 62
       7
100
AcDbLine
 10
315.03468464
 20
-158.46724882
 30
0.0
 11
307.35288378
 21
-166.14904968
 31
0.0
  0
LINE
  5
37E
100
AcDbEntity
  8
ZUWAKU
  6
CONTINUOUS
 62
       7
100
AcDbLine
 10
315.03468464
 20
-159.31577696
 30
0.0
 11
308.20141192
 21
-166.14904968
 31
0.0
  0
LINE
  5
37F
100
AcDbEntity
  8
ZUWAKU
  6
CONTINUOUS
 62
       7
100
AcDbLine
 10
315.03468464
 20
-160.1643051
 30
0.0
 11
309.04994006
 21
-166.14904968
 31
0.0
  0
LINE
  5
380
100
AcDbEntity
  8
ZUWAKU
  6
CONTINUOUS
 62
       7
100
AcDbLine
 10
315.03468464
 20
-161.01283324
 30
0.0
 11
309.89846819
 21
-166.14904968
 31
0.0
  0
LINE
  5
381
100
AcDbEntity
  8
ZUWAKU
  6
CONTINUOUS
 62
       7
100
AcDbLine
 10
315.03468464
 20
-161.86136137
 30
0.0
 11
310.74699633
 21
-166.14904968
 31
0.0
  0
LINE
  5
382
100
AcDbEntity
  8
ZUWAKU
  6
CONTINUOUS
 62
       7
100
AcDbLine
 10
315.03468464
 20
-162.70988951
 30
0.0
 11
311.59552447
 21
-166.14904968
 31
0.0
  0
LINE
  5
383
100
AcDbEntity
  8
ZUWAKU
  6
CONTINUOUS
 62
       7
100
AcDbLine
 10
315.03468464
 20
-163.55841765
 30
0.0
 11
312.44405261
 21
-166.14904968
 31
0.0
  0
LINE
  5
384
100
AcDbEntity
  8
ZUWAKU
  6
CONTINUOUS
 62
       7
100
AcDbLine
 10
315.03468464
 20
-164.40694579
 30
0.0
 11
313.29258074
 21
-166.14904968
 31
0.0
  0
LINE
  5
385
100
AcDbEntity
  8
ZUWAKU
  6
CONTINUOUS
 62
       7
100
AcDbLine
 10
315.03468464
 20
-165.25547392
 30
0.0
 11
314.14110888
 21
-166.14904968
 31
0.0
  0
LINE
  5
386
100
AcDbEntity
  8
ZUWAKU
  6
CONTINUOUS
 62
       7
100
AcDbLine
 10
315.03468464
 20
-166.10400206
 30
0.0
 11
314.98963702
 21
-166.14904968
 31
0.0
  0
LINE
  5
387
100
AcDbEntity
  8
ZUWAKU
  6
CONTINUOUS
 62
       7
100
AcDbLine
 10
-273.90281536
 20
400.19503891
 30
0.0
 11
283.15968464
 21
400.19503891
 31
0.0
  0
LINE
  5
388
100
AcDbEntity
  8
ZUWAKU
  6
CONTINUOUS
 62
       7
100
AcDbLine
 10
-273.15281536
 20
-423.39904968
 30
0.0
 11
280.15968464
 21
-423.39904968
 31
0.0
  0
LINE
  5
389
100
AcDbEntity
  8
ZUWAKU
  6
CONTINUOUS
 62
       7
100
AcDbLine
 10
-273.15281536
 20
-387.21154968
 30
0.0
 11
280.15968464
 21
-387.21154968
 31
0.0
  0
LINE
  5
38A
100
AcDbEntity
  8
ZUWAKU
  6
CONTINUOUS
 62
       7
100
AcDbLine
 10
-273.15281536
 20
-382.14904968
 30
0.0
 11
280.15968464
 21
-382.14904968
 31
0.0
  0
LINE
  5
38B
100
AcDbEntity
  8
ZUWAKU
  6
CONTINUOUS
 62
       7
100
AcDbLine
 10
-273.15281536
 20
-232.14904968
 30
0.0
 11
280.15968464
 21
-232.14904968
 31
0.0
  0
ELLIPSE
  5
38C
100
AcDbEntity
  8
ZUWAKU
  6
CONTINUOUS
 62
       7
100
AcDbEllipse
 10
-230.49656536
 20
421.18806329
 30
0.0
 11
-38.343749999999972
 21
0.0000000000004547
 31
0.0
210
0.0
220
0.0
230
1.0
 40
0.40365317
 41
0.0
 42
6.2831853071796004
  0
LINE
  5
38D
100
AcDbEntity
  8
ZUWAKU
  6
CONTINUOUS
 62
       7
100
AcDbLine
 10
-261.34031536
 20
428.60095032
 30
0.0
 11
-261.34031536
 21
413.97595032
 31
0.0
  0
LINE
  5
38E
100
AcDbEntity
  8
ZUWAKU
  6
CONTINUOUS
 62
       7
100
AcDbLine
 10
-199.46531536
 20
428.60095032
 30
0.0
 11
-199.46531536
 21
413.97595032
 31
0.0
  0
LINE
  5
38F
100
AcDbEntity
  8
ZUWAKU
  6
CONTINUOUS
 62
       7
100
AcDbLine
 10
-261.34031536
 20
428.60095032
 30
0.0
 11
-199.46531536
 21
428.60095032
 31
0.0
  0
LINE
  5
390
100
AcDbEntity
  8
ZUWAKU
  6
CONTINUOUS
 62
       7
100
AcDbLine
 10
-261.34031536
 20
413.97595032
 30
0.0
 11
-199.46531536
 21
413.97595032
 31
0.0
  0
LINE
  5
391
100
AcDbEntity
  8
ZUWAKU
  6
CONTINUOUS
 62
       7
100
AcDbLine
 10
-234.31812071
 20
436.58857645
 30
0.0
 11
-242.30574685
 21
428.60095032
 31
0.0
  0
LINE
  5
392
100
AcDbEntity
  8
ZUWAKU
  6
CONTINUOUS
 62
       7
100
AcDbLine
 10
-235.20681026
 20
436.54841504
 30
0.0
 11
-243.15427498
 21
428.60095032
 31
0.0
  0
LINE
  5
393
100
AcDbEntity
  8
ZUWAKU
  6
CONTINUOUS
 62
       7
100
AcDbLine
 10
-236.10454637
 20
436.49920707
 30
0.0
 11
-244.00280312
 21
428.60095032
 31
0.0
  0
LINE
  5
394
100
AcDbEntity
  8
ZUWAKU
  6
CONTINUOUS
 62
       7
100
AcDbLine
 10
-237.0117029
 20
436.44057867
 30
0.0
 11
-244.85133126
 21
428.60095032
 31
0.0
  0
LINE
  5
395
100
AcDbEntity
  8
ZUWAKU
  6
CONTINUOUS
 62
       7
100
AcDbLine
 10
-237.92869737
 20
436.37211235
 30
0.0
 11
-245.6998594
 21
428.60095032
 31
0.0
  0
LINE
  5
396
100
AcDbEntity
  8
ZUWAKU
  6
CONTINUOUS
 62
       7
100
AcDbLine
 10
-238.85599765
 20
436.2933402
 30
0.0
 11
-246.54838753
 21
428.60095032
 31
0.0
  0
LINE
  5
397
100
AcDbEntity
  8
ZUWAKU
  6
CONTINUOUS
 62
       7
100
AcDbLine
 10
-239.79413014
 20
436.20373585
 30
0.0
 11
-247.39691567
 21
428.60095032
 31
0.0
  0
LINE
  5
398
100
AcDbEntity
  8
ZUWAKU
  6
CONTINUOUS
 62
       7
100
AcDbLine
 10
-240.74368969
 20
436.10270444
 30
0.0
 11
-248.24544381
 21
428.60095032
 31
0.0
  0
LINE
  5
399
100
AcDbEntity
  8
ZUWAKU
  6
CONTINUOUS
 62
       7
100
AcDbLine
 10
-241.70535199
 20
435.98957027
 30
0.0
 11
-249.09397195
 21
428.60095032
 31
0.0
  0
LINE
  5
39A
100
AcDbEntity
  8
ZUWAKU
  6
CONTINUOUS
 62
       7
100
AcDbLine
 10
-242.679889
 20
435.8635614
 30
0.0
 11
-249.94250008
 21
428.60095032
 31
0.0
  0
LINE
  5
39B
100
AcDbEntity
  8
ZUWAKU
  6
CONTINUOUS
 62
       7
100
AcDbLine
 10
-243.66818852
 20
435.72379002
 30
0.0
 11
-250.79102822
 21
428.60095032
 31
0.0
  0
LINE
  5
39C
100
AcDbEntity
  8
ZUWAKU
  6
CONTINUOUS
 62
       7
100
AcDbLine
 10
-244.6712793
 20
435.56922737
 30
0.0
 11
-251.63955636
 21
428.60095032
 31
0.0
  0
LINE
  5
39D
100
AcDbEntity
  8
ZUWAKU
  6
CONTINUOUS
 62
       7
100
AcDbLine
 10
-245.69036375
 20
435.39867106
 30
0.0
 11
-252.4880845
 21
428.60095032
 31
0.0
  0
LINE
  5
39E
100
AcDbEntity
  8
ZUWAKU
  6
CONTINUOUS
 62
       7
100
AcDbLine
 10
-246.72686119
 20
435.21070176
 30
0.0
 11
-253.33661263
 21
428.60095032
 31
0.0
  0
LINE
  5
39F
100
AcDbEntity
  8
ZUWAKU
  6
CONTINUOUS
 62
       7
100
AcDbLine
 10
-247.7824663
 20
435.00362479
 30
0.0
 11
-254.18514077
 21
428.60095032
 31
0.0
  0
LINE
  5
3A0
100
AcDbEntity
  8
ZUWAKU
  6
CONTINUOUS
 62
       7
100
AcDbLine
 10
-261.34031536
 20
421.44577573
 30
0.0
 11
-261.49764077
 21
421.28845032
 31
0.0
  0
LINE
  5
3A1
100
AcDbEntity
  8
ZUWAKU
  6
CONTINUOUS
 62
       7
100
AcDbLine
 10
-248.8592297
 20
434.77538953
 30
0.0
 11
-255.03366891
 21
428.60095032
 31
0.0
  0
LINE
  5
3A2
100
AcDbEntity
  8
ZUWAKU
  6
CONTINUOUS
 62
       7
100
AcDbLine
 10
-261.34031536
 20
422.29430387
 30
0.0
 11
-262.34616891
 21
421.28845032
 31
0.0
  0
LINE
  5
3A3
100
AcDbEntity
  8
ZUWAKU
  6
CONTINUOUS
 62
       7
100
AcDbLine
 10
-249.95967199
 20
434.52347538
 30
0.0
 11
-255.88219705
 21
428.60095032
 31
0.0
  0
LINE
  5
3A4
100
AcDbEntity
  8
ZUWAKU
  6
CONTINUOUS
 62
       7
100
AcDbLine
 10
-261.34031536
 20
423.142832
 30
0.0
 11
-263.19469705
 21
421.28845032
 31
0.0
  0
LINE
  5
3A5
100
AcDbEntity
  8
ZUWAKU
  6
CONTINUOUS
 62
       7
100
AcDbLine
 10
-251.08694995
 20
434.24472555
 30
0.0
 11
-256.73072518
 21
428.60095032
 31
0.0
  0
LINE
  5
3A6
100
AcDbEntity
  8
ZUWAKU
  6
CONTINUOUS
 62
       7
100
AcDbLine
 10
-261.34031536
 20
423.99136014
 30
0.0
 11
-264.04322518
 21
421.28845032
 31
0.0
  0
LINE
  5
3A7
100
AcDbEntity
  8
ZUWAKU
  6
CONTINUOUS
 62
       7
100
AcDbLine
 10
-252.24510762
 20
433.93509602
 30
0.0
 11
-257.57925332
 21
428.60095032
 31
0.0
  0
LINE
  5
3A8
100
AcDbEntity
  8
ZUWAKU
  6
CONTINUOUS
 62
       7
100
AcDbLine
 10
-261.34031536
 20
424.83988828
 30
0.0
 11
-264.89175332
 21
421.28845032
 31
0.0
  0
LINE
  5
3A9
100
AcDbEntity
  8
ZUWAKU
  6
CONTINUOUS
 62
       7
100
AcDbLine
 10
-253.43947211
 20
433.58925966
 30
0.0
 11
-258.42778146
 21
428.60095032
 31
0.0
  0
LINE
  5
3AA
100
AcDbEntity
  8
ZUWAKU
  6
CONTINUOUS
 62
       7
100
AcDbLine
 10
-261.34031536
 20
425.68841642
 30
0.0
 11
-265.74028146
 21
421.28845032
 31
0.0
  0
LINE
  5
3AB
100
AcDbEntity
  8
ZUWAKU
  6
CONTINUOUS
 62
       7
100
AcDbLine
 10
-254.67731208
 20
433.19994783
 30
0.0
 11
-259.2763096
 21
428.60095032
 31
0.0
  0
LINE
  5
3AC
100
AcDbEntity
  8
ZUWAKU
  6
CONTINUOUS
 62
       7
100
AcDbLine
 10
-261.34031536
 20
426.53694455
 30
0.0
 11
-266.5888096
 21
421.28845032
 31
0.0
  0
LINE
  5
3AD
100
AcDbEntity
  8
ZUWAKU
  6
CONTINUOUS
 62
       7
100
AcDbLine
 10
-255.96900982
 20
432.75677823
 30
0.0
 11
-260.12483773
 21
428.60095032
 31
0.0
  0
LINE
  5
3AE
100
AcDbEntity
  8
ZUWAKU
  6
CONTINUOUS
 62
       7
100
AcDbLine
 10
-261.34031536
 20
427.38547269
 30
0.0
 11
-267.43733773
 21
421.28845032
 31
0.0
  0
LINE
  5
3AF
100
AcDbEntity
  8
ZUWAKU
  6
CONTINUOUS
 62
       7
100
AcDbLine
 10
-257.33034469
 20
432.2439715
 30
0.0
 11
-260.97336587
 21
428.60095032
 31
0.0
  0
LINE
  5
3B0
100
AcDbEntity
  8
ZUWAKU
  6
CONTINUOUS
 62
       7
100
AcDbLine
 10
-261.34031536
 20
428.23400083
 30
0.0
 11
-268.28586587
 21
421.28845032
 31
0.0
  0
LINE
  5
3B1
100
AcDbEntity
  8
ZUWAKU
  6
CONTINUOUS
 62
       7
100
AcDbLine
 10
-258.78753798
 20
431.63530634
 30
0.0
 11
-268.8270054
 21
421.59583892
 31
0.0
  0
LINE
  5
3B2
100
AcDbEntity
  8
ZUWAKU
  6
CONTINUOUS
 62
       7
100
AcDbLine
 10
-260.39074868
 20
430.88062379
 30
0.0
 11
-268.6830809
 21
422.58829156
 31
0.0
  0
LINE
  5
3B3
100
AcDbEntity
  8
ZUWAKU
  6
CONTINUOUS
 62
       7
100
AcDbLine
 10
-262.26486285
 20
429.85503775
 30
0.0
 11
-268.26825292
 21
423.85164768
 31
0.0
  0
LINE
  5
3B4
100
AcDbEntity
  8
ZUWAKU
  6
CONTINUOUS
 62
       7
100
AcDbLine
 10
-265.18616063
 20
427.78226811
 30
0.0
 11
-266.80624134
 21
426.1621874
 31
0.0
  0
LINE
  5
3B5
100
AcDbEntity
  8
ZUWAKU
  6
CONTINUOUS
 62
       7
100
AcDbLine
 10
-233.43814202
 20
436.62002701
 30
0.0
 11
-241.45721871
 21
428.60095032
 31
0.0
  0
LINE
  5
3B6
100
AcDbEntity
  8
ZUWAKU
  6
CONTINUOUS
 62
       7
100
AcDbLine
 10
-232.56657196
 20
436.64306893
 30
0.0
 11
-240.60869057
 21
428.60095032
 31
0.0
  0
LINE
  5
3B7
100
AcDbEntity
  8
ZUWAKU
  6
CONTINUOUS
 62
       7
100
AcDbLine
 10
-231.70313793
 20
436.65797482
 30
0.0
 11
-239.76016243
 21
428.60095032
 31
0.0
  0
LINE
  5
3B8
100
AcDbEntity
  8
ZUWAKU
  6
CONTINUOUS
 62
       7
100
AcDbLine
 10
-230.84759364
 20
436.66499098
 30
0.0
 11
-238.9116343
 21
428.60095032
 31
0.0
  0
LINE
  5
3B9
100
AcDbEntity
  8
ZUWAKU
  6
CONTINUOUS
 62
       7
100
AcDbLine
 10
-229.99971632
 20
436.66434015
 30
0.0
 11
-238.06310616
 21
428.60095032
 31
0.0
  0
LINE
  5
3BA
100
AcDbEntity
  8
ZUWAKU
  6
CONTINUOUS
 62
       7
100
AcDbLine
 10
-229.15930437
 20
436.65622397
 30
0.0
 11
-237.21457802
 21
428.60095032
 31
0.0
  0
LINE
  5
3BB
100
AcDbEntity
  8
ZUWAKU
  6
CONTINUOUS
 62
       7
100
AcDbLine
 10
-228.32617525
 20
436.64082496
 30
0.0
 11
-236.36604988
 21
428.60095032
 31
0.0
  0
LINE
  5
3BC
100
AcDbEntity
  8
ZUWAKU
  6
CONTINUOUS
 62
       7
100
AcDbLine
 10
-227.50016378
 20
436.61830828
 30
0.0
 11
-235.51752175
 21
428.60095032
 31
0.0
  0
LINE
  5
3BD
100
AcDbEntity
  8
ZUWAKU
  6
CONTINUOUS
 62
       7
100
AcDbLine
 10
-226.68112061
 20
436.58882331
 30
0.0
 11
-234.66899361
 21
428.60095032
 31
0.0
  0
LINE
  5
3BE
100
AcDbEntity
  8
ZUWAKU
  6
CONTINUOUS
 62
       7
100
AcDbLine
 10
-225.8689109
 20
436.55250489
 30
0.0
 11
-233.82046547
 21
428.60095032
 31
0.0
  0
LINE
  5
3BF
100
AcDbEntity
  8
ZUWAKU
  6
CONTINUOUS
 62
       7
100
AcDbLine
 10
-225.06341319
 20
436.50947446
 30
0.0
 11
-232.97193733
 21
428.60095032
 31
0.0
  0
LINE
  5
3C0
100
AcDbEntity
  8
ZUWAKU
  6
CONTINUOUS
 62
       7
100
AcDbLine
 10
-224.26451842
 20
436.45984109
 30
0.0
 11
-232.1234092
 21
428.60095032
 31
0.0
  0
LINE
  5
3C1
100
AcDbEntity
  8
ZUWAKU
  6
CONTINUOUS
 62
       7
100
AcDbLine
 10
-223.47212908
 20
436.4037023
 30
0.0
 11
-231.27488106
 21
428.60095032
 31
0.0
  0
LINE
  5
3C2
100
AcDbEntity
  8
ZUWAKU
  6
CONTINUOUS
 62
       7
100
AcDbLine
 10
-222.68615846
 20
436.34114478
 30
0.0
 11
-230.42635292
 21
428.60095032
 31
0.0
  0
LINE
  5
3C3
100
AcDbEntity
  8
ZUWAKU
  6
CONTINUOUS
 62
       7
100
AcDbLine
 10
-221.90653004
 20
436.27224506
 30
0.0
 11
-229.57782479
 21
428.60095032
 31
0.0
  0
LINE
  5
3C4
100
AcDbEntity
  8
ZUWAKU
  6
CONTINUOUS
 62
       7
100
AcDbLine
 10
-221.13317694
 20
436.19707003
 30
0.0
 11
-228.72929665
 21
428.60095032
 31
0.0
  0
LINE
  5
3C5
100
AcDbEntity
  8
ZUWAKU
  6
CONTINUOUS
 62
       7
100
AcDbLine
 10
-220.36604143
 20
436.1156774
 30
0.0
 11
-227.88076851
 21
428.60095032
 31
0.0
  0
LINE
  5
3C6
100
AcDbEntity
  8
ZUWAKU
  6
CONTINUOUS
 62
       7
100
AcDbLine
 10
-219.60507456
 20
436.02811613
 30
0.0
 11
-227.03224037
 21
428.60095032
 31
0.0
  0
LINE
  5
3C7
100
AcDbEntity
  8
ZUWAKU
  6
CONTINUOUS
 62
       7
100
AcDbLine
 10
-218.85023582
 20
435.93442673
 30
0.0
 11
-226.18371224
 21
428.60095032
 31
0.0
  0
LINE
  5
3C8
100
AcDbEntity
  8
ZUWAKU
  6
CONTINUOUS
 62
       7
100
AcDbLine
 10
-218.1014929
 20
435.83464152
 30
0.0
 11
-225.3351841
 21
428.60095032
 31
0.0
  0
LINE
  5
3C9
100
AcDbEntity
  8
ZUWAKU
  6
CONTINUOUS
 62
       7
100
AcDbLine
 10
-217.35882144
 20
435.72878484
 30
0.0
 11
-224.48665596
 21
428.60095032
 31
0.0
  0
LINE
  5
3CA
100
AcDbEntity
  8
ZUWAKU
  6
CONTINUOUS
 62
       7
100
AcDbLine
 10
-216.62220492
 20
435.61687323
 30
0.0
 11
-223.63812782
 21
428.60095032
 31
0.0
  0
LINE
  5
3CB
100
AcDbEntity
  8
ZUWAKU
  6
CONTINUOUS
 62
       7
100
AcDbLine
 10
-215.89163449
 20
435.49891551
 30
0.0
 11
-222.78959969
 21
428.60095032
 31
0.0
  0
LINE
  5
3CC
100
AcDbEntity
  8
ZUWAKU
  6
CONTINUOUS
 62
       7
100
AcDbLine
 10
-215.167109
 20
435.37491287
 30
0.0
 11
-221.94107155
 21
428.60095032
 31
0.0
  0
LINE
  5
3CD
100
AcDbEntity
  8
ZUWAKU
  6
CONTINUOUS
 62
       7
100
AcDbLine
 10
-214.44863491
 20
435.24485882
 30
0.0
 11
-221.09254341
 21
428.60095032
 31
0.0
  0
LINE
  5
3CE
100
AcDbEntity
  8
ZUWAKU
  6
CONTINUOUS
 62
       7
100
AcDbLine
 10
-213.73622638
 20
435.10873921
 30
0.0
 11
-220.24401527
 21
428.60095032
 31
0.0
  0
LINE
  5
3CF
100
AcDbEntity
  8
ZUWAKU
  6
CONTINUOUS
 62
       7
100
AcDbLine
 10
-213.02990536
 20
434.96653209
 30
0.0
 11
-219.39548714
 21
428.60095032
 31
0.0
  0
LINE
  5
3D0
100
AcDbEntity
  8
ZUWAKU
  6
CONTINUOUS
 62
       7
100
AcDbLine
 10
-212.3297017
 20
434.81820761
 30
0.0
 11
-218.546959
 21
428.60095032
 31
0.0
  0
LINE
  5
3D1
100
AcDbEntity
  8
ZUWAKU
  6
CONTINUOUS
 62
       7
100
AcDbLine
 10
-211.63565337
 20
434.66372781
 30
0.0
 11
-217.69843086
 21
428.60095032
 31
0.0
  0
LINE
  5
3D2
100
AcDbEntity
  8
ZUWAKU
  6
CONTINUOUS
 62
       7
100
AcDbLine
 10
-210.94780669
 20
434.50304636
 30
0.0
 11
-216.84990272
 21
428.60095032
 31
0.0
  0
LINE
  5
3D3
100
AcDbEntity
  8
ZUWAKU
  6
CONTINUOUS
 62
       7
100
AcDbLine
 10
-210.26621665
 20
434.33610826
 30
0.0
 11
-216.00137459
 21
428.60095032
 31
0.0
  0
LINE
  5
3D4
100
AcDbEntity
  8
ZUWAKU
  6
CONTINUOUS
 62
       7
100
AcDbLine
 10
-209.59094729
 20
434.16284948
 30
0.0
 11
-215.15284645
 21
428.60095032
 31
0.0
  0
LINE
  5
3D5
100
AcDbEntity
  8
ZUWAKU
  6
CONTINUOUS
 62
       7
100
AcDbLine
 10
-208.92207212
 20
433.98319651
 30
0.0
 11
-214.30431831
 21
428.60095032
 31
0.0
  0
LINE
  5
3D6
100
AcDbEntity
  8
ZUWAKU
  6
CONTINUOUS
 62
       7
100
AcDbLine
 10
-208.25967466
 20
433.79706584
 30
0.0
 11
-213.45579017
 21
428.60095032
 31
0.0
  0
LINE
  5
3D7
100
AcDbEntity
  8
ZUWAKU
  6
CONTINUOUS
 62
       7
100
AcDbLine
 10
-207.60384902
 20
433.60436334
 30
0.0
 11
-212.60726204
 21
428.60095032
 31
0.0
  0
LINE
  5
3D8
100
AcDbEntity
  8
ZUWAKU
  6
CONTINUOUS
 62
       7
100
AcDbLine
 10
-206.95470063
 20
433.40498358
 30
0.0
 11
-211.7587339
 21
428.60095032
 31
0.0
  0
LINE
  5
3D9
100
AcDbEntity
  8
ZUWAKU
  6
CONTINUOUS
 62
       7
100
AcDbLine
 10
-206.31234706
 20
433.19880902
 30
0.0
 11
-210.91020576
 21
428.60095032
 31
0.0
  0
LINE
  5
3DA
100
AcDbEntity
  8
ZUWAKU
  6
CONTINUOUS
 62
       7
100
AcDbLine
 10
-205.67691893
 20
432.98570901
 30
0.0
 11
-210.06167762
 21
428.60095032
 31
0.0
  0
LINE
  5
3DB
100
AcDbEntity
  8
ZUWAKU
  6
CONTINUOUS
 62
       7
100
AcDbLine
 10
-205.048561
 20
432.7655388
 30
0.0
 11
-209.21314949
 21
428.60095032
 31
0.0
  0
LINE
  5
3DC
100
AcDbEntity
  8
ZUWAKU
  6
CONTINUOUS
 62
       7
100
AcDbLine
 10
-204.42743345
 20
432.53813822
 30
0.0
 11
-208.36462135
 21
428.60095032
 31
0.0
  0
LINE
  5
3DD
100
AcDbEntity
  8
ZUWAKU
  6
CONTINUOUS
 62
       7
100
AcDbLine
 10
-203.81371331
 20
432.30333022
 30
0.0
 11
-207.51609321
 21
428.60095032
 31
0.0
  0
LINE
  5
3DE
100
AcDbEntity
  8
ZUWAKU
  6
CONTINUOUS
 62
       7
100
AcDbLine
 10
-203.20759613
 20
432.06091926
 30
0.0
 11
-206.66756507
 21
428.60095032
 31
0.0
  0
LINE
  5
3DF
100
AcDbEntity
  8
ZUWAKU
  6
CONTINUOUS
 62
       7
100
AcDbLine
 10
-202.60929795
 20
431.8106893
 30
0.0
 11
-205.81903694
 21
428.60095032
 31
0.0
  0
LINE
  5
3E0
100
AcDbEntity
  8
ZUWAKU
  6
CONTINUOUS
 62
       7
100
AcDbLine
 10
-202.01905757
 20
431.55240155
 30
0.0
 11
-204.9705088
 21
428.60095032
 31
0.0
  0
LINE
  5
3E1
100
AcDbEntity
  8
ZUWAKU
  6
CONTINUOUS
 62
       7
100
AcDbLine
 10
-201.43713919
 20
431.28579179
 30
0.0
 11
-204.12198066
 21
428.60095032
 31
0.0
  0
LINE
  5
3E2
100
AcDbEntity
  8
ZUWAKU
  6
CONTINUOUS
 62
       7
100
AcDbLine
 10
-200.86383555
 20
431.01056729
 30
0.0
 11
-203.27345253
 21
428.60095032
 31
0.0
  0
LINE
  5
3E3
100
AcDbEntity
  8
ZUWAKU
  6
CONTINUOUS
 62
       7
100
AcDbLine
 10
-200.29947164
 20
430.72640306
 30
0.0
 11
-202.42492439
 21
428.60095032
 31
0.0
  0
LINE
  5
3E4
100
AcDbEntity
  8
ZUWAKU
  6
CONTINUOUS
 62
       7
100
AcDbLine
 10
-199.74440907
 20
430.4329375
 30
0.0
 11
-201.57639625
 21
428.60095032
 31
0.0
  0
LINE
  5
3E5
100
AcDbEntity
  8
ZUWAKU
  6
CONTINUOUS
 62
       7
100
AcDbLine
 10
-199.19905129
 20
430.12976714
 30
0.0
 11
-200.72786811
 21
428.60095032
 31
0.0
  0
LINE
  5
3E6
100
AcDbEntity
  8
ZUWAKU
  6
CONTINUOUS
 62
       7
100
AcDbLine
 10
-198.66384995
 20
429.81644035
 30
0.0
 11
-199.87933998
 21
428.60095032
 31
0.0
  0
LINE
  5
3E7
100
AcDbEntity
  8
ZUWAKU
  6
CONTINUOUS
 62
       7
100
AcDbLine
 10
-198.13931251
 20
429.49244964
 30
0.0
 11
-199.46531536
 21
428.1664468
 31
0.0
  0
LINE
  5
3E8
100
AcDbEntity
  8
ZUWAKU
  6
CONTINUOUS
 62
       7
100
AcDbLine
 10
-197.62601164
 20
429.15722238
 30
0.0
 11
-199.46531536
 21
427.31791866
 31
0.0
  0
LINE
  5
3E9
100
AcDbEntity
  8
ZUWAKU
  6
CONTINUOUS
 62
       7
100
AcDbLine
 10
-197.12459673
 20
428.81010915
 30
0.0
 11
-199.46531536
 21
426.46939052
 31
0.0
  0
LINE
  5
3EA
100
AcDbEntity
  8
ZUWAKU
  6
CONTINUOUS
 62
       7
100
AcDbLine
 10
-196.63580833
 20
428.45036941
 30
0.0
 11
-199.46531536
 21
425.62086238
 31
0.0
  0
LINE
  5
3EB
100
AcDbEntity
  8
ZUWAKU
  6
CONTINUOUS
 62
       7
100
AcDbLine
 10
-196.16049632
 20
428.07715329
 30
0.0
 11
-199.46531536
 21
424.77233425
 31
0.0
  0
LINE
  5
3EC
100
AcDbEntity
  8
ZUWAKU
  6
CONTINUOUS
 62
       7
100
AcDbLine
 10
-195.69964313
 20
427.68947834
 30
0.0
 11
-199.46531536
 21
423.92380611
 31
0.0
  0
LINE
  5
3ED
100
AcDbEntity
  8
ZUWAKU
  6
CONTINUOUS
 62
       7
100
AcDbLine
 10
-195.25439382
 20
427.28619951
 30
0.0
 11
-199.46531536
 21
423.07527797
 31
0.0
  0
LINE
  5
3EE
100
AcDbEntity
  8
ZUWAKU
  6
CONTINUOUS
 62
       7
100
AcDbLine
 10
-194.82609577
 20
426.86596943
 30
0.0
 11
-199.46531536
 21
422.22674983
 31
0.0
  0
LINE
  5
3EF
100
AcDbEntity
  8
ZUWAKU
  6
CONTINUOUS
 62
       7
100
AcDbLine
 10
-194.41635178
 20
426.42718527
 30
0.0
 11
-199.46531536
 21
421.3782217
 31
0.0
  0
LINE
  5
3F0
100
AcDbEntity
  8
ZUWAKU
  6
CONTINUOUS
 62
       7
100
AcDbLine
 10
-194.02709298
 20
425.96791594
 30
0.0
 11
-198.7065586
 21
421.28845032
 31
0.0
  0
LINE
  5
3F1
100
AcDbEntity
  8
ZUWAKU
  6
CONTINUOUS
 62
       7
100
AcDbLine
 10
-193.66068095
 20
425.48579983
 30
0.0
 11
-197.85803046
 21
421.28845032
 31
0.0
  0
LINE
  5
3F2
100
AcDbEntity
  8
ZUWAKU
  6
CONTINUOUS
 62
       7
100
AcDbLine
 10
-193.32005536
 20
424.97789729
 30
0.0
 11
-197.00950233
 21
421.28845032
 31
0.0
  0
LINE
  5
3F3
100
AcDbEntity
  8
ZUWAKU
  6
CONTINUOUS
 62
       7
100
AcDbLine
 10
-193.00895419
 20
424.44047032
 30
0.0
 11
-196.16097419
 21
421.28845032
 31
0.0
  0
LINE
  5
3F4
100
AcDbEntity
  8
ZUWAKU
  6
CONTINUOUS
 62
       7
100
AcDbLine
 10
-192.73225624
 20
423.86864013
 30
0.0
 11
-195.31244605
 21
421.28845032
 31
0.0
  0
LINE
  5
3F5
100
AcDbEntity
  8
ZUWAKU
  6
CONTINUOUS
 62
       7
100
AcDbLine
 10
-192.49654077
 20
423.25582746
 30
0.0
 11
-194.46391791
 21
421.28845032
 31
0.0
  0
LINE
  5
3F6
100
AcDbEntity
  8
ZUWAKU
  6
CONTINUOUS
 62
       7
100
AcDbLine
 10
-192.31106129
 20
422.59277881
 30
0.0
 11
-193.61538978
 21
421.28845032
 31
0.0
  0
LINE
  5
3F7
100
AcDbEntity
  8
ZUWAKU
  6
CONTINUOUS
 62
       7
100
AcDbLine
 10
-192.18958546
 20
421.8657265
 30
0.0
 11
-192.76686164
 21
421.28845032
 31
0.0
  0
LINE
  5
3F8
100
AcDbEntity
  8
ZUWAKU
  6
CONTINUOUS
 62
       7
100
AcDbLine
 10
-218.58699773
 20
413.97595032
 30
0.0
 11
-226.77956693
 21
405.78338112
 31
0.0
  0
LINE
  5
3F9
100
AcDbEntity
  8
ZUWAKU
  6
CONTINUOUS
 62
       7
100
AcDbLine
 10
-219.43552587
 20
413.97595032
 30
0.0
 11
-227.65853566
 21
405.75294052
 31
0.0
  0
LINE
  5
3FA
100
AcDbEntity
  8
ZUWAKU
  6
CONTINUOUS
 62
       7
100
AcDbLine
 10
-220.28405401
 20
413.97595032
 30
0.0
 11
-228.52912948
 21
405.73087484
 31
0.0
  0
LINE
  5
3FB
100
AcDbEntity
  8
ZUWAKU
  6
CONTINUOUS
 62
       7
100
AcDbLine
 10
-221.13258214
 20
413.97595032
 30
0.0
 11
-229.39161773
 21
405.71691473
 31
0.0
  0
LINE
  5
3FC
100
AcDbEntity
  8
ZUWAKU
  6
CONTINUOUS
 62
       7
100
AcDbLine
 10
-221.98111028
 20
413.97595032
 30
0.0
 11
-230.24624377
 21
405.71081683
 31
0.0
  0
LINE
  5
3FD
100
AcDbEntity
  8
ZUWAKU
  6
CONTINUOUS
 62
       7
100
AcDbLine
 10
-222.82963842
 20
413.97595032
 30
0.0
 11
-231.09322774
 21
405.712361
 31
0.0
  0
LINE
  5
3FE
100
AcDbEntity
  8
ZUWAKU
  6
CONTINUOUS
 62
       7
100
AcDbLine
 10
-223.67816655
 20
413.97595032
 30
0.0
 11
-231.93276891
 21
405.72134796
 31
0.0
  0
LINE
  5
3FF
100
AcDbEntity
  8
ZUWAKU
  6
CONTINUOUS
 62
       7
100
AcDbLine
 10
-224.52669469
 20
413.97595032
 30
0.0
 11
-232.76504766
 21
405.73759735
 31
0.0
  0
LINE
  5
400
100
AcDbEntity
  8
ZUWAKU
  6
CONTINUOUS
 62
       7
100
AcDbLine
 10
-225.37522283
 20
413.97595032
 30
0.0
 11
-233.59022722
 21
405.76094593
 31
0.0
  0
LINE
  5
401
100
AcDbEntity
  8
ZUWAKU
  6
CONTINUOUS
 62
       7
100
AcDbLine
 10
-226.22375097
 20
413.97595032
 30
0.0
 11
-234.40845517
 21
405.79124612
 31
0.0
  0
LINE
  5
402
100
AcDbEntity
  8
ZUWAKU
  6
CONTINUOUS
 62
       7
100
AcDbLine
 10
-227.0722791
 20
413.97595032
 30
0.0
 11
-235.21986471
 21
405.82836471
 31
0.0
  0
LINE
  5
403
100
AcDbEntity
  8
ZUWAKU
  6
CONTINUOUS
 62
       7
100
AcDbLine
 10
-227.92080724
 20
413.97595032
 30
0.0
 11
-236.02457578
 21
405.87218178
 31
0.0
  0
LINE
  5
404
100
AcDbEntity
  8
ZUWAKU
  6
CONTINUOUS
 62
       7
100
AcDbLine
 10
-228.76933538
 20
413.97595032
 30
0.0
 11
-236.82269604
 21
405.92258966
 31
0.0
  0
LINE
  5
405
100
AcDbEntity
  8
ZUWAKU
  6
CONTINUOUS
 62
       7
100
AcDbLine
 10
-229.61786352
 20
413.97595032
 30
0.0
 11
-237.61432168
 21
405.97949216
 31
0.0
  0
LINE
  5
406
100
AcDbEntity
  8
ZUWAKU
  6
CONTINUOUS
 62
       7
100
AcDbLine
 10
-230.46639165
 20
413.97595032
 30
0.0
 11
-238.39953816
 21
406.04280381
 31
0.0
  0
LINE
  5
407
100
AcDbEntity
  8
ZUWAKU
  6
CONTINUOUS
 62
       7
100
AcDbLine
 10
-231.31491979
 20
413.97595032
 30
0.0
 11
-239.17842085
 21
406.11244926
 31
0.0
  0
LINE
  5
408
100
AcDbEntity
  8
ZUWAKU
  6
CONTINUOUS
 62
       7
100
AcDbLine
 10
-232.16344793
 20
413.97595032
 30
0.0
 11
-239.95103552
 21
406.18836273
 31
0.0
  0
LINE
  5
409
100
AcDbEntity
  8
ZUWAKU
  6
CONTINUOUS
 62
       7
100
AcDbLine
 10
-233.01197607
 20
413.97595032
 30
0.0
 11
-240.71743884
 21
406.27048754
 31
0.0
  0
LINE
  5
40A
100
AcDbEntity
  8
ZUWAKU
  6
CONTINUOUS
 62
       7
100
AcDbLine
 10
-233.8605042
 20
413.97595032
 30
0.0
 11
-241.47767876
 21
406.35877577
 31
0.0
  0
LINE
  5
40B
100
AcDbEntity
  8
ZUWAKU
  6
CONTINUOUS
 62
       7
100
AcDbLine
 10
-234.70903234
 20
413.97595032
 30
0.0
 11
-242.23179478
 21
406.45318788
 31
0.0
  0
LINE
  5
40C
100
AcDbEntity
  8
ZUWAKU
  6
CONTINUOUS
 62
       7
100
AcDbLine
 10
-235.55756048
 20
413.97595032
 30
0.0
 11
-242.97981828
 21
406.55369252
 31
0.0
  0
LINE
  5
40D
100
AcDbEntity
  8
ZUWAKU
  6
CONTINUOUS
 62
       7
100
AcDbLine
 10
-236.40608862
 20
413.97595032
 30
0.0
 11
-243.72177267
 21
406.66026626
 31
0.0
  0
LINE
  5
40E
100
AcDbEntity
  8
ZUWAKU
  6
CONTINUOUS
 62
       7
100
AcDbLine
 10
-237.25461675
 20
413.97595032
 30
0.0
 11
-244.45767359
 21
406.77289349
 31
0.0
  0
LINE
  5
40F
100
AcDbEntity
  8
ZUWAKU
  6
CONTINUOUS
 62
       7
100
AcDbLine
 10
-238.10314489
 20
413.97595032
 30
0.0
 11
-245.18752893
 21
406.89156628
 31
0.0
  0
LINE
  5
410
100
AcDbEntity
  8
ZUWAKU
  6
CONTINUOUS
 62
       7
100
AcDbLine
 10
-238.95167303
 20
413.97595032
 30
0.0
 11
-245.91133898
 21
407.01628437
 31
0.0
  0
LINE
  5
411
100
AcDbEntity
  8
ZUWAKU
  6
CONTINUOUS
 62
       7
100
AcDbLine
 10
-239.80020117
 20
413.97595032
 30
0.0
 11
-246.62909635
 21
407.14705513
 31
0.0
  0
LINE
  5
412
100
AcDbEntity
  8
ZUWAKU
  6
CONTINUOUS
 62
       7
100
AcDbLine
 10
-240.6487293
 20
413.97595032
 30
0.0
 11
-247.34078597
 21
407.28389365
 31
0.0
  0
LINE
  5
413
100
AcDbEntity
  8
ZUWAKU
  6
CONTINUOUS
 62
       7
100
AcDbLine
 10
-241.49725744
 20
413.97595032
 30
0.0
 11
-248.04638497
 21
407.42682279
 31
0.0
  0
LINE
  5
414
100
AcDbEntity
  8
ZUWAKU
  6
CONTINUOUS
 62
       7
100
AcDbLine
 10
-242.34578558
 20
413.97595032
 30
0.0
 11
-248.74586254
 21
407.57587335
 31
0.0
  0
LINE
  5
415
100
AcDbEntity
  8
ZUWAKU
  6
CONTINUOUS
 62
       7
100
AcDbLine
 10
-243.19431372
 20
413.97595032
 30
0.0
 11
-249.43917975
 21
407.73108428
 31
0.0
  0
LINE
  5
416
100
AcDbEntity
  8
ZUWAKU
  6
CONTINUOUS
 62
       7
100
AcDbLine
 10
-244.04284185
 20
413.97595032
 30
0.0
 11
-250.12628926
 21
407.89250291
 31
0.0
  0
LINE
  5
417
100
AcDbEntity
  8
ZUWAKU
  6
CONTINUOUS
 62
       7
100
AcDbLine
 10
-244.89136999
 20
413.97595032
 30
0.0
 11
-250.80713503
 21
408.06018528
 31
0.0
  0
LINE
  5
418
100
AcDbEntity
  8
ZUWAKU
  6
CONTINUOUS
 62
       7
100
AcDbLine
 10
-245.73989813
 20
413.97595032
 30
0.0
 11
-251.48165193
 21
408.23419652
 31
0.0
  0
LINE
  5
419
100
AcDbEntity
  8
ZUWAKU
  6
CONTINUOUS
 62
       7
100
AcDbLine
 10
-246.58842627
 20
413.97595032
 30
0.0
 11
-252.14976529
 21
408.4146113
 31
0.0
  0
LINE
  5
41A
100
AcDbEntity
  8
ZUWAKU
  6
CONTINUOUS
 62
       7
100
AcDbLine
 10
-247.4369544
 20
413.97595032
 30
0.0
 11
-252.81139037
 21
408.60151435
 31
0.0
  0
LINE
  5
41B
100
AcDbEntity
  8
ZUWAKU
  6
CONTINUOUS
 62
       7
100
AcDbLine
 10
-248.28548254
 20
413.97595032
 30
0.0
 11
-253.46643176
 21
408.79500109
 31
0.0
  0
LINE
  5
41C
100
AcDbEntity
  8
ZUWAKU
  6
CONTINUOUS
 62
       7
100
AcDbLine
 10
-249.13401068
 20
413.97595032
 30
0.0
 11
-254.11478264
 21
408.99517836
 31
0.0
  0
LINE
  5
41D
100
AcDbEntity
  8
ZUWAKU
  6
CONTINUOUS
 62
       7
100
AcDbLine
 10
-249.98253882
 20
413.97595032
 30
0.0
 11
-254.75632395
 21
409.20216518
 31
0.0
  0
LINE
  5
41E
100
AcDbEntity
  8
ZUWAKU
  6
CONTINUOUS
 62
       7
100
AcDbLine
 10
-250.83106695
 20
413.97595032
 30
0.0
 11
-255.39092346
 21
409.41609381
 31
0.0
  0
LINE
  5
41F
100
AcDbEntity
  8
ZUWAKU
  6
CONTINUOUS
 62
       7
100
AcDbLine
 10
-251.67959509
 20
413.97595032
 30
0.0
 11
-256.01843464
 21
409.63711077
 31
0.0
  0
LINE
  5
420
100
AcDbEntity
  8
ZUWAKU
  6
CONTINUOUS
 62
       7
100
AcDbLine
 10
-252.52812323
 20
413.97595032
 30
0.0
 11
-256.63869541
 21
409.86537814
 31
0.0
  0
LINE
  5
421
100
AcDbEntity
  8
ZUWAKU
  6
CONTINUOUS
 62
       7
100
AcDbLine
 10
-253.37665136
 20
413.97595032
 30
0.0
 11
-257.25152664
 21
410.10107505
 31
0.0
  0
LINE
  5
422
100
AcDbEntity
  8
ZUWAKU
  6
CONTINUOUS
 62
       7
100
AcDbLine
 10
-254.2251795
 20
413.97595032
 30
0.0
 11
-257.85673045
 21
410.34439937
 31
0.0
  0
LINE
  5
423
100
AcDbEntity
  8
ZUWAKU
  6
CONTINUOUS
 62
       7
100
AcDbLine
 10
-255.07370764
 20
413.97595032
 30
0.0
 11
-258.45408825
 21
410.59556971
 31
0.0
  0
LINE
  5
424
100
AcDbEntity
  8
ZUWAKU
  6
CONTINUOUS
 62
       7
100
AcDbLine
 10
-255.92223578
 20
413.97595032
 30
0.0
 11
-259.04335837
 21
410.85482772
 31
0.0
  0
LINE
  5
425
100
AcDbEntity
  8
ZUWAKU
  6
CONTINUOUS
 62
       7
100
AcDbLine
 10
-256.77076391
 20
413.97595032
 30
0.0
 11
-259.62427342
 21
411.12244081
 31
0.0
  0
LINE
  5
426
100
AcDbEntity
  8
ZUWAKU
  6
CONTINUOUS
 62
       7
100
AcDbLine
 10
-257.61929205
 20
413.97595032
 30
0.0
 11
-260.19653703
 21
411.39870534
 31
0.0
  0
LINE
  5
427
100
AcDbEntity
  8
ZUWAKU
  6
CONTINUOUS
 62
       7
100
AcDbLine
 10
-258.46782019
 20
413.97595032
 30
0.0
 11
-260.75982014
 21
411.68395037
 31
0.0
  0
LINE
  5
428
100
AcDbEntity
  8
ZUWAKU
  6
CONTINUOUS
 62
       7
100
AcDbLine
 10
-259.31634833
 20
413.97595032
 30
0.0
 11
-261.31375647
 21
411.97854218
 31
0.0
  0
LINE
  5
429
100
AcDbEntity
  8
ZUWAKU
  6
CONTINUOUS
 62
       7
100
AcDbLine
 10
-260.16487646
 20
413.97595032
 30
0.0
 11
-261.85793722
 21
412.28288956
 31
0.0
  0
LINE
  5
42A
100
AcDbEntity
  8
ZUWAKU
  6
CONTINUOUS
 62
       7
100
AcDbLine
 10
-261.0134046
 20
413.97595032
 30
0.0
 11
-262.39190458
 21
412.59745034
 31
0.0
  0
LINE
  5
42B
100
AcDbEntity
  8
ZUWAKU
  6
CONTINUOUS
 62
       7
100
AcDbLine
 10
-261.34031536
 20
414.4975677
 30
0.0
 11
-262.91514388
 21
412.92273918
 31
0.0
  0
LINE
  5
42C
100
AcDbEntity
  8
ZUWAKU
  6
CONTINUOUS
 62
       7
100
AcDbLine
 10
-261.34031536
 20
415.34609584
 30
0.0
 11
-263.42707404
 21
413.25933715
 31
0.0
  0
LINE
  5
42D
100
AcDbEntity
  8
ZUWAKU
  6
CONTINUOUS
 62
       7
100
AcDbLine
 10
-261.34031536
 20
416.19462397
 30
0.0
 11
-263.9270357
 21
413.60790364
 31
0.0
  0
LINE
  5
42E
100
AcDbEntity
  8
ZUWAKU
  6
CONTINUOUS
 62
       7
100
AcDbLine
 10
-261.34031536
 20
417.04315211
 30
0.0
 11
-264.4142764
 21
413.96919107
 31
0.0
  0
LINE
  5
42F
100
AcDbEntity
  8
ZUWAKU
  6
CONTINUOUS
 62
       7
100
AcDbLine
 10
-261.34031536
 20
417.89168025
 30
0.0
 11
-264.8879319
 21
414.3440637
 31
0.0
  0
LINE
  5
430
100
AcDbEntity
  8
ZUWAKU
  6
CONTINUOUS
 62
       7
100
AcDbLine
 10
-261.34031536
 20
418.74020838
 30
0.0
 11
-265.34700228
 21
414.73352147
 31
0.0
  0
LINE
  5
431
100
AcDbEntity
  8
ZUWAKU
  6
CONTINUOUS
 62
       7
100
AcDbLine
 10
-261.34031536
 20
419.58873652
 30
0.0
 11
-265.7903208
 21
415.13873108
 31
0.0
  0
LINE
  5
432
100
AcDbEntity
  8
ZUWAKU
  6
CONTINUOUS
 62
       7
100
AcDbLine
 10
-261.34031536
 20
420.43726466
 30
0.0
 11
-266.21651297
 21
415.56106705
 31
0.0
  0
LINE
  5
433
100
AcDbEntity
  8
ZUWAKU
  6
CONTINUOUS
 62
       7
100
AcDbLine
 10
-261.33765784
 20
421.28845032
 30
0.0
 11
-266.62394141
 21
416.00216675
 31
0.0
  0
LINE
  5
434
100
AcDbEntity
  8
ZUWAKU
  6
CONTINUOUS
 62
       7
100
AcDbLine
 10
-262.18618598
 20
421.28845032
 30
0.0
 11
-267.01063009
 21
416.4640062
 31
0.0
  0
LINE
  5
435
100
AcDbEntity
  8
ZUWAKU
  6
CONTINUOUS
 62
       7
100
AcDbLine
 10
-263.03471411
 20
421.28845032
 30
0.0
 11
-267.37415784
 21
416.94900659
 31
0.0
  0
LINE
  5
436
100
AcDbEntity
  8
ZUWAKU
  6
CONTINUOUS
 62
       7
100
AcDbLine
 10
-263.88324225
 20
421.28845032
 30
0.0
 11
-267.71150384
 21
417.46018873
 31
0.0
  0
LINE
  5
437
100
AcDbEntity
  8
ZUWAKU
  6
CONTINUOUS
 62
       7
100
AcDbLine
 10
-264.73177039
 20
421.28845032
 30
0.0
 11
-268.01881611
 21
418.0014046
 31
0.0
  0
LINE
  5
438
100
AcDbEntity
  8
ZUWAKU
  6
CONTINUOUS
 62
       7
100
AcDbLine
 10
-265.58029853
 20
421.28845032
 30
0.0
 11
-268.29104952
 21
418.57769933
 31
0.0
  0
LINE
  5
439
100
AcDbEntity
  8
ZUWAKU
  6
CONTINUOUS
 62
       7
100
AcDbLine
 10
-266.42882666
 20
421.28845032
 30
0.0
 11
-268.52137043
 21
419.19590655
 31
0.0
  0
LINE
  5
43A
100
AcDbEntity
  8
ZUWAKU
  6
CONTINUOUS
 62
       7
100
AcDbLine
 10
-267.2773548
 20
421.28845032
 30
0.0
 11
-268.70011171
 21
419.86569341
 31
0.0
  0
LINE
  5
43B
100
AcDbEntity
  8
ZUWAKU
  6
CONTINUOUS
 62
       7
100
AcDbLine
 10
-268.12588294
 20
421.28845032
 30
0.0
 11
-268.81277566
 21
420.60155759
 31
0.0
  0
LINE
  5
43C
100
AcDbEntity
  8
ZUWAKU
  6
CONTINUOUS
 62
       7
100
AcDbLine
 10
-217.73846959
 20
413.97595032
 30
0.0
 11
-225.89192477
 21
405.82249514
 31
0.0
  0
LINE
  5
43D
100
AcDbEntity
  8
ZUWAKU
  6
CONTINUOUS
 62
       7
100
AcDbLine
 10
-216.88994146
 20
413.97595032
 30
0.0
 11
-224.99527765
 21
405.87061412
 31
0.0
  0
LINE
  5
43E
100
AcDbEntity
  8
ZUWAKU
  6
CONTINUOUS
 62
       7
100
AcDbLine
 10
-216.04141332
 20
413.97595032
 30
0.0
 11
-224.08925651
 21
405.92810713
 31
0.0
  0
LINE
  5
43F
100
AcDbEntity
  8
ZUWAKU
  6
CONTINUOUS
 62
       7
100
AcDbLine
 10
-215.19288518
 20
413.97595032
 30
0.0
 11
-223.17344931
 21
405.99538619
 31
0.0
  0
LINE
  5
440
100
AcDbEntity
  8
ZUWAKU
  6
CONTINUOUS
 62
       7
100
AcDbLine
 10
-214.34435704
 20
413.97595032
 30
0.0
 11
-222.24739452
 21
406.07291284
 31
0.0
  0
LINE
  5
441
100
AcDbEntity
  8
ZUWAKU
  6
CONTINUOUS
 62
       7
100
AcDbLine
 10
-213.49582891
 20
413.97595032
 30
0.0
 11
-221.31057317
 21
406.16120606
 31
0.0
  0
LINE
  5
442
100
AcDbEntity
  8
ZUWAKU
  6
CONTINUOUS
 62
       7
100
AcDbLine
 10
-212.64730077
 20
413.97595032
 30
0.0
 11
-220.36239907
 21
406.26085202
 31
0.0
  0
LINE
  5
443
100
AcDbEntity
  8
ZUWAKU
  6
CONTINUOUS
 62
       7
100
AcDbLine
 10
-211.79877263
 20
413.97595032
 30
0.0
 11
-219.40220685
 21
406.3725161
 31
0.0
  0
LINE
  5
444
100
AcDbEntity
  8
ZUWAKU
  6
CONTINUOUS
 62
       7
100
AcDbLine
 10
-210.95024449
 20
413.97595032
 30
0.0
 11
-218.42923688
 21
406.49695794
 31
0.0
  0
LINE
  5
445
100
AcDbEntity
  8
ZUWAKU
  6
CONTINUOUS
 62
       7
100
AcDbLine
 10
-210.10171636
 20
413.97595032
 30
0.0
 11
-217.44261623
 21
406.63505045
 31
0.0
  0
LINE
  5
446
100
AcDbEntity
  8
ZUWAKU
  6
CONTINUOUS
 62
       7
100
AcDbLine
 10
-209.25318822
 20
413.97595032
 30
0.0
 11
-216.44133436
 21
406.78780418
 31
0.0
  0
LINE
  5
447
100
AcDbEntity
  8
ZUWAKU
  6
CONTINUOUS
 62
       7
100
AcDbLine
 10
-208.40466008
 20
413.97595032
 30
0.0
 11
-215.42421144
 21
406.95639896
 31
0.0
  0
LINE
  5
448
100
AcDbEntity
  8
ZUWAKU
  6
CONTINUOUS
 62
       7
100
AcDbLine
 10
-207.55613194
 20
413.97595032
 30
0.0
 11
-214.3898565
 21
407.14222576
 31
0.0
  0
LINE
  5
449
100
AcDbEntity
  8
ZUWAKU
  6
CONTINUOUS
 62
       7
100
AcDbLine
 10
-199.39510381
 20
421.28845032
 30
0.0
 11
-199.46531536
 21
421.21823877
 31
0.0
  0
LINE
  5
44A
100
AcDbEntity
  8
ZUWAKU
  6
CONTINUOUS
 62
       7
100
AcDbLine
 10
-206.70760381
 20
413.97595032
 30
0.0
 11
-213.33661114
 21
407.34694299
 31
0.0
  0
LINE
  5
44B
100
AcDbEntity
  8
ZUWAKU
  6
CONTINUOUS
 62
       7
100
AcDbLine
 10
-198.54657567
 20
421.28845032
 30
0.0
 11
-199.46531536
 21
420.36971063
 31
0.0
  0
LINE
  5
44C
100
AcDbEntity
  8
ZUWAKU
  6
CONTINUOUS
 62
       7
100
AcDbLine
 10
-205.85907567
 20
413.97595032
 30
0.0
 11
-212.26247199
 21
407.572554
 31
0.0
  0
LINE
  5
44D
100
AcDbEntity
  8
ZUWAKU
  6
CONTINUOUS
 62
       7
100
AcDbLine
 10
-197.69804753
 20
421.28845032
 30
0.0
 11
-199.46531536
 21
419.52118249
 31
0.0
  0
LINE
  5
44E
100
AcDbEntity
  8
ZUWAKU
  6
CONTINUOUS
 62
       7
100
AcDbLine
 10
-205.01054753
 20
413.97595032
 30
0.0
 11
-211.1649815
 21
407.82151635
 31
0.0
  0
LINE
  5
44F
100
AcDbEntity
  8
ZUWAKU
  6
CONTINUOUS
 62
       7
100
AcDbLine
 10
-196.84951939
 20
421.28845032
 30
0.0
 11
-199.46531536
 21
418.67265435
 31
0.0
  0
LINE
  5
450
100
AcDbEntity
  8
ZUWAKU
  6
CONTINUOUS
 62
       7
100
AcDbLine
 10
-204.16201939
 20
413.97595032
 30
0.0
 11
-210.04106918
 21
408.09690054
 31
0.0
  0
LINE
  5
451
100
AcDbEntity
  8
ZUWAKU
  6
CONTINUOUS
 62
       7
100
AcDbLine
 10
-196.00099126
 20
421.28845032
 30
0.0
 11
-199.46531536
 21
417.82412622
 31
0.0
  0
LINE
  5
452
100
AcDbEntity
  8
ZUWAKU
  6
CONTINUOUS
 62
       7
100
AcDbLine
 10
-203.31349126
 20
413.97595032
 30
0.0
 11
-208.88681304
 21
408.40262854
 31
0.0
  0
LINE
  5
453
100
AcDbEntity
  8
ZUWAKU
  6
CONTINUOUS
 62
       7
100
AcDbLine
 10
-195.15246312
 20
421.28845032
 30
0.0
 11
-199.46531536
 21
416.97559808
 31
0.0
  0
LINE
  5
454
100
AcDbEntity
  8
ZUWAKU
  6
CONTINUOUS
 62
       7
100
AcDbLine
 10
-202.46496312
 20
413.97595032
 30
0.0
 11
-207.69706542
 21
408.74384802
 31
0.0
  0
LINE
  5
455
100
AcDbEntity
  8
ZUWAKU
  6
CONTINUOUS
 62
       7
100
AcDbLine
 10
-194.30393498
 20
421.28845032
 30
0.0
 11
-199.46531536
 21
416.12706994
 31
0.0
  0
LINE
  5
456
100
AcDbEntity
  8
ZUWAKU
  6
CONTINUOUS
 62
       7
100
AcDbLine
 10
-201.61643498
 20
413.97595032
 30
0.0
 11
-206.46483506
 21
409.12755024
 31
0.0
  0
LINE
  5
457
100
AcDbEntity
  8
ZUWAKU
  6
CONTINUOUS
 62
       7
100
AcDbLine
 10
-193.45540684
 20
421.28845032
 30
0.0
 11
-199.46531536
 21
415.2785418
 31
0.0
  0
LINE
  5
458
100
AcDbEntity
  8
ZUWAKU
  6
CONTINUOUS
 62
       7
100
AcDbLine
 10
-200.76790684
 20
413.97595032
 30
0.0
 11
-205.1801968
 21
409.56366037
 31
0.0
  0
LINE
  5
459
100
AcDbEntity
  8
ZUWAKU
  6
CONTINUOUS
 62
       7
100
AcDbLine
 10
-192.60687871
 20
421.28845032
 30
0.0
 11
-199.46531536
 21
414.43001367
 31
0.0
  0
LINE
  5
45A
100
AcDbEntity
  8
ZUWAKU
  6
CONTINUOUS
 62
       7
100
AcDbLine
 10
-199.91937871
 20
413.97595032
 30
0.0
 11
-203.82819337
 21
410.06713565
 31
0.0
  0
LINE
  5
45B
100
AcDbEntity
  8
ZUWAKU
  6
CONTINUOUS
 62
       7
100
AcDbLine
 10
-192.16008363
 20
420.88671726
 30
0.0
 11
-202.38428008
 21
410.66252081
 31
0.0
  0
LINE
  5
45C
100
AcDbEntity
  8
ZUWAKU
  6
CONTINUOUS
 62
       7
100
AcDbLine
 10
-192.28260446
 20
419.91566829
 30
0.0
 11
-200.80247305
 21
411.3957997
 31
0.0
  0
LINE
  5
45D
100
AcDbEntity
  8
ZUWAKU
  6
CONTINUOUS
 62
       7
100
AcDbLine
 10
-192.65266707
 20
418.69707755
 30
0.0
 11
-198.97312425
 21
412.37662036
 31
0.0
  0
LINE
  5
45E
100
AcDbEntity
  8
ZUWAKU
  6
CONTINUOUS
 62
       7
100
AcDbLine
 10
-193.79734352
 20
416.70387296
 30
0.0
 11
-196.36916161
 21
414.13205487
 31
0.0
  0
LINE
  5
45F
100
AcDbEntity
  8
ZUWAKU
  6
CONTINUOUS
 62
       7
100
AcDbLine
 10
280.15968464
 20
-382.14904968
 30
0.0
 11
280.15968464
 21
-202.14904968
 31
0.0
  0
LINE
  5
460
100
AcDbEntity
  8
ZUWAKU
  6
CONTINUOUS
 62
       7
100
AcDbLine
 10
-273.15281536
 20
-382.14904968
 30
0.0
 11
-273.15281536
 21
-202.14904968
 31
0.0
  0
LINE
  5
461
100
AcDbEntity
  8
ZUWAKU
  6
CONTINUOUS
 62
       7
100
AcDbLine
 10
93.78468464
 20
429.91345032
 30
0.0
 11
283.15968464
 21
429.91345032
 31
0.0
  0
LINE
  5
462
100
AcDbEntity
  8
ZUWAKU
  6
CONTINUOUS
 62
       7
100
AcDbLine
 10
93.78468464
 20
429.91345032
 30
0.0
 11
93.78468464
 21
400.19503891
 31
0.0
  0
LINE
  5
463
100
AcDbEntity
  8
ZUWAKU
  6
CONTINUOUS
 62
       7
100
AcDbLine
 10
283.15968464
 20
429.91345032
 30
0.0
 11
283.15968464
 21
400.19503891
 31
0.0
  0
LINE
  5
464
100
AcDbEntity
  8
ZUWAKU
  6
CONTINUOUS
 62
       7
100
AcDbLine
 10
93.03468464
 20
-423.39904968
 30
0.0
 11
93.03468464
 21
-387.21154968
 31
0.0
  0
LINE
  5
465
100
AcDbEntity
  8
ZUWAKU
  6
CONTINUOUS
 62
       7
100
AcDbLine
 10
78.03468464
 20
-423.39904968
 30
0.0
 11
78.03468464
 21
-387.21154968
 31
0.0
  0
LINE
  5
466
100
AcDbEntity
  8
ZUWAKU
  6
CONTINUOUS
 62
       7
100
AcDbLine
 10
-109.65281536
 20
-423.39904968
 30
0.0
 11
-109.65281536
 21
-387.21154968
 31
0.0
  0
LINE
  5
467
100
AcDbEntity
  8
ZUWAKU
  6
CONTINUOUS
 62
       7
100
AcDbLine
 10
-124.65281536
 20
-423.39904968
 30
0.0
 11
-124.65281536
 21
-387.21154968
 31
0.0
  0
LINE
  5
468
100
AcDbEntity
  8
ZUWAKU
  6
CONTINUOUS
 62
       7
100
AcDbLine
 10
-273.15281536
 20
-367.14904968
 30
0.0
 11
280.15968464
 21
-367.14904968
 31
0.0
  0
LINE
  5
469
100
AcDbEntity
  8
ZUWAKU
  6
CONTINUOUS
 62
       7
100
AcDbLine
 10
-273.15281536
 20
-352.14904968
 30
0.0
 11
280.15968464
 21
-352.14904968
 31
0.0
  0
LINE
  5
46A
100
AcDbEntity
  8
ZUWAKU
  6
CONTINUOUS
 62
       7
100
AcDbLine
 10
-273.15281536
 20
-337.14904968
 30
0.0
 11
280.15968464
 21
-337.14904968
 31
0.0
  0
LINE
  5
46B
100
AcDbEntity
  8
ZUWAKU
  6
CONTINUOUS
 62
       7
100
AcDbLine
 10
-273.15281536
 20
-322.14904968
 30
0.0
 11
280.15968464
 21
-322.14904968
 31
0.0
  0
LINE
  5
46C
100
AcDbEntity
  8
ZUWAKU
  6
CONTINUOUS
 62
       7
100
AcDbLine
 10
-273.15281536
 20
-307.14904968
 30
0.0
 11
280.15968464
 21
-307.14904968
 31
0.0
  0
LINE
  5
46D
100
AcDbEntity
  8
ZUWAKU
  6
CONTINUOUS
 62
       7
100
AcDbLine
 10
-273.15281536
 20
-292.14904968
 30
0.0
 11
280.15968464
 21
-292.14904968
 31
0.0
  0
LINE
  5
46E
100
AcDbEntity
  8
ZUWAKU
  6
CONTINUOUS
 62
       7
100
AcDbLine
 10
-273.15281536
 20
-277.14904968
 30
0.0
 11
280.15968464
 21
-277.14904968
 31
0.0
  0
POINT
  5
46F
100
AcDbEntity
  8
ZUWAKU
  6
CONTINUOUS
 62
       7
100
AcDbPoint
 10
-314.96531536
 20
0.06611215
 30
0.0
  0
LINE
  5
470
100
AcDbEntity
  8
ZUWAKU
  6
CONTINUOUS
 62
       7
100
AcDbLine
 10
-273.15281536
 20
-262.14904968
 30
0.0
 11
280.15968464
 21
-262.14904968
 31
0.0
  0
LINE
  5
471
100
AcDbEntity
  8
ZUWAKU
  6
CONTINUOUS
 62
       7
100
AcDbLine
 10
-273.15281536
 20
-247.14904968
 30
0.0
 11
280.15968464
 21
-247.14904968
 31
0.0
  0
LINE
  5
472
100
AcDbEntity
  8
ZUWAKU
  6
CONTINUOUS
 62
       7
100
AcDbLine
 10
80.09718464
 20
-382.14904968
 30
0.0
 11
80.09718464
 21
-202.14904968
 31
0.0
  0
LINE
  5
473
100
AcDbEntity
  8
ZUWAKU
  6
CONTINUOUS
 62
       7
100
AcDbLine
 10
46.72218464
 20
-382.14904968
 30
0.0
 11
46.72218464
 21
-202.14904968
 31
0.0
  0
LINE
  5
474
100
AcDbEntity
  8
ZUWAKU
  6
CONTINUOUS
 62
       7
100
AcDbLine
 10
-112.65281536
 20
-382.14904968
 30
0.0
 11
-112.65281536
 21
-202.14904968
 31
0.0
  0
LINE
  5
475
100
AcDbEntity
  8
ZUWAKU
  6
CONTINUOUS
 62
       7
100
AcDbLine
 10
-252.34031536
 20
-382.14904968
 30
0.0
 11
-252.34031536
 21
-202.14904968
 31
0.0
  0
POINT
  5
476
100
AcDbEntity
  8
ZUWAKU
  6
CONTINUOUS
 62
       7
100
AcDbPoint
 10
188.47218464
 20
415.05424462
 30
0.0
  0
POINT
  5
477
100
AcDbEntity
  8
ZUWAKU
  6
CONTINUOUS
 62
       7
100
AcDbPoint
 10
-44.67360024
 20
415.05424462
 30
0.0
  0
POINT
  5
478
100
AcDbEntity
  8
ZUWAKU
  6
CONTINUOUS
 62
       7
100
AcDbPoint
 10
186.59718464
 20
-405.30529968
 30
0.0
  0
POINT
  5
479
100
AcDbEntity
  8
ZUWAKU
  6
CONTINUOUS
 62
       7
100
AcDbPoint
 10
-15.80906536
 20
-405.30529968
 30
0.0
  0
POINT
  5
47A
100
AcDbEntity
  8
ZUWAKU
  6
CONTINUOUS
 62
       7
100
AcDbPoint
 10
63.40968464
 20
-359.64904968
 30
0.0
  0
POINT
  5
47B
100
AcDbEntity
  8
ZUWAKU
  6
CONTINUOUS
 62
       7
100
AcDbPoint
 10
-249.34031536
 20
-359.64904968
 30
0.0
  0
POINT
  5
47C
100
AcDbEntity
  8
ZUWAKU
  6
CONTINUOUS
 62
       7
100
AcDbPoint
 10
-109.65281536
 20
-359.64904968
 30
0.0
  0
POINT
  5
47D
100
AcDbEntity
  8
ZUWAKU
  6
CONTINUOUS
 62
       7
100
AcDbPoint
 10
83.09718464
 20
-359.64904968
 30
0.0
  0
LINE
  5
47E
100
AcDbEntity
  8
ZUWAKU
  6
CONTINUOUS
 62
       7
100
AcDbLine
 10
315.08468464
 20
-460.4874198
 30
0.0
 11
315.08468464
 21
-445.4874198
 31
0.0
  0
LINE
  5
47F
100
AcDbEntity
  8
ZUWAKU
  6
CONTINUOUS
 62
       7
100
AcDbLine
 10
-314.96531536
 20
445.4625802
 30
0.0
 11
-329.96531536
 21
445.4625802
 31
0.0
  0
LINE
  5
480
100
AcDbEntity
  8
ZUWAKU
  6
CONTINUOUS
 62
       7
100
AcDbLine
 10
315.03468464
 20
445.4625802
 30
0.0
 11
330.03468464
 21
445.4625802
 31
0.0
  0
LINE
  5
481
100
AcDbEntity
  8
ZUWAKU
  6
CONTINUOUS
 62
       7
100
AcDbLine
 10
-314.91531536
 20
-445.4874198
 30
0.0
 11
-314.91531536
 21
-460.4874198
 31
0.0
  0
LINE
  5
482
100
AcDbEntity
  8
ZUWAKU
  6
CONTINUOUS
 62
       7
100
AcDbLine
 10
315.03468464
 20
-460.5374198
 30
0.0
 11
315.03468464
 21
-445.5374198
 31
0.0
  0
LINE
  5
483
100
AcDbEntity
  8
ZUWAKU
  6
CONTINUOUS
 62
       7
100
AcDbLine
 10
315.03468464
 20
-445.5374198
 30
0.0
 11
330.03468464
 21
-445.5374198
 31
0.0
  0
LINE
  5
484
100
AcDbEntity
  8
ZUWAKU
  6
CONTINUOUS
 62
       7
100
AcDbLine
 10
-330.03468464
 20
-445.5374198
 30
0.0
 11
-314.96531536
 21
-445.5374198
 31
0.0
  0
LINE
  5
485
100
AcDbEntity
  8
ZUWAKU
  6
CONTINUOUS
 62
       7
100
AcDbLine
 10
-314.96531536
 20
-445.64095175
 30
0.0
 11
-314.96531536
 21
-460.5372594
 31
0.0
  0
POINT
  5
486
100
AcDbEntity
  8
ZUWAKU
  6
CONTINUOUS
 62
       7
100
AcDbPoint
 10
63.40968464
 20
-344.64904968
 30
0.0
  0
POINT
  5
487
100
AcDbEntity
  8
ZUWAKU
  6
CONTINUOUS
 62
       7
100
AcDbPoint
 10
-249.34031536
 20
-344.64904968
 30
0.0
  0
POINT
  5
488
100
AcDbEntity
  8
ZUWAKU
  6
CONTINUOUS
 62
       7
100
AcDbPoint
 10
-109.65281536
 20
-344.64904968
 30
0.0
  0
POINT
  5
489
100
AcDbEntity
  8
ZUWAKU
  6
CONTINUOUS
 62
       7
100
AcDbPoint
 10
83.09718464
 20
-344.64904968
 30
0.0
  0
POINT
  5
48A
100
AcDbEntity
  8
ZUWAKU
  6
CONTINUOUS
 62
       7
100
AcDbPoint
 10
63.40968464
 20
-329.64904968
 30
0.0
  0
POINT
  5
48B
100
AcDbEntity
  8
ZUWAKU
  6
CONTINUOUS
 62
       7
100
AcDbPoint
 10
-249.34031536
 20
-329.64904968
 30
0.0
  0
POINT
  5
48C
100
AcDbEntity
  8
ZUWAKU
  6
CONTINUOUS
 62
       7
100
AcDbPoint
 10
-109.65281536
 20
-329.64904968
 30
0.0
  0
POINT
  5
48D
100
AcDbEntity
  8
ZUWAKU
  6
CONTINUOUS
 62
       7
100
AcDbPoint
 10
83.09718464
 20
-329.64904968
 30
0.0
  0
POINT
  5
48E
100
AcDbEntity
  8
ZUWAKU
  6
CONTINUOUS
 62
       7
100
AcDbPoint
 10
63.40968464
 20
-314.64904968
 30
0.0
  0
POINT
  5
48F
100
AcDbEntity
  8
ZUWAKU
  6
CONTINUOUS
 62
       7
100
AcDbPoint
 10
-249.34031536
 20
-314.64904968
 30
0.0
  0
POINT
  5
490
100
AcDbEntity
  8
ZUWAKU
  6
CONTINUOUS
 62
       7
100
AcDbPoint
 10
-109.65281536
 20
-314.64904968
 30
0.0
  0
POINT
  5
491
100
AcDbEntity
  8
ZUWAKU
  6
CONTINUOUS
 62
       7
100
AcDbPoint
 10
83.09718464
 20
-314.64904968
 30
0.0
  0
POINT
  5
492
100
AcDbEntity
  8
ZUWAKU
  6
CONTINUOUS
 62
       7
100
AcDbPoint
 10
63.40968464
 20
-299.64904968
 30
0.0
  0
POINT
  5
493
100
AcDbEntity
  8
ZUWAKU
  6
CONTINUOUS
 62
       7
100
AcDbPoint
 10
-249.34031536
 20
-299.64904968
 30
0.0
  0
POINT
  5
494
100
AcDbEntity
  8
ZUWAKU
  6
CONTINUOUS
 62
       7
100
AcDbPoint
 10
-109.65281536
 20
-299.64904968
 30
0.0
  0
POINT
  5
495
100
AcDbEntity
  8
ZUWAKU
  6
CONTINUOUS
 62
       7
100
AcDbPoint
 10
83.09718464
 20
-299.64904968
 30
0.0
  0
POINT
  5
496
100
AcDbEntity
  8
ZUWAKU
  6
CONTINUOUS
 62
       7
100
AcDbPoint
 10
63.40968464
 20
-284.64904968
 30
0.0
  0
POINT
  5
497
100
AcDbEntity
  8
ZUWAKU
  6
CONTINUOUS
 62
       7
100
AcDbPoint
 10
-249.34031536
 20
-284.64904968
 30
0.0
  0
POINT
  5
498
100
AcDbEntity
  8
ZUWAKU
  6
CONTINUOUS
 62
       7
100
AcDbPoint
 10
-109.65281536
 20
-284.64904968
 30
0.0
  0
POINT
  5
499
100
AcDbEntity
  8
ZUWAKU
  6
CONTINUOUS
 62
       7
100
AcDbPoint
 10
83.09718464
 20
-284.64904968
 30
0.0
  0
POINT
  5
49A
100
AcDbEntity
  8
ZUWAKU
  6
CONTINUOUS
 62
       7
100
AcDbPoint
 10
63.40968464
 20
-269.64904968
 30
0.0
  0
POINT
  5
49B
100
AcDbEntity
  8
ZUWAKU
  6
CONTINUOUS
 62
       7
100
AcDbPoint
 10
-249.34031536
 20
-269.64904968
 30
0.0
  0
POINT
  5
49C
100
AcDbEntity
  8
ZUWAKU
  6
CONTINUOUS
 62
       7
100
AcDbPoint
 10
-109.65281536
 20
-269.64904968
 30
0.0
  0
POINT
  5
49D
100
AcDbEntity
  8
ZUWAKU
  6
CONTINUOUS
 62
       7
100
AcDbPoint
 10
83.09718464
 20
-269.64904968
 30
0.0
  0
LINE
  5
49E
100
AcDbEntity
  8
ZUWAKU
  6
CONTINUOUS
 62
       7
100
AcDbLine
 10
315.08468464
 20
445.5374198
 30
0.0
 11
315.08468464
 21
460.5374198
 31
0.0
  0
LINE
  5
49F
100
AcDbEntity
  8
ZUWAKU
  6
CONTINUOUS
 62
       7
100
AcDbLine
 10
-314.96531536
 20
460.38388784
 30
0.0
 11
-314.96531536
 21
445.4875802
 31
0.0
  0
LINE
  5
4A0
100
AcDbEntity
  8
ZUWAKU
  6
CONTINUOUS
 62
       7
100
AcDbLine
 10
-273.15281536
 20
-202.14904968
 30
0.0
 11
280.15968464
 21
-202.14904968
 31
0.0
  0
LINE
  5
4A1
100
AcDbEntity
  8
ZUWAKU
  6
CONTINUOUS
 62
       7
100
AcDbLine
 10
-273.15281536
 20
-217.14904968
 30
0.0
 11
280.15968464
 21
-217.14904968
 31
0.0
  0
TEXT
  5
4A2
100
AcDbEntity
  8
ZUWAKU
 62
       7
100
AcDbText
 10
-252.11887833
 20
-415.71154968
 30
0.0
 40
10.2
  1
株式会社
 41
0.6667
 72
       5
 11
-219.47887833
 21
-415.71154968
 31
0.0
100
AcDbText
  0
TEXT
  5
4A3
100
AcDbEntity
  8
ZUWAKU
 62
       7
100
AcDbText
 10
222.58298021
 20
-439.9169083
 30
0.0
 40
12.0
  1
090331
 41
0.8
 72
       5
 11
280.18298021
 21
-439.9169083
 31
0.0
100
AcDbText
  0
TEXT
  5
4A4
100
AcDbEntity
  8
ZUWAKU
 62
       7
100
AcDbText
 10
-117.15429941
 20
-389.7851269
 30
0.0
 40
7.497
  1
品 名
 41
1.03494498
  7
FDASTYLE1
100
AcDbText
  0
TEXT
  5
4A5
100
AcDbEntity
  8
ZUWAKU
 62
       7
100
AcDbText
 10
85.35241571
 20
-389.83791631
 30
0.0
 40
7.497
  1
品　番
 41
1.03494498
  7
FDASTYLE1
100
AcDbText
  0
TEXT
  5
4A6
100
AcDbEntity
  8
ZUWAKU
 62
       7
100
AcDbText
 10
-268.01755435
 20
-365.52914989
 30
0.0
 40
12.0
  1
1
 41
0.8
 72
       5
 11
-258.41755435
 21
-365.52914989
 31
0.0
100
AcDbText
  0
TEXT
  5
4A7
100
AcDbEntity
  8
ZUWAKU
 62
       7
100
AcDbText
 10
-268.01755435
 20
-350.52914989
 30
0.0
 40
12.0
  1
2
 41
0.8
 72
       5
 11
-258.41755435
 21
-350.52914989
 31
0.0
100
AcDbText
  0
TEXT
  5
4A8
100
AcDbEntity
  8
ZUWAKU
 62
       7
100
AcDbText
 10
-268.01755435
 20
-335.52914989
 30
0.0
 40
12.0
  1
3
 41
0.8
 72
       5
 11
-258.41755435
 21
-335.52914989
 31
0.0
100
AcDbText
  0
TEXT
  5
4A9
100
AcDbEntity
  8
ZUWAKU
 62
       7
100
AcDbText
 10
-268.01755435
 20
-320.52914989
 30
0.0
 40
12.0
  1
4
 41
0.8
 72
       5
 11
-258.41755435
 21
-320.52914989
 31
0.0
100
AcDbText
  0
TEXT
  5
4AA
100
AcDbEntity
  8
ZUWAKU
 62
       7
100
AcDbText
 10
-268.01755435
 20
-305.52914989
 30
0.0
 40
12.0
  1
5
 41
0.8
 72
       5
 11
-258.41755435
 21
-305.52914989
 31
0.0
100
AcDbText
  0
TEXT
  5
4AB
100
AcDbEntity
  8
ZUWAKU
 62
       7
100
AcDbText
 10
-268.01755435
 20
-290.52914989
 30
0.0
 40
12.0
  1
6
 41
0.8
 72
       5
 11
-258.41755435
 21
-290.52914989
 31
0.0
100
AcDbText
  0
TEXT
  5
4AC
100
AcDbEntity
  8
ZUWAKU
 62
       7
100
AcDbText
 10
-268.01755435
 20
-275.52914989
 30
0.0
 40
12.0
  1
7
 41
0.8
 72
       5
 11
-258.41755435
 21
-275.52914989
 31
0.0
100
AcDbText
  0
TEXT
  5
4AD
100
AcDbEntity
  8
ZUWAKU
 62
       7
100
AcDbText
 10
155.65098824
 20
-380.46994895
 30
0.0
 40
12.0
  1
摘要・仕上
 41
0.7143
 72
       5
 11
203.65098824
 21
-380.46994895
 31
0.0
100
AcDbText
  0
TEXT
  5
4AE
100
AcDbEntity
  8
ZUWAKU
 62
       7
100
AcDbText
 10
48.74406852
 20
-380.46994895
 30
0.0
 40
12.0
  1
個　数
 41
0.75
 72
       5
 11
77.54406852
 21
-380.46994895
 31
0.0
100
AcDbText
  0
TEXT
  5
4AF
100
AcDbEntity
  8
ZUWAKU
 62
       7
100
AcDbText
 10
-52.04365938
 20
-380.46994895
 30
0.0
 40
12.0
  1
材　　質
 41
0.6667
 72
       5
 11
-13.64365938
 21
-380.46994895
 31
0.0
100
AcDbText
  0
TEXT
  5
4B0
100
AcDbEntity
  8
ZUWAKU
 62
       7
100
AcDbText
 10
-206.59591866
 20
-380.46994895
 30
0.0
 40
12.0
  1
部　品　名
 41
0.7143
 72
       5
 11
-158.59591866
 21
-380.46994895
 31
0.0
100
AcDbText
  0
TEXT
  5
4B1
100
AcDbEntity
  8
ZUWAKU
 62
       7
100
AcDbText
 10
-272.72225851
 20
-380.46994895
 30
0.0
 40
12.0
  1
部番
 41
0.6667
 72
       5
 11
-253.52225851
 21
-380.46994895
 31
0.0
100
AcDbText
  0
TEXT
  5
4B2
100
AcDbEntity
  8
ZUWAKU
 62
       7
100
AcDbText
 10
298.55641013
 20
-168.21990166
 30
0.0
 40
12.0
  1
洗面台
 50
-90.0
 41
0.75
 72
       5
 11
298.55641013
 21
-197.01990166
 31
0.0
100
AcDbText
  0
TEXT
  5
4B3
100
AcDbEntity
  8
ZUWAKU
 62
       7
100
AcDbText
 10
-268.01755435
 20
-260.52914989
 30
0.0
 40
12.0
  1
8
 41
0.8
 72
       5
 11
-258.41755435
 21
-260.52914989
 31
0.0
100
AcDbText
  0
TEXT
  5
4B4
100
AcDbEntity
  8
ZUWAKU
 62
       7
100
AcDbText
 10
-268.01755435
 20
-245.52914989
 30
0.0
 40
12.0
  1
9
 41
0.8
 72
       5
 11
-258.41755435
 21
-245.52914989
 31
0.0
100
AcDbText
  0
TEXT
  5
4B5
100
AcDbEntity
  8
ZUWAKU
 62
       7
100
AcDbText
 10
-272.01755435
 20
-230.52914989
 30
0.0
 40
12.0
  1
10
 41
0.8
 72
       5
 11
-252.81755435
 21
-230.52914989
 31
0.0
100
AcDbText
  0
TEXT
  5
4B6
100
AcDbEntity
  8
ZUWAKU
 62
       7
100
AcDbText
 10
-272.01755435
 20
-215.52914989
 30
0.0
 40
12.0
  1
11
 41
0.8
 72
       5
 11
-252.81755435
 21
-215.52914989
 31
0.0
100
AcDbText
  0
TEXT
  5
4B7
100
AcDbEntity
  8
LAYER0240
 62
       7
100
AcDbText
 10
-249.34031536
 20
-365.64904968
 30
0.0
 40
12.0
  1
ヘアキャッチャー
 41
0.6667
 72
       5
 11
-172.54031536
 21
-365.64904968
 31
0.0
100
AcDbText
  0
TEXT
  5
4B8
100
AcDbEntity
  8
LAYER0240
 62
       7
100
AcDbText
 10
-249.34031536
 20
-335.64904968
 30
0.0
 40
12.0
  1
ツバ下パッキン
 41
0.7
 72
       5
 11
-182.14031536
 21
-335.64904968
 31
0.0
100
AcDbText
  0
TEXT
  5
4B9
100
AcDbEntity
  8
LAYER0240
 62
       7
100
AcDbText
 10
-249.34031536
 20
-320.64904968
 30
0.0
 40
12.0
  1
三角パッキン
 41
0.6667
 72
       5
 11
-191.74031536
 21
-320.64904968
 31
0.0
100
AcDbText
  0
TEXT
  5
4BA
100
AcDbEntity
  8
LAYER0240
 62
       7
100
AcDbText
 10
-249.34031536
 20
-305.64904968
 30
0.0
 40
12.0
  1
スリップワッシャー
 41
0.6923
 72
       5
 11
-162.94031536
 21
-305.64904968
 31
0.0
100
AcDbText
  0
TEXT
  5
4BB
100
AcDbEntity
  8
LAYER0240
 62
       7
100
AcDbText
 10
-249.34031536
 20
-290.64904968
 30
0.0
 40
12.0
  1
締付ナット
 41
0.7143
 72
       5
 11
-201.34031536
 21
-290.64904968
 31
0.0
100
AcDbText
  0
TEXT
  5
4BC
100
AcDbEntity
  8
LAYER0240
 62
       7
100
AcDbText
 10
-109.65281536
 20
-365.64904968
 30
0.0
 40
12.0
  1
BS
 41
0.8
 72
       5
 11
-90.45281536
 21
-365.64904968
 31
0.0
100
AcDbText
  0
TEXT
  5
4BD
100
AcDbEntity
  8
LAYER0240
 62
       7
100
AcDbText
 10
-109.65281536
 20
-335.64904968
 30
0.0
 40
12.0
  1
スポンジゴム
 41
0.6667
 72
       5
 11
-52.05281536
 21
-335.64904968
 31
0.0
100
AcDbText
  0
TEXT
  5
4BE
100
AcDbEntity
  8
LAYER0240
 62
       7
100
AcDbText
 10
-109.65281536
 20
-320.64904968
 30
0.0
 40
12.0
  1
合成ゴム
 41
0.6667
 72
       5
 11
-71.25281536
 21
-320.64904968
 31
0.0
100
AcDbText
  0
TEXT
  5
4BF
100
AcDbEntity
  8
LAYER0240
 62
       7
100
AcDbText
 10
83.09718464
 20
-365.64904968
 30
0.0
 40
12.0
  1
クロムメッキ
 41
0.6667
 72
       5
 11
140.69718464
 21
-365.64904968
 31
0.0
100
AcDbText
  0
TEXT
  5
4C0
100
AcDbEntity
  8
LAYER0240
 62
       7
100
AcDbText
 10
58.60968464
 20
-365.64904968
 30
0.0
 40
12.0
  1
1
 41
0.8
 72
       5
 11
68.20968464
 21
-365.64904968
 31
0.0
100
AcDbText
  0
TEXT
  5
4C1
100
AcDbEntity
  8
LAYER0240
 62
       7
100
AcDbText
 10
58.60968464
 20
-335.64904968
 30
0.0
 40
12.0
  1
1
 41
0.8
 72
       5
 11
68.20968464
 21
-335.64904968
 31
0.0
100
AcDbText
  0
TEXT
  5
4C2
100
AcDbEntity
  8
LAYER0240
 62
       7
100
AcDbText
 10
58.60968464
 20
-320.64904968
 30
0.0
 40
12.0
  1
1
 41
0.8
 72
       5
 11
68.20968464
 21
-320.64904968
 31
0.0
100
AcDbText
  0
TEXT
  5
4C3
100
AcDbEntity
  8
LAYER0240
 62
       7
100
AcDbText
 10
58.60968464
 20
-305.64904968
 30
0.0
 40
12.0
  1
1
 41
0.8
 72
       5
 11
68.20968464
 21
-305.64904968
 31
0.0
100
AcDbText
  0
TEXT
  5
4C4
100
AcDbEntity
  8
LAYER0240
 62
       7
100
AcDbText
 10
58.60968464
 20
-290.64904968
 30
0.0
 40
12.0
  1
1
 41
0.8
 72
       5
 11
68.20968464
 21
-290.64904968
 31
0.0
100
AcDbText
  0
TEXT
  5
4C5
100
AcDbEntity
  8
LAYER0240
 62
       7
100
AcDbText
 10
-109.65281536
 20
-305.64904968
 30
0.0
 40
12.0
  1
POM
 41
0.8
 72
       5
 11
-80.85281536
 21
-305.64904968
 31
0.0
100
AcDbText
  0
TEXT
  5
4C6
100
AcDbEntity
  8
LAYER0240
 62
       7
100
AcDbText
 10
-109.65281536
 20
-290.64904968
 30
0.0
 40
12.0
  1
BS
 41
0.8
 72
       5
 11
-90.45281536
 21
-290.64904968
 31
0.0
100
AcDbText
  0
TEXT
  5
4C7
100
AcDbEntity
  8
LAYER0240
 62
       7
100
AcDbText
 10
-249.34031536
 20
-350.64904968
 30
0.0
 40
12.0
  1
目皿本体
 41
0.6667
 72
       5
 11
-216.70031536
 21
-350.64904968
 31
0.0
100
AcDbText
  0
TEXT
  5
4C8
100
AcDbEntity
  8
LAYER0240
 62
       7
100
AcDbText
 10
-109.65281536
 20
-350.64904968
 30
0.0
 40
12.0
  1
BS
 41
0.8
 72
       5
 11
-90.45281536
 21
-350.64904968
 31
0.0
100
AcDbText
  0
TEXT
  5
4C9
100
AcDbEntity
  8
LAYER0240
 62
       7
100
AcDbText
 10
58.60968464
 20
-350.64904968
 30
0.0
 40
12.0
  1
1
 41
0.8
 72
       5
 11
68.20968464
 21
-350.64904968
 31
0.0
100
AcDbText
  0
TEXT
  5
4CA
100
AcDbEntity
  8
LAYER0240
 62
       7
100
AcDbText
 10
83.09718464
 20
-350.64904968
 30
0.0
 40
12.0
  1
クロムメッキ
 41
0.6667
 72
       5
 11
140.69718464
 21
-350.64904968
 31
0.0
100
AcDbText
  0
TEXT
  5
4CB
100
AcDbEntity
  8
LAYER0240
 62
       7
100
AcDbText
 10
-249.34031536
 20
-275.64904968
 30
0.0
 40
12.0
  1
接続ナット
 41
0.7143
 72
       5
 11
-201.34031536
 21
-275.64904968
 31
0.0
100
AcDbText
  0
TEXT
  5
4CC
100
AcDbEntity
  8
LAYER0240
 62
       7
100
AcDbText
 10
-109.70189511
 20
-275.64904968
 30
0.0
 40
12.0
  1
BS
 41
0.8
 72
       5
 11
-90.50189511
 21
-275.64904968
 31
0.0
100
AcDbText
  0
TEXT
  5
4CD
100
AcDbEntity
  8
LAYER0240
 62
       7
100
AcDbText
 10
58.60968464
 20
-275.64904968
 30
0.0
 40
12.0
  1
3
 41
0.8
 72
       5
 11
68.20968464
 21
-275.64904968
 31
0.0
100
AcDbText
  0
TEXT
  5
4CE
100
AcDbEntity
  8
LAYER0240
 62
       7
100
AcDbText
 10
-249.34031536
 20
-260.64904968
 30
0.0
 40
12.0
  1
ボトルトラップ本体
 41
0.6923
 72
       5
 11
-162.94031536
 21
-260.64904968
 31
0.0
100
AcDbText
  0
TEXT
  5
4CF
100
AcDbEntity
  8
LAYER0240
 62
       7
100
AcDbText
 10
-109.65281536
 20
-260.64904968
 30
0.0
 40
12.0
  1
BS
 41
0.8
 72
       5
 11
-90.45281536
 21
-260.64904968
 31
0.0
100
AcDbText
  0
TEXT
  5
4D0
100
AcDbEntity
  8
LAYER0240
 62
       7
100
AcDbText
 10
58.60968464
 20
-260.64904968
 30
0.0
 40
12.0
  1
1
 41
0.8
 72
       5
 11
68.20968464
 21
-260.64904968
 31
0.0
100
AcDbText
  0
TEXT
  5
4D1
100
AcDbEntity
  8
LAYER0240
 62
       7
100
AcDbText
 10
-249.34031536
 20
-245.64904968
 30
0.0
 40
12.0
  1
直管
 41
0.6667
 72
       5
 11
-230.14031536
 21
-245.64904968
 31
0.0
100
AcDbText
  0
TEXT
  5
4D2
100
AcDbEntity
  8
LAYER0240
 62
       7
100
AcDbText
 10
-109.65281536
 20
-245.64904968
 30
0.0
 40
12.0
  1
BS
 41
0.8
 72
       5
 11
-90.45281536
 21
-245.64904968
 31
0.0
100
AcDbText
  0
TEXT
  5
4D3
100
AcDbEntity
  8
LAYER0240
 62
       7
100
AcDbText
 10
58.60968464
 20
-245.64904968
 30
0.0
 40
12.0
  1
1
 41
0.8
 72
       5
 11
68.20968464
 21
-245.64904968
 31
0.0
100
AcDbText
  0
TEXT
  5
4D4
100
AcDbEntity
  8
LAYER0240
 62
       7
100
AcDbText
 10
-49.40906536
 20
-411.30529968
 30
0.0
 40
12.0
  1
ボトルトラップ
 41
0.7
 72
       5
 11
17.79093464
 21
-411.30529968
 31
0.0
100
AcDbText
  0
TEXT
  5
4D5
100
AcDbEntity
  8
LAYER0240
 62
       7
100
AcDbText
 10
167.39718464
 20
-411.30529968
 30
0.0
 40
12.0
  1
FCBT-25
 41
0.8
 72
       5
 11
234.59718464
 21
-411.30529968
 31
0.0
100
AcDbText
  0
TEXT
  5
4D6
100
AcDbEntity
  8
LAYER0240
 62
       7
100
AcDbText
 10
169.27218464
 20
409.05424462
 30
0.0
 40
12.0
  1
FCBT-25
 41
0.8
 72
       5
 11
236.47218464
 21
409.05424462
 31
0.0
100
AcDbText
  0
TEXT
  5
4D7
100
AcDbEntity
  8
LAYER0240
 62
       7
100
AcDbText
 10
-78.27360024
 20
409.05424462
 30
0.0
 40
12.0
  1
ボトルトラップ
 41
0.7
 72
       5
 11
-11.07360024
 21
409.05424462
 31
0.0
100
AcDbText
  0
TEXT
  5
4D8
100
AcDbEntity
  8
LAYER0240
 62
       7
100
AcDbText
 10
-249.34031536
 20
-230.64904968
 30
0.0
 40
12.0
  1
ワン座
 41
0.75
 72
       5
 11
-220.54031536
 21
-230.64904968
 31
0.0
100
AcDbText
  0
TEXT
  5
4D9
100
AcDbEntity
  8
LAYER0240
 62
       7
100
AcDbText
 10
-109.65281536
 20
-230.64904968
 30
0.0
 40
12.0
  1
SUS304
 41
0.8
 72
       5
 11
-52.05281536
 21
-230.64904968
 31
0.0
100
AcDbText
  0
TEXT
  5
4DA
100
AcDbEntity
  8
LAYER0240
 62
       7
100
AcDbText
 10
58.60968464
 20
-230.64904968
 30
0.0
 40
12.0
  1
1
 41
0.8
 72
       5
 11
68.20968464
 21
-230.64904968
 31
0.0
100
AcDbText
  0
TEXT
  5
4DB
100
AcDbEntity
  8
LAYER0240
 62
       7
100
AcDbText
 10
-249.34031536
 20
-215.64904968
 30
0.0
 40
12.0
  1
ツバ付直管
 41
0.7143
 72
       5
 11
-201.34031536
 21
-215.64904968
 31
0.0
100
AcDbText
  0
TEXT
  5
4DC
100
AcDbEntity
  8
LAYER0240
 62
       7
100
AcDbText
 10
-109.65281536
 20
-215.64904968
 30
0.0
 40
12.0
  1
BS
 41
0.8
 72
       5
 11
-90.45281536
 21
-215.64904968
 31
0.0
100
AcDbText
  0
TEXT
  5
4DD
100
AcDbEntity
  8
LAYER0240
 62
       7
100
AcDbText
 10
58.60968464
 20
-215.64904968
 30
0.0
 40
12.0
  1
1
 41
0.8
 72
       5
 11
68.20968464
 21
-215.64904968
 31
0.0
100
AcDbText
  0
TEXT
  5
4DE
100
AcDbEntity
  8
LAYER0240
 62
       7
100
AcDbText
 10
83.09718464
 20
-215.64904968
 30
0.0
 40
12.0
  1
クロムメッキ
 41
0.6667
 72
       5
 11
140.69718464
 21
-215.64904968
 31
0.0
100
AcDbText
  0
TEXT
  5
4DF
100
AcDbEntity
  8
LAYER0240
 62
       7
100
AcDbText
 10
83.09718464
 20
-275.64904968
 30
0.0
 40
12.0
  1
クロムメッキ
 41
0.6667
 72
       5
 11
140.69718464
 21
-275.64904968
 31
0.0
100
AcDbText
  0
TEXT
  5
4E0
100
AcDbEntity
  8
LAYER0240
 62
       7
100
AcDbText
 10
83.09718464
 20
-260.64904968
 30
0.0
 40
12.0
  1
クロムメッキ
 41
0.6667
 72
       5
 11
140.69718464
 21
-260.64904968
 31
0.0
100
AcDbText
  0
TEXT
  5
4E1
100
AcDbEntity
  8
LAYER0240
 62
       7
100
AcDbText
 10
83.09718464
 20
-245.64904968
 30
0.0
 40
12.0
  1
クロムメッキ
 41
0.6667
 72
       5
 11
140.69718464
 21
-245.64904968
 31
0.0
100
AcDbText
  0
TEXT
  5
4E2
100
AcDbEntity
  8
LAYER0240
 62
       7
100
AcDbText
 10
83.09718464
 20
-230.64904968
 30
0.0
 40
12.0
  1
研磨仕上げ
 41
0.7143
 72
       5
 11
131.09718464
 21
-230.64904968
 31
0.0
100
AcDbText
  0
LINE
  5
4E3
100
AcDbEntity
  8
LAYER0016
  6
CENTERX2
 62
       7
100
AcDbLine
 10
-118.28735599
 20
-148.78574834
 30
0.0
 11
-118.28735599
 21
247.14897259
 31
0.0
  0
LINE
  5
4E4
100
AcDbEntity
  8
LAYER0016
  6
CENTERX2
 62
       7
100
AcDbLine
 10
-160.93229397
 20
22.20436072
 30
0.0
 11
242.69219236
 21
22.20436072
 31
0.0
  0
LINE
  5
4E5
100
AcDbEntity
  8
LAYER0016
  6
CONTINUOUS
 62
       7
100
AcDbLine
 10
-155.78735599
 20
245.87526019
 30
0.0
 11
-80.78735599
 21
245.87526019
 31
0.0
  0
LINE
  5
4E6
100
AcDbEntity
  8
LAYER0016
  6
CONTINUOUS
 62
       7
100
AcDbLine
 10
-155.78735599
 20
242.87526019
 30
0.0
 11
-80.78735599
 21
242.87526019
 31
0.0
  0
LINE
  5
4E7
100
AcDbEntity
  8
LAYER0016
  6
CONTINUOUS
 62
       7
100
AcDbLine
 10
-155.78735599
 20
233.12526019
 30
0.0
 11
-155.78735599
 21
245.87526019
 31
0.0
  0
LINE
  5
4E8
100
AcDbEntity
  8
LAYER0016
  6
CONTINUOUS
 62
       7
100
AcDbLine
 10
-80.78735599
 20
233.12526019
 30
0.0
 11
-80.78735599
 21
245.87526019
 31
0.0
  0
LINE
  5
4E9
100
AcDbEntity
  8
LAYER0016
  6
CONTINUOUS
 62
       7
100
AcDbLine
 10
-155.78735599
 20
233.12526019
 30
0.0
 11
-80.78735599
 21
233.12526019
 31
0.0
  0
LINE
  5
4EA
100
AcDbEntity
  8
LAYER0016
  6
CONTINUOUS
 62
       7
100
AcDbLine
 10
-159.53735599
 20
200.87526019
 30
0.0
 11
-77.03735599
 21
200.87526019
 31
0.0
  0
LINE
  5
4EB
100
AcDbEntity
  8
LAYER0016
  6
CONTINUOUS
 62
       7
100
AcDbLine
 10
-155.78735599
 20
197.87526019
 30
0.0
 11
-80.78735599
 21
197.87526019
 31
0.0
  0
LINE
  5
4EC
100
AcDbEntity
  8
LAYER0016
  6
CONTINUOUS
 62
       7
100
AcDbLine
 10
-146.03735599
 20
188.87526019
 30
0.0
 11
-90.53735599
 21
188.87526019
 31
0.0
  0
LINE
  5
4ED
100
AcDbEntity
  8
LAYER0016
  6
CONTINUOUS
 62
       7
100
AcDbLine
 10
-94.28735599
 20
233.12526019
 30
0.0
 11
-94.28735599
 21
216.62526019
 31
0.0
  0
LINE
  5
4EE
100
AcDbEntity
  8
LAYER0016
  6
CONTINUOUS
 62
       7
100
AcDbLine
 10
-142.28735599
 20
233.12526019
 30
0.0
 11
-142.28735599
 21
216.62526019
 31
0.0
  0
LINE
  5
4EF
100
AcDbEntity
  8
LAYER0016
  6
CONTINUOUS
 62
       7
100
AcDbLine
 10
-159.53735599
 20
202.37526019
 30
0.0
 11
-77.03735599
 21
202.37526019
 31
0.0
  0
LINE
  5
4F0
100
AcDbEntity
  8
LAYER0016
  6
CONTINUOUS
 62
       7
100
AcDbLine
 10
-157.28735599
 20
204.62526019
 30
0.0
 11
-79.28735599
 21
204.62526019
 31
0.0
  0
LINE
  5
4F1
100
AcDbEntity
  8
LAYER0016
  6
CONTINUOUS
 62
       7
100
AcDbLine
 10
-142.28735599
 20
216.62526019
 30
0.0
 11
-94.28735599
 21
216.62526019
 31
0.0
  0
LINE
  5
4F2
100
AcDbEntity
  8
LAYER0016
  6
CONTINUOUS
 62
       7
100
AcDbLine
 10
-157.28735599
 20
204.62526019
 30
0.0
 11
-142.28735599
 21
216.62526019
 31
0.0
  0
LINE
  5
4F3
100
AcDbEntity
  8
LAYER0016
  6
CONTINUOUS
 62
       7
100
AcDbLine
 10
-79.28735599
 20
204.62526019
 30
0.0
 11
-94.28735599
 21
216.62526019
 31
0.0
  0
LINE
  5
4F4
100
AcDbEntity
  8
LAYER0016
  6
CONTINUOUS
 62
       7
100
AcDbLine
 10
-95.78735599
 20
233.12526019
 30
0.0
 11
-95.78735599
 21
216.62526019
 31
0.0
  0
LINE
  5
4F5
100
AcDbEntity
  8
LAYER0016
  6
CONTINUOUS
 62
       7
100
AcDbLine
 10
-140.78735599
 20
233.12526019
 30
0.0
 11
-140.78735599
 21
216.62526019
 31
0.0
  0
LINE
  5
4F6
100
AcDbEntity
  8
LAYER0016
  6
CONTINUOUS
 62
       7
100
AcDbLine
 10
-157.28735599
 20
204.62526019
 30
0.0
 11
-157.28735599
 21
202.37526019
 31
0.0
  0
LINE
  5
4F7
100
AcDbEntity
  8
LAYER0016
  6
CONTINUOUS
 62
       7
100
AcDbLine
 10
-79.28735599
 20
204.62526019
 30
0.0
 11
-79.28735599
 21
202.37526019
 31
0.0
  0
LINE
  5
4F8
100
AcDbEntity
  8
LAYER0016
  6
CONTINUOUS
 62
       7
100
AcDbLine
 10
-159.53735599
 20
200.87526019
 30
0.0
 11
-159.53735599
 21
202.37526019
 31
0.0
  0
LINE
  5
4F9
100
AcDbEntity
  8
LAYER0016
  6
CONTINUOUS
 62
       7
100
AcDbLine
 10
-77.03735599
 20
200.87526019
 30
0.0
 11
-77.03735599
 21
202.37526019
 31
0.0
  0
LINE
  5
4FA
100
AcDbEntity
  8
LAYER0016
  6
CONTINUOUS
 62
       7
100
AcDbLine
 10
-80.78735599
 20
197.87526019
 30
0.0
 11
-80.78735599
 21
200.87526019
 31
0.0
  0
LINE
  5
4FB
100
AcDbEntity
  8
LAYER0016
  6
CONTINUOUS
 62
       7
100
AcDbLine
 10
-155.78735599
 20
197.87526019
 30
0.0
 11
-155.78735599
 21
200.87526019
 31
0.0
  0
LINE
  5
4FC
100
AcDbEntity
  8
LAYER0016
  6
CONTINUOUS
 62
       7
100
AcDbLine
 10
-146.03735599
 20
188.87526019
 30
0.0
 11
-146.03735599
 21
197.87526019
 31
0.0
  0
LINE
  5
4FD
100
AcDbEntity
  8
LAYER0016
  6
CONTINUOUS
 62
       7
100
AcDbLine
 10
-90.53735599
 20
188.87526019
 30
0.0
 11
-90.53735599
 21
197.87526019
 31
0.0
  0
LINE
  5
4FE
100
AcDbEntity
  8
LAYER0016
  6
CONTINUOUS
 62
       7
100
AcDbLine
 10
-118.28735599
 20
188.87526019
 30
0.0
 11
-118.28735599
 21
197.87526019
 31
0.0
  0
LINE
  5
4FF
100
AcDbEntity
  8
LAYER0016
  6
CONTINUOUS
 62
       7
100
AcDbLine
 10
-142.28735599
 20
188.87526019
 30
0.0
 11
-142.28735599
 21
186.62526019
 31
0.0
  0
LINE
  5
500
100
AcDbEntity
  8
LAYER0016
  6
CONTINUOUS
 62
       7
100
AcDbLine
 10
-140.78735599
 20
188.87526019
 30
0.0
 11
-140.78735599
 21
186.62526019
 31
0.0
  0
LINE
  5
501
100
AcDbEntity
  8
LAYER0016
  6
CONTINUOUS
 62
       7
100
AcDbLine
 10
-94.28735599
 20
188.87526019
 30
0.0
 11
-94.28735599
 21
186.62526019
 31
0.0
  0
LINE
  5
502
100
AcDbEntity
  8
LAYER0016
  6
CONTINUOUS
 62
       7
100
AcDbLine
 10
-95.78735599
 20
188.87526019
 30
0.0
 11
-95.78735599
 21
186.62526019
 31
0.0
  0
LINE
  5
503
100
AcDbEntity
  8
LAYER0016
  6
CONTINUOUS
 62
       7
100
AcDbLine
 10
-143.78735599
 20
186.62526019
 30
0.0
 11
-92.78735599
 21
186.62526019
 31
0.0
  0
LINE
  5
504
100
AcDbEntity
  8
LAYER0016
  6
CONTINUOUS
 62
       7
100
AcDbLine
 10
-143.78735599
 20
170.12526019
 30
0.0
 11
-92.78735599
 21
170.12526019
 31
0.0
  0
LINE
  5
505
100
AcDbEntity
  8
LAYER0016
  6
CONTINUOUS
 62
       7
100
AcDbLine
 10
-91.28735599
 20
171.62526019
 30
0.0
 11
-91.28735599
 21
185.12526019
 31
0.0
  0
LINE
  5
506
100
AcDbEntity
  8
LAYER0016
  6
CONTINUOUS
 62
       7
100
AcDbLine
 10
-145.28735599
 20
171.62526019
 30
0.0
 11
-145.28735599
 21
185.12526019
 31
0.0
  0
ELLIPSE
  5
507
100
AcDbEntity
  8
LAYER0016
  6
CONTINUOUS
 62
       7
100
AcDbEllipse
 10
-104.78735599
 20
178.37526019
 30
0.0
 11
11.999999999999986
 21
0.0
 31
0.0
210
0.0
220
0.0
230
1.0
 40
0.625
 41
0.0
 42
6.2831853071796004
  0
ELLIPSE
  5
508
100
AcDbEntity
  8
LAYER0016
  6
CONTINUOUS
 62
       7
100
AcDbEllipse
 10
-131.78735599
 20
178.37526019
 30
0.0
 11
-12.0
 21
0.0
 31
0.0
210
0.0
220
0.0
230
1.0
 40
0.625
 41
0.0
 42
6.2831853071796004
  0
ARC
  5
509
100
AcDbEntity
  8
LAYER0016
  6
CONTINUOUS
 62
       7
100
AcDbCircle
 10
-92.78735599
 20
185.12526019
 30
0.0
 40
1.5
100
AcDbArc
 50
0.0
 51
90.0
  0
ARC
  5
50A
100
AcDbEntity
  8
LAYER0016
  6
CONTINUOUS
 62
       7
100
AcDbCircle
 10
-92.78735599
 20
171.62526019
 30
0.0
 40
1.5
100
AcDbArc
 50
270.0
 51
360.0
  0
ARC
  5
50B
100
AcDbEntity
  8
LAYER0016
  6
CONTINUOUS
 62
       7
100
AcDbCircle
 10
-143.78735599
 20
171.62526019
 30
0.0
 40
1.5
100
AcDbArc
 50
180.0
 51
270.0
  0
ARC
  5
50C
100
AcDbEntity
  8
LAYER0016
  6
CONTINUOUS
 62
       7
100
AcDbCircle
 10
-143.78735599
 20
185.12526019
 30
0.0
 40
1.5
100
AcDbArc
 50
90.0
 51
180.0
  0
LINE
  5
50D
100
AcDbEntity
  8
LAYER0016
  6
CONTINUOUS
 62
       7
100
AcDbLine
 10
-143.78735599
 20
105.45436072
 30
0.0
 11
-92.78735599
 21
105.45436072
 31
0.0
  0
LINE
  5
50E
100
AcDbEntity
  8
LAYER0016
  6
CONTINUOUS
 62
       7
100
AcDbLine
 10
-143.78735599
 20
88.95436072
 30
0.0
 11
-92.78735599
 21
88.95436072
 31
0.0
  0
LINE
  5
50F
100
AcDbEntity
  8
LAYER0016
  6
CONTINUOUS
 62
       7
100
AcDbLine
 10
-91.28735599
 20
90.45436072
 30
0.0
 11
-91.28735599
 21
103.95436072
 31
0.0
  0
LINE
  5
510
100
AcDbEntity
  8
LAYER0016
  6
CONTINUOUS
 62
       7
100
AcDbLine
 10
-145.28735599
 20
90.45436072
 30
0.0
 11
-145.28735599
 21
103.95436072
 31
0.0
  0
ELLIPSE
  5
511
100
AcDbEntity
  8
LAYER0016
  6
CONTINUOUS
 62
       7
100
AcDbEllipse
 10
-104.78735599
 20
97.20436072
 30
0.0
 11
11.999999999999986
 21
0.0
 31
0.0
210
0.0
220
0.0
230
1.0
 40
0.625
 41
0.0
 42
6.2831853071796004
  0
ELLIPSE
  5
512
100
AcDbEntity
  8
LAYER0016
  6
CONTINUOUS
 62
       7
100
AcDbEllipse
 10
-131.78735599
 20
97.20436072
 30
0.0
 11
-12.0
 21
0.0
 31
0.0
210
0.0
220
0.0
230
1.0
 40
0.625
 41
0.0
 42
6.2831853071796004
  0
ARC
  5
513
100
AcDbEntity
  8
LAYER0016
  6
CONTINUOUS
 62
       7
100
AcDbCircle
 10
-92.78735599
 20
103.95436072
 30
0.0
 40
1.5
100
AcDbArc
 50
0.0
 51
90.0
  0
ARC
  5
514
100
AcDbEntity
  8
LAYER0016
  6
CONTINUOUS
 62
       7
100
AcDbCircle
 10
-92.78735599
 20
90.45436072
 30
0.0
 40
1.5
100
AcDbArc
 50
270.0
 51
360.0
  0
ARC
  5
515
100
AcDbEntity
  8
LAYER0016
  6
CONTINUOUS
 62
       7
100
AcDbCircle
 10
-143.78735599
 20
90.45436072
 30
0.0
 40
1.5
100
AcDbArc
 50
180.0
 51
270.0
  0
ARC
  5
516
100
AcDbEntity
  8
LAYER0016
  6
CONTINUOUS
 62
       7
100
AcDbCircle
 10
-143.78735599
 20
103.95436072
 30
0.0
 40
1.5
100
AcDbArc
 50
90.0
 51
180.0
  0
LINE
  5
517
100
AcDbEntity
  8
LAYER0016
  6
CONTINUOUS
 62
       7
100
AcDbLine
 10
-99.53735599
 20
170.12526019
 30
0.0
 11
-99.53735599
 21
105.45436072
 31
0.0
  0
LINE
  5
518
100
AcDbEntity
  8
LAYER0016
  6
CONTINUOUS
 62
       7
100
AcDbLine
 10
-137.03735599
 20
170.12526019
 30
0.0
 11
-137.03735599
 21
105.45436072
 31
0.0
  0
LINE
  5
519
100
AcDbEntity
  8
LAYER0016
  6
CONTINUOUS
 62
       7
100
AcDbLine
 10
-86.78735599
 20
86.70436072
 30
0.0
 11
-149.78735599
 21
86.70436072
 31
0.0
  0
LINE
  5
51A
100
AcDbEntity
  8
LAYER0016
  6
CONTINUOUS
 62
       7
100
AcDbLine
 10
-94.28735599
 20
86.70436072
 30
0.0
 11
-94.28735599
 21
88.95436072
 31
0.0
  0
LINE
  5
51B
100
AcDbEntity
  8
LAYER0016
  6
CONTINUOUS
 62
       7
100
AcDbLine
 10
-95.78735599
 20
86.70436072
 30
0.0
 11
-95.78735599
 21
88.95436072
 31
0.0
  0
LINE
  5
51C
100
AcDbEntity
  8
LAYER0016
  6
CONTINUOUS
 62
       7
100
AcDbLine
 10
-142.28735599
 20
86.70436072
 30
0.0
 11
-142.28735599
 21
88.95436072
 31
0.0
  0
LINE
  5
51D
100
AcDbEntity
  8
LAYER0016
  6
CONTINUOUS
 62
       7
100
AcDbLine
 10
-140.78735599
 20
86.70436072
 30
0.0
 11
-140.78735599
 21
88.95436072
 31
0.0
  0
LINE
  5
51E
100
AcDbEntity
  8
LAYER0016
  6
CONTINUOUS
 62
       7
100
AcDbLine
 10
-149.78735599
 20
86.70436072
 30
0.0
 11
-149.78735599
 21
-117.29563928
 31
0.0
  0
LINE
  5
51F
100
AcDbEntity
  8
LAYER0016
  6
CONTINUOUS
 62
       7
100
AcDbLine
 10
-86.78735599
 20
-117.29563928
 30
0.0
 11
-149.78735599
 21
-117.29563928
 31
0.0
  0
LINE
  5
520
100
AcDbEntity
  8
LAYER0016
  6
CONTINUOUS
 62
       7
100
AcDbLine
 10
-86.78735599
 20
49.20436072
 30
0.0
 11
-53.78735599
 21
49.20436072
 31
0.0
  0
LINE
  5
521
100
AcDbEntity
  8
LAYER0016
  6
CONTINUOUS
 62
       7
100
AcDbLine
 10
-86.78735599
 20
-4.79563928
 30
0.0
 11
-53.78735599
 21
-4.79563928
 31
0.0
  0
LINE
  5
522
100
AcDbEntity
  8
LAYER0016
  6
CONTINUOUS
 62
       7
100
AcDbLine
 10
-86.78735599
 20
49.20436072
 30
0.0
 11
-96.96165201
 21
35.82164713
 31
0.0
  0
LINE
  5
523
100
AcDbEntity
  8
LAYER0016
  6
CONTINUOUS
 62
       7
100
AcDbLine
 10
-86.78735599
 20
-4.79563928
 30
0.0
 11
-96.96165201
 21
8.58707432
 31
0.0
  0
ARC
  5
524
100
AcDbEntity
  8
LAYER0016
  6
CONTINUOUS
 62
       7
100
AcDbCircle
 10
-79.05021681
 20
22.20436072
 30
0.0
 40
22.5
100
AcDbArc
 50
142.75584875
 51
217.24415125
  0
LINE
  5
525
100
AcDbEntity
  8
LAYER0016
  6
CONTINUOUS
 62
       7
100
AcDbLine
 10
-86.78735599
 20
86.70436072
 30
0.0
 11
-86.78735599
 21
49.20436072
 31
0.0
  0
LINE
  5
526
100
AcDbEntity
  8
LAYER0016
  6
CONTINUOUS
 62
       7
100
AcDbLine
 10
-86.78735599
 20
-4.79563928
 30
0.0
 11
-86.78735599
 21
-117.29563928
 31
0.0
  0
LINE
  5
527
100
AcDbEntity
  8
LAYER0016
  6
CONTINUOUS
 62
       7
100
AcDbLine
 10
-53.78735599
 20
49.20436072
 30
0.0
 11
-53.78735599
 21
-4.79563928
 31
0.0
  0
LINE
  5
528
100
AcDbEntity
  8
LAYER0016
  6
CONTINUOUS
 62
       7
100
AcDbLine
 10
-35.03735599
 20
47.70436072
 30
0.0
 11
-35.03735599
 21
-3.29563928
 31
0.0
  0
LINE
  5
529
100
AcDbEntity
  8
LAYER0016
  6
CONTINUOUS
 62
       7
100
AcDbLine
 10
-51.53735599
 20
47.70436072
 30
0.0
 11
-51.53735599
 21
-3.29563928
 31
0.0
  0
LINE
  5
52A
100
AcDbEntity
  8
LAYER0016
  6
CONTINUOUS
 62
       7
100
AcDbLine
 10
-50.03735599
 20
-4.79563928
 30
0.0
 11
-36.53735599
 21
-4.79563928
 31
0.0
  0
LINE
  5
52B
100
AcDbEntity
  8
LAYER0016
  6
CONTINUOUS
 62
       7
100
AcDbLine
 10
-50.03735599
 20
49.20436072
 30
0.0
 11
-36.53735599
 21
49.20436072
 31
0.0
  0
ELLIPSE
  5
52C
100
AcDbEntity
  8
LAYER0016
  6
CONTINUOUS
 62
       7
100
AcDbEllipse
 10
-43.28735599
 20
8.70436072
 30
0.0
 11
0.0
 21
-12.0
 31
0.0
210
0.0
220
0.0
230
1.0
 40
0.625
 41
0.0
 42
6.2831853071796004
  0
ELLIPSE
  5
52D
100
AcDbEntity
  8
LAYER0016
  6
CONTINUOUS
 62
       7
100
AcDbEllipse
 10
-43.28735599
 20
35.70436072
 30
0.0
 11
0.0
 21
12.0
 31
0.0
210
0.0
220
0.0
230
1.0
 40
0.625
 41
0.0
 42
6.2831853071796004
  0
ARC
  5
52E
100
AcDbEntity
  8
LAYER0016
  6
CONTINUOUS
 62
       7
100
AcDbCircle
 10
-36.53735599
 20
-3.29563928
 30
0.0
 40
1.5
100
AcDbArc
 50
270.0
 51
360.0
  0
ARC
  5
52F
100
AcDbEntity
  8
LAYER0016
  6
CONTINUOUS
 62
       7
100
AcDbCircle
 10
-50.03735599
 20
-3.29563928
 30
0.0
 40
1.5
100
AcDbArc
 50
180.0
 51
270.0
  0
ARC
  5
530
100
AcDbEntity
  8
LAYER0016
  6
CONTINUOUS
 62
       7
100
AcDbCircle
 10
-50.03735599
 20
47.70436072
 30
0.0
 40
1.5
100
AcDbArc
 50
90.0
 51
180.0
  0
ARC
  5
531
100
AcDbEntity
  8
LAYER0016
  6
CONTINUOUS
 62
       7
100
AcDbCircle
 10
-36.53735599
 20
47.70436072
 30
0.0
 40
1.5
100
AcDbArc
 50
0.0
 51
90.0
  0
LINE
  5
532
100
AcDbEntity
  8
LAYER0016
  6
CONTINUOUS
 62
       7
100
AcDbLine
 10
-53.78735599
 20
-1.79563928
 30
0.0
 11
-51.53735599
 21
-1.79563928
 31
0.0
  0
LINE
  5
533
100
AcDbEntity
  8
LAYER0016
  6
CONTINUOUS
 62
       7
100
AcDbLine
 10
-53.78735599
 20
-0.29563928
 30
0.0
 11
-51.53735599
 21
-0.29563928
 31
0.0
  0
LINE
  5
534
100
AcDbEntity
  8
LAYER0016
  6
CONTINUOUS
 62
       7
100
AcDbLine
 10
-53.78735599
 20
46.20436072
 30
0.0
 11
-51.53735599
 21
46.20436072
 31
0.0
  0
LINE
  5
535
100
AcDbEntity
  8
LAYER0016
  6
CONTINUOUS
 62
       7
100
AcDbLine
 10
-53.78735599
 20
44.70436072
 30
0.0
 11
-51.53735599
 21
44.70436072
 31
0.0
  0
LINE
  5
536
100
AcDbEntity
  8
LAYER0016
  6
CONTINUOUS
 62
       7
100
AcDbLine
 10
229.71264401
 20
40.95436072
 30
0.0
 11
229.71264401
 21
3.45436072
 31
0.0
  0
LINE
  5
537
100
AcDbEntity
  8
LAYER0016
  6
CONTINUOUS
 62
       7
100
AcDbLine
 10
178.69054918
 20
-22.79563928
 30
0.0
 11
178.69054918
 21
67.20436072
 31
0.0
  0
LINE
  5
538
100
AcDbEntity
  8
LAYER0016
  6
CONTINUOUS
 62
       7
100
AcDbLine
 10
154.69054918
 20
3.45436072
 30
0.0
 11
154.69054918
 21
40.95436072
 31
0.0
  0
ARC
  5
539
100
AcDbEntity
  8
LAYER0016
  6
CONTINUOUS
 62
       7
100
AcDbCircle
 10
254.93099964
 20
31.34028497
 30
0.0
 40
100.70043873
100
AcDbArc
 50
167.36497221
 51
174.52151112
  0
ARC
  5
53A
100
AcDbEntity
  8
LAYER0016
  6
CONTINUOUS
 62
       7
100
AcDbCircle
 10
177.77482383
 20
36.61662374
 30
0.0
 40
30.60144125
100
AcDbArc
 50
88.28521045
 51
107.47953918
  0
ARC
  5
53B
100
AcDbEntity
  8
LAYER0016
  6
CONTINUOUS
 62
       7
100
AcDbCircle
 10
175.36044093
 20
46.79631471
 30
0.0
 40
20.2214419
100
AcDbArc
 50
115.79041111
 51
140.94194936
  0
ARC
  5
53C
100
AcDbEntity
  8
LAYER0016
  6
CONTINUOUS
 62
       7
100
AcDbCircle
 10
171.30594978
 20
50.08638416
 30
0.0
 40
15.0
100
AcDbArc
 50
140.94194936
 51
167.36497221
  0
ARC
  5
53D
100
AcDbEntity
  8
LAYER0016
  6
CONTINUOUS
 62
       7
100
AcDbCircle
 10
173.08869381
 20
51.49765712
 30
0.0
 40
15.0
100
AcDbArc
 50
107.47953918
 51
115.79041111
  0
ARC
  5
53E
100
AcDbEntity
  8
LAYER0016
  6
CONTINUOUS
 62
       7
100
AcDbCircle
 10
254.93099964
 20
13.06843647
 30
0.0
 40
100.70043873
100
AcDbArc
 50
185.47848888
 51
192.63502779
  0
ARC
  5
53F
100
AcDbEntity
  8
LAYER0016
  6
CONTINUOUS
 62
       7
100
AcDbCircle
 10
177.77482383
 20
7.79209771
 30
0.0
 40
30.60144125
100
AcDbArc
 50
252.52046082
 51
271.71478955
  0
ARC
  5
540
100
AcDbEntity
  8
LAYER0016
  6
CONTINUOUS
 62
       7
100
AcDbCircle
 10
175.36044093
 20
-2.38759327
 30
0.0
 40
20.2214419
100
AcDbArc
 50
219.05805064
 51
244.20958889
  0
ARC
  5
541
100
AcDbEntity
  8
LAYER0016
  6
CONTINUOUS
 62
       7
100
AcDbCircle
 10
171.30594978
 20
-5.67766272
 30
0.0
 40
15.0
100
AcDbArc
 50
192.63502779
 51
219.05805064
  0
ARC
  5
542
100
AcDbEntity
  8
LAYER0016
  6
CONTINUOUS
 62
       7
100
AcDbCircle
 10
173.08869381
 20
-7.08893568
 30
0.0
 40
15.0
100
AcDbArc
 50
244.20958889
 51
252.52046082
  0
LINE
  5
543
100
AcDbEntity
  8
LAYER0016
  6
CONTINUOUS
 62
       7
100
AcDbLine
 10
229.71264401
 20
3.45436072
 30
0.0
 11
178.69054918
 21
3.45436072
 31
0.0
  0
LINE
  5
544
100
AcDbEntity
  8
LAYER0016
  6
CONTINUOUS
 62
       7
100
AcDbLine
 10
154.69054918
 20
3.45436072
 30
0.0
 11
-35.03735599
 21
3.45436072
 31
0.0
  0
LINE
  5
545
100
AcDbEntity
  8
LAYER0016
  6
CONTINUOUS
 62
       7
100
AcDbLine
 10
229.71264401
 20
40.95436072
 30
0.0
 11
178.69054918
 21
40.95436072
 31
0.0
  0
LINE
  5
546
100
AcDbEntity
  8
LAYER0016
  6
CONTINUOUS
 62
       7
100
AcDbLine
 10
154.51901529
 20
40.95436072
 30
0.0
 11
-35.03735599
 21
40.95436072
 31
0.0
  0
CIRCLE
  5
547
100
AcDbEntity
  8
LAYER0016
  6
CONTINUOUS
 62
       7
100
AcDbCircle
 10
-118.28735599
 20
329.31263459
 30
0.0
 40
37.5
  0
CIRCLE
  5
548
100
AcDbEntity
  8
LAYER0016
  6
CONTINUOUS
 62
       7
100
AcDbCircle
 10
-118.28735599
 20
329.31263459
 30
0.0
 40
21.0
  0
CIRCLE
  5
549
100
AcDbEntity
  8
LAYER0016
  6
CONTINUOUS
 62
       7
100
AcDbCircle
 10
-118.28735599
 20
329.31263459
 30
0.0
 40
18.75
  0
LINE
  5
54A
100
AcDbEntity
  8
LAYER0016
  6
CONTINUOUS
 62
       7
100
AcDbLine
 10
-136.90186646
 20
331.56263459
 30
0.0
 11
-99.67284552
 21
331.56263459
 31
0.0
  0
LINE
  5
54B
100
AcDbEntity
  8
LAYER0016
  6
CONTINUOUS
 62
       7
100
AcDbLine
 10
-136.90186646
 20
327.06263459
 30
0.0
 11
-99.67284552
 21
327.06263459
 31
0.0
  0
LINE
  5
54C
100
AcDbEntity
  8
LAYER0016
  6
CONTINUOUS
 62
       7
100
AcDbLine
 10
-120.53735599
 20
347.92714506
 30
0.0
 11
-120.53735599
 21
331.56263459
 31
0.0
  0
LINE
  5
54D
100
AcDbEntity
  8
LAYER0016
  6
CONTINUOUS
 62
       7
100
AcDbLine
 10
-116.03735599
 20
347.92714506
 30
0.0
 11
-116.03735599
 21
331.56263459
 31
0.0
  0
LINE
  5
54E
100
AcDbEntity
  8
LAYER0016
  6
CONTINUOUS
 62
       7
100
AcDbLine
 10
-116.03735599
 20
327.06263459
 30
0.0
 11
-116.03735599
 21
310.69812412
 31
0.0
  0
LINE
  5
54F
100
AcDbEntity
  8
LAYER0016
  6
CONTINUOUS
 62
       7
100
AcDbLine
 10
-120.53735599
 20
327.06263459
 30
0.0
 11
-120.53735599
 21
310.69812412
 31
0.0
  0
LINE
  5
550
100
AcDbEntity
  8
LAYER0016
  6
CENTER
 62
       7
100
AcDbLine
 10
-118.28735599
 20
372.06702477
 30
0.0
 11
-118.28735599
 21
283.29731635
 31
0.0
  0
LINE
  5
551
100
AcDbEntity
  8
LAYER0016
  6
CENTER
 62
       7
100
AcDbLine
 10
-163.74800372
 20
329.31263459
 30
0.0
 11
-69.18108986
 21
329.31263459
 31
0.0
  0
INSERT
  5
552
100
AcDbEntity
  8
LAYER0016
  6
CONTINUOUS
100
AcDbBlockReference
  2
DA_IMAGEDIMGROUP_1
 10
0.0
 20
0.0
 30
0.0
  0
INSERT
  5
553
100
AcDbEntity
  8
LAYER0016
  6
CONTINUOUS
100
AcDbBlockReference
  2
DA_IMAGEDIMGROUP_2
 10
0.0
 20
0.0
 30
0.0
  0
INSERT
  5
554
100
AcDbEntity
  8
LAYER0016
  6
CONTINUOUS
100
AcDbBlockReference
  2
DA_IMAGEDIMGROUP_3
 10
0.0
 20
0.0
 30
0.0
  0
INSERT
  5
555
100
AcDbEntity
  8
LAYER0016
  6
CONTINUOUS
100
AcDbBlockReference
  2
DA_IMAGEDIMGROUP_4
 10
0.0
 20
0.0
 30
0.0
  0
INSERT
  5
556
100
AcDbEntity
  8
LAYER0016
  6
CONTINUOUS
100
AcDbBlockReference
  2
DA_IMAGEDIMGROUP_5
 10
0.0
 20
0.0
 30
0.0
  0
INSERT
  5
557
100
AcDbEntity
  8
LAYER0016
  6
CONTINUOUS
100
AcDbBlockReference
  2
DA_IMAGEDIMGROUP_6
 10
0.0
 20
0.0
 30
0.0
  0
INSERT
  5
558
100
AcDbEntity
  8
LAYER0016
  6
CONTINUOUS
100
AcDbBlockReference
  2
DA_IMAGEDIMGROUP_7
 10
0.0
 20
0.0
 30
0.0
  0
INSERT
  5
559
100
AcDbEntity
  8
LAYER0016
  6
CONTINUOUS
100
AcDbBlockReference
  2
DA_IMAGEDIMGROUP_8
 10
0.0
 20
0.0
 30
0.0
  0
INSERT
  5
55A
100
AcDbEntity
  8
LAYER0016
  6
CONTINUOUS
100
AcDbBlockReference
  2
DA_IMAGEDIMGROUP_9
 10
0.0
 20
0.0
 30
0.0
  0
INSERT
  5
55B
100
AcDbEntity
  8
LAYER0016
  6
CONTINUOUS
100
AcDbBlockReference
  2
DA_IMAGEDIMGROUP_10
 10
0.0
 20
0.0
 30
0.0
  0
INSERT
  5
55C
100
AcDbEntity
  8
LAYER0016
  6
CONTINUOUS
100
AcDbBlockReference
  2
DA_IMAGEDIMGROUP_11
 10
0.0
 20
0.0
 30
0.0
  0
INSERT
  5
55D
100
AcDbEntity
  8
0
  6
CONTINUOUS
100
AcDbBlockReference
  2
GROUP_1
 10
0.0
 20
0.0
 30
0.0
  0
INSERT
  5
55E
100
AcDbEntity
  8
0
  6
CONTINUOUS
100
AcDbBlockReference
  2
GROUP_2
 10
0.0
 20
0.0
 30
0.0
  0
INSERT
  5
55F
100
AcDbEntity
  8
0
  6
CONTINUOUS
100
AcDbBlockReference
  2
GROUP_3
 10
0.0
 20
0.0
 30
0.0
  0
INSERT
  5
560
100
AcDbEntity
  8
0
  6
CONTINUOUS
100
AcDbBlockReference
  2
GROUP_4
 10
0.0
 20
0.0
 30
0.0
  0
INSERT
  5
561
100
AcDbEntity
  8
0
  6
CONTINUOUS
100
AcDbBlockReference
  2
GROUP_5
 10
0.0
 20
0.0
 30
0.0
  0
INSERT
  5
562
100
AcDbEntity
  8
0
  6
CONTINUOUS
100
AcDbBlockReference
  2
GROUP_6
 10
0.0
 20
0.0
 30
0.0
  0
INSERT
  5
563
100
AcDbEntity
  8
0
  6
CONTINUOUS
100
AcDbBlockReference
  2
GROUP_7
 10
0.0
 20
0.0
 30
0.0
  0
INSERT
  5
564
100
AcDbEntity
  8
0
  6
CONTINUOUS
100
AcDbBlockReference
  2
GROUP_8
 10
0.0
 20
0.0
 30
0.0
  0
INSERT
  5
565
100
AcDbEntity
  8
0
  6
CONTINUOUS
100
AcDbBlockReference
  2
GROUP_9
 10
0.0
 20
0.0
 30
0.0
  0
INSERT
  5
566
100
AcDbEntity
  8
0
  6
CONTINUOUS
100
AcDbBlockReference
  2
GROUP_10
 10
0.0
 20
0.0
 30
0.0
  0
INSERT
  5
567
100
AcDbEntity
  8
0
  6
CONTINUOUS
100
AcDbBlockReference
  2
GROUP_11
 10
0.0
 20
0.0
 30
0.0
  0
INSERT
  5
568
100
AcDbEntity
  8
0
  6
CONTINUOUS
100
AcDbBlockReference
  2
GROUP_12
 10
0.0
 20
0.0
 30
0.0
  0
POINT
  5
569
100
AcDbEntity
  8
ZUWAKU
  6
CONTINUOUS
 62
       7
100
AcDbPoint
 10
118.80683805
 20
377.64764036
 30
0.0
  0
ENDSEC
  0
SECTION
  2
OBJECTS
  0
DICTIONARY
  5
19
100
AcDbDictionary
  3
ACAD_GROUP
350
1A
  3
ACAD_MLINESTYLE
350
1B
  0
DICTIONARY
  5
1A
102
{ACAD_REACTORS
330
19
102
}
100
AcDbDictionary
  0
DICTIONARY
  5
1B
102
{ACAD_REACTORS
330
19
102
}
100
AcDbDictionary
  3
STANDARD
350
1C
  0
MLINESTYLE
  5
1C
102
{ACAD_REACTORS
330
1B
102
}
100
AcDbMlineStyle
  2
STANDARD
 70
       0
  3

 62
       0
 51
90.0
 52
90.0
 71
       2
 49
0.5
 62
     256
  6
BYLAYER
 49
-0.5
 62
     256
  6
BYLAYER
  0
ENDSEC
  0
EOF
