  0
SECTION
  2
HEADER
  9
$ACADVER
  1
AC1014
  9
$ACADMAINTVER
 70
       0
  9
$DWGCODEPAGE
  3
ANSI_932
  9
$INSBASE
 10
0.0
 20
0.0
 30
0.0
  9
$EXTMIN
 10
-1074.4628511
 20
-1486.32216201
 30
0.0
  9
$EXTMAX
 10
1158.71759436
 20
1438.41108101
 30
0.0
  9
$LIMMIN
 10
-315.0
 20
-445.5
  9
$LIMMAX
 10
315.0
 20
445.5
  9
$ORTHOMODE
 70
       0
  9
$REGENMODE
 70
       1
  9
$FILLMODE
 70
       1
  9
$QTEXTMODE
 70
       0
  9
$MIRRTEXT
 70
       1
  9
$DRAGMODE
 70
       2
  9
$LTSCALE
 40
3.0
  9
$OSMODE
 70
       0
  9
$ATTMODE
 70
       1
  9
$TEXTSIZE
 40
0.2
  9
$TRACEWID
 40
0.05
  9
$TEXTSTYLE
  7
STANDARD
  9
$CLAYER
  8
0
  9
$CELTYPE
  6
CONTINUOUS
  9
$CECOLOR
 62
     256
  9
$CELTSCALE
 40
1.0
  9
$DELOBJ
 70
       1
  9
$DISPSILH
 70
       0
  9
$DIMSCALE
 40
1.0
  9
$DIMASZ
 40
6.0
  9
$DIMEXO
 40
0.0625
  9
$DIMDLI
 40
0.38
  9
$DIMRND
 40
0.0
  9
$DIMDLE
 40
0.0
  9
$DIMEXE
 40
0.18
  9
$DIMTP
 40
0.0
  9
$DIMTM
 40
0.0
  9
$DIMTXT
 40
6.0
  9
$DIMCEN
 40
0.09
  9
$DIMTSZ
 40
0.0
  9
$DIMTOL
 70
       0
  9
$DIMLIM
 70
       0
  9
$DIMTIH
 70
       1
  9
$DIMTOH
 70
       1
  9
$DIMSE1
 70
       0
  9
$DIMSE2
 70
       0
  9
$DIMTAD
 70
       0
  9
$DIMZIN
 70
       0
  9
$DIMBLK
  1

  9
$DIMASO
 70
       1
  9
$DIMSHO
 70
       1
  9
$DIMPOST
  1

  9
$DIMAPOST
  1

  9
$DIMALT
 70
       0
  9
$DIMALTD
 70
       2
  9
$DIMALTF
 40
25.4
  9
$DIMLFAC
 40
1.0
  9
$DIMTOFL
 70
       0
  9
$DIMTVP
 40
0.0
  9
$DIMTIX
 70
       0
  9
$DIMSOXD
 70
       0
  9
$DIMSAH
 70
       0
  9
$DIMBLK1
  1

  9
$DIMBLK2
  1

  9
$DIMSTYLE
  2
STANDARD
  9
$DIMCLRD
 70
       0
  9
$DIMCLRE
 70
       0
  9
$DIMCLRT
 70
       0
  9
$DIMTFAC
 40
1.0
  9
$DIMGAP
 40
0.09
  9
$DIMJUST
 70
       0
  9
$DIMSD1
 70
       0
  9
$DIMSD2
 70
       0
  9
$DIMTOLJ
 70
       1
  9
$DIMTZIN
 70
       0
  9
$DIMALTZ
 70
       0
  9
$DIMALTTZ
 70
       0
  9
$DIMFIT
 70
       3
  9
$DIMUPT
 70
       0
  9
$DIMUNIT
 70
       2
  9
$DIMDEC
 70
       4
  9
$DIMTDEC
 70
       4
  9
$DIMALTU
 70
       2
  9
$DIMALTTD
 70
       2
  9
$DIMTXSTY
  7
STANDARD
  9
$DIMAUNIT
 70
       0
  9
$LUNITS
 70
       2
  9
$LUPREC
 70
       4
  9
$SKETCHINC
 40
0.1
  9
$FILLETRAD
 40
0.0
  9
$AUNITS
 70
       0
  9
$AUPREC
 70
       0
  9
$MENU
  1
acad
  9
$ELEVATION
 40
0.0
  9
$PELEVATION
 40
0.0
  9
$THICKNESS
 40
0.0
  9
$LIMCHECK
 70
       0
  9
$BLIPMODE
 70
       1
  9
$CHAMFERA
 40
0.0
  9
$CHAMFERB
 40
0.0
  9
$CHAMFERC
 40
0.0
  9
$CHAMFERD
 40
0.0
  9
$SKPOLY
 70
       0
  9
$TDCREATE
 40
0.000000000
  9
$TDUPDATE
 40
0.000000000
  9
$TDINDWG
 40
0.0000000000
  9
$TDUSRTIMER
 40
0.0000000000
  9
$USRTIMER
 70
       1
  9
$ANGBASE
 50
0.0
  9
$ANGDIR
 70
       0
  9
$PDMODE
 70
       0
  9
$PDSIZE
 40
1.0
  9
$PLINEWID
 40
0.0
  9
$COORDS
 70
       1
  9
$SPLFRAME
 70
       0
  9
$SPLINETYPE
 70
       6
  9
$SPLINESEGS
 70
       8
  9
$ATTDIA
 70
       0
  9
$ATTREQ
 70
       1
  9
$HANDLING
 70
       1
  9
$HANDSEED
  5
539
  9
$SURFTAB1
 70
       6
  9
$SURFTAB2
 70
       6
  9
$SURFTYPE
 70
       6
  9
$SURFU
 70
       6
  9
$SURFV
 70
       6
  9
$UCSNAME
  2

  9
$UCSORG
 10
0.0
 20
0.0
 30
0.0
  9
$UCSXDIR
 10
1.0
 20
0.0
 30
0.0
  9
$UCSYDIR
 10
0.0
 20
1.0
 30
0.0
  9
$PUCSNAME
  2

  9
$PUCSORG
 10
0.0
 20
0.0
 30
0.0
  9
$PUCSXDIR
 10
1.0
 20
0.0
 30
0.0
  9
$PUCSYDIR
 10
0.0
 20
1.0
 30
0.0
  9
$USERI1
 70
       0
  9
$USERI2
 70
       0
  9
$USERI3
 70
       0
  9
$USERI4
 70
       0
  9
$USERI5
 70
       0
  9
$USERR1
 40
0.0
  9
$USERR2
 40
0.0
  9
$USERR3
 40
0.0
  9
$USERR4
 40
0.0
  9
$USERR5
 40
0.0
  9
$WORLDVIEW
 70
       1
  9
$SHADEDGE
 70
       3
  9
$SHADEDIF
 70
      70
  9
$TILEMODE
 70
       1
  9
$MAXACTVP
 70
      16
  9
$PINSBASE
 10
0.0
 20
0.0
 30
0.0
  9
$PLIMCHECK
 70
       0
  9
$PEXTMIN
 10
1.00000000E+20
 20
1.00000000E+20
 30
1.00000000E+20
  9
$PEXTMAX
 10
-1.00000000E+20
 20
-1.00000000E+20
 30
-1.00000000E+20
  9
$PLIMMIN
 10
0.0
 20
0.0
  9
$PLIMMAX
 10
12.0
 20
9.0
  9
$UNITMODE
 70
       0
  9
$VISRETAIN
 70
       0
  9
$PLINEGEN
 70
       1
  9
$PSLTSCALE
 70
       0
  9
$TREEDEPTH
 70
    3020
  9
$PICKSTYLE
 70
       1
  9
$CMLSTYLE
  2
STANDARD
  9
$CMLJUST
 70
       0
  9
$CMLSCALE
 40
1.0
  9
$PROXYGRAPHICS
 70
       0
  9
$MEASUREMENT
 70
       0
  0
ENDSEC
  0
SECTION
  2
CLASSES
  0
CLASS
  1
LWPOLYLINE
  2
AcDbPolyline
  3
"AutoCAD"
 90
        0
280
       0
281
       1
  0
CLASS
  1
IMAGE
  2
AcDbRasterImage
  3
ISM
 90
      127
280
       0
281
       1
  0
CLASS
  1
OLE2FRAME
  2
AcDbOle2Frame
  3
""
 90
        0
280
       0
281
       1
  0
CLASS
  1
HATCH
  2
AcDbHatch
  3
"ACAD_SEDONA"
 90
        0
280
       0
281
       1
  0
CLASS
  1
DICTIONARYVAR
  2
AcDbDictionaryVar
  3
"AutoCAD"
 90
        0
280
       0
281
       0
  0
CLASS
  1
RASTERVARIABLES
  2
AcDbRasterVariables
  3
ISM
 90
        0
280
       0
281
       0
  0
CLASS
  1
IMAGEDEF
  2
AcDbRasterImageDef
  3
ISM
 90
        0
280
       0
281
       0
  0
CLASS
  1
IMAGEDEF_REACTOR
  2
AcDbRasterImageDefReactor
  3
ISM
 90
        1
280
       0
281
       0
  0
CLASS
  1
IDBUFFER
  2
AcDbIdBuffer
  3
"Acad"
 90
        0
280
       0
281
       0
  0
CLASS
  1
SPATIAL_FILTER
  2
AcDbSpatialFilter
  3
"Acad"
 90
        0
280
       0
281
       0
  0
CLASS
  1
XRECORD
  2
AcDbXrecord
  3
"<Built In>"
 90
        0
280
       0
281
       0
  0
CLASS
  1
SORTENTSTABLE
  2
AcDbSortentsTable
  3
"AutoCAD"
 90
        0
280
       0
281
       0
  0
CLASS
  1
LAYER_INDEX
  2
AcDbLayerIndex
  3
"Acad"
 90
        0
280
       0
281
       0
  0
CLASS
  1
SPATIAL_INDEX
  2
AcDbSpatialIndex
  3
"Acad"
 90
        0
280
       0
281
       0
  0
CLASS
  1
OBJECT_PTR
  2
CAseDLPNTableRecord
  3
"ASE-LPNTableRecord"
 90
        1
280
       0
281
       0
  0
CLASS
  1
LAYOUT
  2
AcDbLayout
  3
"AutoCAD 2000"
 90
        0
280
       0
281
       0
  0
CLASS
  1
PLOTSETTINGS
  2
AcDbPlotSettings
  3
"AutoCAD 2000"
 90
        0
280
       0
281
       0
  0
CLASS
  1
ACDBDICTIONARYWDFLT
  2
AcDbDictionaryWithDefault
  3
"AutoCAD 2000"
 90
        0
280
       0
281
       0
  0
CLASS
  1
ACDBPLACEHOLDER
  2
AcDbPlaceHolder
  3
"AutoCAD 2000"
 90
        0
280
       0
281
       0
  0
CLASS
  1
VBA_PROJECT
  2
AcDbVbaProject
  3
"acadvba"
 90
        0
280
       0
281
       0
  0
CLASS
  1
WIPEOUT
  2
AcDbWipeout
  3
WipeOut|AutoCAD Express Tool|expresstools@autodesk.com
 90
      127
280
       0
281
       1
  0
CLASS
  1
WIPEOUTVARIABLES
  2
AcDbWipeoutVariables
  3
WipeOut|AutoCAD Express Tool|expresstools@autodesk.com
 90
        0
280
       0
281
       0
  0
CLASS
  1
RTEXT
  2
RText
  3
RText|AutoCAD Express Tool|expresstools@autodesk.com
 90
        0
280
       0
281
       1
  0
CLASS
  1
ARCALIGNEDTEXT
  2
AcDbArcAlignedText
  3
ATEXT|AutoCAD Express Tool|expresstools@autodesk.com
 90
        0
280
       0
281
       1
  0
ENDSEC
  0
SECTION
  2
TABLES
  0
TABLE
  2
VPORT
  5
7
100
AcDbSymbolTable
 70
       1
  0
VPORT
  5
15
100
AcDbSymbolTableRecord
100
AcDbViewportTableRecord
  2
*ACTIVE
 70
       0
 10
0.0
 20
0.0
 11
1.0
 21
1.0
 12
0.0
 22
0.0
 13
0.0
 23
0.0
 14
1.0
 24
1.0
 15
0.0
 25
0.0
 16
0.0
 26
0.0
 36
1.0
 17
0.0
 27
0.0
 37
0.0
 40
891.0
 41
0.70707071
 42
50.0
 43
0.0
 44
0.0
 50
0.0
 51
0.0
 71
       0
 72
     100
 73
       1
 74
       1
 75
       0
 76
       0
 77
       0
 78
       0
  0
ENDTAB
  0
TABLE
  2
LTYPE
  5
4
100
AcDbSymbolTable
 70
      30
  0
LTYPE
  5
11
100
AcDbSymbolTableRecord
100
AcDbLinetypeTableRecord
  2
BYBLOCK
 70
      64
  3

 72
      65
 73
       0
 40
0.0
  0
LTYPE
  5
12
100
AcDbSymbolTableRecord
100
AcDbLinetypeTableRecord
  2
BYLAYER
 70
      64
  3

 72
      65
 73
       0
 40
0.0
  0
LTYPE
  5
13
100
AcDbSymbolTableRecord
100
AcDbLinetypeTableRecord
  2
CONTINUOUS
 70
      64
  3
Solid line
 72
      65
 73
       0
 40
0.0
  0
LTYPE
  5
1D
100
AcDbSymbolTableRecord
100
AcDbLinetypeTableRecord
  2
HIDDENX2
 70
      64
  3
CADPAC LINETYPE
 72
      65
 73
       2
 40
7.25274725
 49
5.43956044
 74
       0
 49
-1.81318681
 74
       0
  0
LTYPE
  5
1E
100
AcDbSymbolTableRecord
100
AcDbLinetypeTableRecord
  2
HIDDEN
 70
      64
  3
CADPAC LINETYPE
 72
      65
 73
       2
 40
5.43956044
 49
3.62637363
 74
       0
 49
-1.81318681
 74
       0
  0
LTYPE
  5
1F
100
AcDbSymbolTableRecord
100
AcDbLinetypeTableRecord
  2
HIDDEN2
 70
      64
  3
CADPAC LINETYPE
 72
      65
 73
       2
 40
4.53296703
 49
2.71978022
 74
       0
 49
-1.81318681
 74
       0
  0
LTYPE
  5
20
100
AcDbSymbolTableRecord
100
AcDbLinetypeTableRecord
  2
DASHED
 70
      64
  3
CADPAC LINETYPE
 72
      65
 73
       2
 40
5.07692308
 49
3.62637363
 74
       0
 49
-1.45054945
 74
       0
  0
LTYPE
  5
21
100
AcDbSymbolTableRecord
100
AcDbLinetypeTableRecord
  2
DASHED2
 70
      64
  3
CADPAC LINETYPE
 72
      65
 73
       2
 40
3.26373626
 49
2.17582418
 74
       0
 49
-1.08791209
 74
       0
  0
LTYPE
  5
22
100
AcDbSymbolTableRecord
100
AcDbLinetypeTableRecord
  2
DASHEDX2
 70
      64
  3
CADPAC LINETYPE
 72
      65
 73
       2
 40
8.7032967
 49
7.25274725
 74
       0
 49
-1.45054945
 74
       0
  0
LTYPE
  5
23
100
AcDbSymbolTableRecord
100
AcDbLinetypeTableRecord
  2
DOTX2
 70
      64
  3
CADPAC LINETYPE
 72
      65
 73
       2
 40
3.17307692
 49
0.0
 74
       0
 49
-3.17307692
 74
       0
  0
LTYPE
  5
24
100
AcDbSymbolTableRecord
100
AcDbLinetypeTableRecord
  2
DOT
 70
      64
  3
CADPAC LINETYPE
 72
      65
 73
       2
 40
2.53846154
 49
0.0
 74
       0
 49
-2.53846154
 74
       0
  0
LTYPE
  5
25
100
AcDbSymbolTableRecord
100
AcDbLinetypeTableRecord
  2
DOT2
 70
      64
  3
CADPAC LINETYPE
 72
      65
 73
       2
 40
1.90384615
 49
0.0
 74
       0
 49
-1.90384615
 74
       0
  0
LTYPE
  5
26
100
AcDbSymbolTableRecord
100
AcDbLinetypeTableRecord
  2
CENTERX2
 70
      64
  3
CADPAC LINETYPE
 72
      65
 73
       4
 40
10.87912088
 49
4.53296703
 74
       0
 49
-2.26648352
 74
       0
 49
1.81318681
 74
       0
 49
-2.26648352
 74
       0
  0
LTYPE
  5
27
100
AcDbSymbolTableRecord
100
AcDbLinetypeTableRecord
  2
CENTER
 70
      64
  3
CADPAC LINETYPE
 72
      65
 73
       4
 40
8.34065934
 49
3.62637363
 74
       0
 49
-1.81318681
 74
       0
 49
1.08791209
 74
       0
 49
-1.81318681
 74
       0
  0
LTYPE
  5
28
100
AcDbSymbolTableRecord
100
AcDbLinetypeTableRecord
  2
CENTER2
 70
      64
  3
CADPAC LINETYPE
 72
      65
 73
       4
 40
5.8021978
 49
2.71978022
 74
       0
 49
-1.35989011
 74
       0
 49
0.36263736
 74
       0
 49
-1.35989011
 74
       0
  0
LTYPE
  5
29
100
AcDbSymbolTableRecord
100
AcDbLinetypeTableRecord
  2
DASHDOTX2
 70
      64
  3
CADPAC LINETYPE
 72
      65
 73
       4
 40
17.40659341
 49
8.7032967
 74
       0
 49
-2.9010989
 74
       0
 49
2.9010989
 74
       0
 49
-2.9010989
 74
       0
  0
LTYPE
  5
2A
100
AcDbSymbolTableRecord
100
AcDbLinetypeTableRecord
  2
DASHDOT
 70
      64
  3
CADPAC LINETYPE
 72
      65
 73
       4
 40
8.7032967
 49
4.35164835
 74
       0
 49
-1.45054945
 74
       0
 49
1.45054945
 74
       0
 49
-1.45054945
 74
       0
  0
LTYPE
  5
2B
100
AcDbSymbolTableRecord
100
AcDbLinetypeTableRecord
  2
DASHDOT2
 70
      64
  3
CADPAC LINETYPE
 72
      65
 73
       4
 40
5.58461538
 49
3.26373626
 74
       0
 49
-1.08791209
 74
       0
 49
0.14505495
 74
       0
 49
-1.08791209
 74
       0
  0
LTYPE
  5
2C
100
AcDbSymbolTableRecord
100
AcDbLinetypeTableRecord
  2
DIVIDEX2
 70
      64
  3
CADPAC LINETYPE
 72
      65
 73
       6
 40
23.20879121
 49
8.7032967
 74
       0
 49
-2.9010989
 74
       0
 49
2.9010989
 74
       0
 49
-2.9010989
 74
       0
 49
2.9010989
 74
       0
 49
-2.9010989
 74
       0
  0
LTYPE
  5
2D
100
AcDbSymbolTableRecord
100
AcDbLinetypeTableRecord
  2
DIVIDE
 70
      64
  3
CADPAC LINETYPE
 72
      65
 73
       6
 40
11.6043956
 49
4.35164835
 74
       0
 49
-1.45054945
 74
       0
 49
1.45054945
 74
       0
 49
-1.45054945
 74
       0
 49
1.45054945
 74
       0
 49
-1.45054945
 74
       0
  0
LTYPE
  5
2E
100
AcDbSymbolTableRecord
100
AcDbLinetypeTableRecord
  2
DIVIDE2
 70
      64
  3
CADPAC LINETYPE
 72
      65
 73
       6
 40
8.7032967
 49
3.26373626
 74
       0
 49
-1.08791209
 74
       0
 49
1.08791209
 74
       0
 49
-1.08791209
 74
       0
 49
1.08791209
 74
       0
 49
-1.08791209
 74
       0
  0
LTYPE
  5
2F
100
AcDbSymbolTableRecord
100
AcDbLinetypeTableRecord
  2
BORDERX2
 70
      64
  3
CADPAC LINETYPE
 72
      65
 73
       6
 40
15.86538462
 49
4.53296703
 74
       0
 49
-2.26648352
 74
       0
 49
4.53296703
 74
       0
 49
-2.26648352
 74
       0
 49
0.0
 74
       0
 49
-2.26648352
 74
       0
  0
LTYPE
  5
30
100
AcDbSymbolTableRecord
100
AcDbLinetypeTableRecord
  2
BORDER
 70
      64
  3
CADPAC LINETYPE
 72
      65
 73
       6
 40
12.69230769
 49
3.62637363
 74
       0
 49
-1.81318681
 74
       0
 49
3.62637363
 74
       0
 49
-1.81318681
 74
       0
 49
0.0
 74
       0
 49
-1.81318681
 74
       0
  0
LTYPE
  5
31
100
AcDbSymbolTableRecord
100
AcDbLinetypeTableRecord
  2
BORDER2
 70
      64
  3
CADPAC LINETYPE
 72
      65
 73
       6
 40
9.42857143
 49
2.9010989
 74
       0
 49
-1.81318681
 74
       0
 49
1.08791209
 74
       0
 49
-1.81318681
 74
       0
 49
0.0
 74
       0
 49
-1.81318681
 74
       0
  0
LTYPE
  5
32
100
AcDbSymbolTableRecord
100
AcDbLinetypeTableRecord
  2
PHANTOMX2
 70
      64
  3
CADPAC LINETYPE
 72
      65
 73
       6
 40
13.5989011
 49
4.53296703
 74
       0
 49
-1.81318681
 74
       0
 49
1.81318681
 74
       0
 49
-1.81318681
 74
       0
 49
1.81318681
 74
       0
 49
-1.81318681
 74
       0
  0
LTYPE
  5
33
100
AcDbSymbolTableRecord
100
AcDbLinetypeTableRecord
  2
PHANTOM
 70
      64
  3
CADPAC LINETYPE
 72
      65
 73
       6
 40
11.24175824
 49
3.62637363
 74
       0
 49
-1.81318681
 74
       0
 49
1.08791209
 74
       0
 49
-1.81318681
 74
       0
 49
1.08791209
 74
       0
 49
-1.81318681
 74
       0
  0
LTYPE
  5
34
100
AcDbSymbolTableRecord
100
AcDbLinetypeTableRecord
  2
PHANTOM2
 70
      64
  3
CADPAC LINETYPE
 72
      65
 73
       6
 40
9.60989011
 49
2.71978022
 74
       0
 49
-1.81318681
 74
       0
 49
0.72527473
 74
       0
 49
-1.81318681
 74
       0
 49
0.72527473
 74
       0
 49
-1.81318681
 74
       0
  0
LTYPE
  5
35
100
AcDbSymbolTableRecord
100
AcDbLinetypeTableRecord
  2
ACAD_ISO06W100
 70
      64
  3
CADPAC LINETYPE
 72
      65
 73
       8
 40
19.21978022
 49
8.7032967
 74
       0
 49
-1.81318681
 74
       0
 49
1.08791209
 74
       0
 49
-1.81318681
 74
       0
 49
1.08791209
 74
       0
 49
-1.81318681
 74
       0
 49
1.08791209
 74
       0
 49
-1.81318681
 74
       0
  0
LTYPE
  5
36
100
AcDbSymbolTableRecord
100
AcDbLinetypeTableRecord
  2
ACAD_ISO13W100
 70
      64
  3
CADPAC LINETYPE
 72
      65
 73
       8
 40
14.50549451
 49
3.62637363
 74
       0
 49
-1.81318681
 74
       0
 49
3.62637363
 74
       0
 49
-1.81318681
 74
       0
 49
0.0
 74
       0
 49
-1.81318681
 74
       0
 49
0.0
 74
       0
 49
-1.81318681
 74
       0
  0
LTYPE
  5
37
100
AcDbSymbolTableRecord
100
AcDbLinetypeTableRecord
  2
ACAD_ISO14W100
 70
      64
  3
CADPAC LINETYPE
 72
      65
 73
       8
 40
10.87912088
 49
3.62637363
 74
       0
 49
-1.81318681
 74
       0
 49
0.0
 74
       0
 49
-1.81318681
 74
       0
 49
0.0
 74
       0
 49
-1.81318681
 74
       0
 49
0.0
 74
       0
 49
-1.81318681
 74
       0
  0
ENDTAB
  0
TABLE
  2
LAYER
  5
2
100
AcDbSymbolTable
 70
       5
  0
LAYER
  5
14
100
AcDbSymbolTableRecord
100
AcDbLayerTableRecord
  2
0
 70
       0
 62
       7
  6
CONTINUOUS
  0
LAYER
  5
38
100
AcDbSymbolTableRecord
100
AcDbLayerTableRecord
  2
LAYER0001
 70
       0
 62
       7
  6
CONTINUOUS
  0
LAYER
  5
39
100
AcDbSymbolTableRecord
100
AcDbLayerTableRecord
  2
LAYER0240
 70
       0
 62
       7
  6
CONTINUOUS
  0
LAYER
  5
3A
100
AcDbSymbolTableRecord
100
AcDbLayerTableRecord
  2
LAYER0241
 70
       0
 62
       7
  6
CONTINUOUS
  0
LAYER
  5
3B
100
AcDbSymbolTableRecord
100
AcDbLayerTableRecord
  2
ZUWAKU
 70
       0
 62
       7
  6
CONTINUOUS
  0
ENDTAB
  0
TABLE
  2
STYLE
  5
3
100
AcDbSymbolTable
 70
       2
  0
STYLE
  5
17
100
AcDbSymbolTableRecord
100
AcDbTextStyleTableRecord
  2
STANDARD
 70
       0
 40
10.2
 41
0.8
 50
0.0
 71
       0
 42
10.2
  3
txt.shx
  4
bigfont.shx
  0
STYLE
  5
3C
100
AcDbSymbolTableRecord
100
AcDbTextStyleTableRecord
  2
FDASTYLE1
 70
       4
 40
9.0
 41
0.8
 50
0.0
 71
       0
 42
9.0
  3
txt.shx
  4
bigfont.shx
  0
ENDTAB
  0
TABLE
  2
VIEW
  5
5
100
AcDbSymbolTable
 70
       1
  0
VIEW
  5
3D
100
AcDbSymbolTableRecord
100
AcDbViewTableRecord
  2
QQQQ
 70
       0
 40
891.0
 10
0.0
 20
0.0
 41
630.0
 11
0.0
 21
0.0
 31
1.0
 12
100.0
 22
100.0
 32
0.0
 42
50.0
 43
0.0
 44
0.0
 50
0.0
 71
       0
  0
ENDTAB
  0
TABLE
  2
UCS
  5
6
100
AcDbSymbolTable
 70
       0
  0
ENDTAB
  0
TABLE
  2
APPID
  5
8
100
AcDbSymbolTable
 70
       1
  0
APPID
  5
16
100
AcDbSymbolTableRecord
100
AcDbRegAppTableRecord
  2
ACAD
 70
       0
  0
ENDTAB
  0
TABLE
  2
DIMSTYLE
  5
9
100
AcDbSymbolTable
 70
       1
  0
DIMSTYLE
105
18
100
AcDbSymbolTableRecord
100
AcDbDimStyleTableRecord
  2
STANDARD
 70
       0
  3

  4

  5

  6

  7

 40
1.0
 41
0.18
 42
0.0625
 43
0.38
 44
0.18
 45
0.0
 46
0.0
 47
0.0
 48
0.0
 71
       0
 72
       0
 73
       1
 74
       1
 75
       0
 76
       0
 77
       0
 78
       0
140
0.18
141
0.09
142
0.0
143
25.4
144
1.0
145
0.0
146
1.0
147
0.09
170
       0
171
       2
172
       0
173
       0
174
       0
175
       0
176
       0
177
       0
178
       0
270
       2
271
       4
272
       4
273
       2
274
       2
275
       0
280
       0
281
       0
282
       0
283
       1
284
       0
285
       0
286
       0
287
       3
288
       0
340
17
  0
ENDTAB
  0
TABLE
  2
BLOCK_RECORD
  5
1
100
AcDbSymbolTable
 70
      19
  0
BLOCK_RECORD
  5
A
100
AcDbSymbolTableRecord
100
AcDbBlockTableRecord
  2
*MODEL_SPACE
  0
BLOCK_RECORD
  5
B
100
AcDbSymbolTableRecord
100
AcDbBlockTableRecord
  2
*PAPER_SPACE
  0
BLOCK_RECORD
  5
3E
100
AcDbSymbolTableRecord
100
AcDbBlockTableRecord
  2
GROUP_1
  0
BLOCK_RECORD
  5
3F
100
AcDbSymbolTableRecord
100
AcDbBlockTableRecord
  2
GROUP_2
  0
BLOCK_RECORD
  5
40
100
AcDbSymbolTableRecord
100
AcDbBlockTableRecord
  2
GROUP_3
  0
BLOCK_RECORD
  5
41
100
AcDbSymbolTableRecord
100
AcDbBlockTableRecord
  2
GROUP_4
  0
BLOCK_RECORD
  5
42
100
AcDbSymbolTableRecord
100
AcDbBlockTableRecord
  2
DA_IMAGEDIMGROUP_1
  0
BLOCK_RECORD
  5
43
100
AcDbSymbolTableRecord
100
AcDbBlockTableRecord
  2
_OPEN30
  0
BLOCK_RECORD
  5
44
100
AcDbSymbolTableRecord
100
AcDbBlockTableRecord
  2
DA_IMAGEDIMGROUP_2
  0
BLOCK_RECORD
  5
45
100
AcDbSymbolTableRecord
100
AcDbBlockTableRecord
  2
GROUP_5
  0
BLOCK_RECORD
  5
46
100
AcDbSymbolTableRecord
100
AcDbBlockTableRecord
  2
DA_IMAGEDIMGROUP_3
  0
BLOCK_RECORD
  5
47
100
AcDbSymbolTableRecord
100
AcDbBlockTableRecord
  2
DA_IMAGEDIMGROUP_4
  0
BLOCK_RECORD
  5
48
100
AcDbSymbolTableRecord
100
AcDbBlockTableRecord
  2
GROUP_6
  0
BLOCK_RECORD
  5
49
100
AcDbSymbolTableRecord
100
AcDbBlockTableRecord
  2
DA_IMAGEDIMGROUP_5
  0
BLOCK_RECORD
  5
4A
100
AcDbSymbolTableRecord
100
AcDbBlockTableRecord
  2
DA_IMAGEDIMGROUP_6
  0
BLOCK_RECORD
  5
4B
100
AcDbSymbolTableRecord
100
AcDbBlockTableRecord
  2
GROUP_7
  0
BLOCK_RECORD
  5
4C
100
AcDbSymbolTableRecord
100
AcDbBlockTableRecord
  2
GROUP_8
  0
BLOCK_RECORD
  5
4D
100
AcDbSymbolTableRecord
100
AcDbBlockTableRecord
  2
GROUP_9
  0
BLOCK_RECORD
  5
4E
100
AcDbSymbolTableRecord
100
AcDbBlockTableRecord
  2
GROUP_10
  0
BLOCK_RECORD
  5
4F
100
AcDbSymbolTableRecord
100
AcDbBlockTableRecord
  2
GROUP_11
  0
BLOCK_RECORD
  5
50
100
AcDbSymbolTableRecord
100
AcDbBlockTableRecord
  2
GROUP_12
  0
ENDTAB
  0
ENDSEC
  0
SECTION
  2
BLOCKS
  0
BLOCK
  5
D
100
AcDbEntity
  8
0
100
AcDbBlockBegin
  2
*MODEL_SPACE
 70
       0
 10
0.0
 20
0.0
 30
0.0
  3
*MODEL_SPACE
  1

  0
ENDBLK
  5
E
100
AcDbEntity
  8
0
100
AcDbBlockEnd
  0
BLOCK
  5
F
100
AcDbEntity
 67
       1
  8
0
100
AcDbBlockBegin
  2
*PAPER_SPACE
 70
       0
 10
0.0
 20
0.0
 30
0.0
  3
*PAPER_SPACE
  1

  0
ENDBLK
  5
10
100
AcDbEntity
 67
       1
  8
0
100
AcDbBlockEnd
  0
BLOCK
  5
51
100
AcDbEntity
  8
0
100
AcDbBlockBegin
  2
GROUP_1
 70
       0
 10
0.0
 20
0.0
 30
0.0
  3
GROUP_1
  1

  0
LINE
  5
52
100
AcDbEntity
  8
LAYER0001
  6
CONTINUOUS
 62
       7
100
AcDbLine
 10
-69.88199016
 20
13.41640786
 30
0.0
 11
-68.20830533
 21
11.72026805
 31
0.0
  0
ENDBLK
  5
53
100
AcDbEntity
  8
0
100
AcDbBlockEnd
  0
BLOCK
  5
54
100
AcDbEntity
  8
0
100
AcDbBlockBegin
  2
GROUP_2
 70
       0
 10
0.0
 20
0.0
 30
0.0
  3
GROUP_2
  1

  0
LINE
  5
55
100
AcDbEntity
  8
LAYER0001
  6
CONTINUOUS
 62
       7
100
AcDbLine
 10
-69.88199016
 20
-13.41640786
 30
0.0
 11
-68.77442111
 21
-12.25488814
 31
0.0
  0
ENDBLK
  5
56
100
AcDbEntity
  8
0
100
AcDbBlockEnd
  0
BLOCK
  5
57
100
AcDbEntity
  8
0
100
AcDbBlockBegin
  2
GROUP_3
 70
       0
 10
0.0
 20
0.0
 30
0.0
  3
GROUP_3
  1

  0
LINE
  5
58
100
AcDbEntity
  8
LAYER0001
  6
CONTINUOUS
 62
       7
100
AcDbLine
 10
-65.70251783
 20
10.16491055
 30
0.0
 11
-66.68647933
 21
9.1939756
 31
0.0
  0
LINE
  5
59
100
AcDbEntity
  8
LAYER0001
  6
CONTINUOUS
 62
       7
100
AcDbLine
 10
-65.70251783
 20
10.16491055
 30
0.0
 11
-69.88199016
 21
13.41640786
 31
0.0
  0
LINE
  5
5A
100
AcDbEntity
  8
LAYER0001
  6
CONTINUOUS
 62
       7
100
AcDbLine
 10
-66.68647933
 20
9.1939756
 30
0.0
 11
-69.88199016
 21
13.41640786
 31
0.0
  0
ENDBLK
  5
5B
100
AcDbEntity
  8
0
100
AcDbBlockEnd
  0
BLOCK
  5
5C
100
AcDbEntity
  8
0
100
AcDbBlockBegin
  2
GROUP_4
 70
       0
 10
0.0
 20
0.0
 30
0.0
  3
GROUP_4
  1

  0
LINE
  5
5D
100
AcDbEntity
  8
LAYER0001
  6
CONTINUOUS
 62
       7
100
AcDbLine
 10
-66.75918267
 20
-9.13992601
 30
0.0
 11
-65.7587548
 21
-10.09388565
 31
0.0
  0
LINE
  5
5E
100
AcDbEntity
  8
LAYER0001
  6
CONTINUOUS
 62
       7
100
AcDbLine
 10
-66.75918267
 20
-9.13992601
 30
0.0
 11
-69.88199016
 21
-13.41640786
 31
0.0
  0
LINE
  5
5F
100
AcDbEntity
  8
LAYER0001
  6
CONTINUOUS
 62
       7
100
AcDbLine
 10
-65.7587548
 20
-10.09388565
 30
0.0
 11
-69.88199016
 21
-13.41640786
 31
0.0
  0
ENDBLK
  5
60
100
AcDbEntity
  8
0
100
AcDbBlockEnd
  0
BLOCK
  5
61
100
AcDbEntity
  8
0
100
AcDbBlockBegin
  2
DA_IMAGEDIMGROUP_1
 70
       0
 10
0.0
 20
0.0
 30
0.0
  3
DA_IMAGEDIMGROUP_1
  1

  0
LINE
  5
62
100
AcDbEntity
  8
0
  6
CONTINUOUS
 62
       9
100
AcDbLine
 10
-116.88199016
 20
208.69277573
 30
0.0
 11
-148.88199016
 21
208.69277573
 31
0.0
  0
LINE
  5
63
100
AcDbEntity
  8
0
  6
CONTINUOUS
 62
       9
100
AcDbLine
 10
-118.88199016
 20
223.69277573
 30
0.0
 11
-148.88199016
 21
223.69277573
 31
0.0
  0
LINE
  5
64
100
AcDbEntity
  8
0
  6
CONTINUOUS
 62
       9
100
AcDbLine
 10
-146.88199016
 20
208.69277573
 30
0.0
 11
-146.88199016
 21
223.69277573
 31
0.0
  0
LINE
  5
65
100
AcDbEntity
  8
0
  6
CONTINUOUS
 62
       9
100
AcDbLine
 10
-146.88199016
 20
257.58611573
 30
0.0
 11
-146.88199016
 21
223.69277573
 31
0.0
  0
INSERT
  5
66
100
AcDbEntity
  8
0
  6
CONTINUOUS
 62
       9
100
AcDbBlockReference
  2
_OPEN30
 10
-146.88199016
 20
223.69277573
 30
0.0
 41
9.00000836
 42
8.99996782
 50
270.0
  0
LINE
  5
67
100
AcDbEntity
  8
0
  6
CONTINUOUS
 62
       9
100
AcDbLine
 10
-146.88199016
 20
193.69277573
 30
0.0
 11
-146.88199016
 21
208.69277573
 31
0.0
  0
INSERT
  5
68
100
AcDbEntity
  8
0
  6
CONTINUOUS
 62
       9
100
AcDbBlockReference
  2
_OPEN30
 10
-146.88199016
 20
208.69277573
 30
0.0
 41
9.00000836
 42
8.99996782
 50
90.0
  0
TEXT
  5
69
100
AcDbEntity
  8
0
 62
       7
100
AcDbText
 10
-149.88199016
 20
235.38611573
 30
0.0
 40
12.0
  1
15
 50
90.0
 41
0.8
 72
       5
 11
-149.88199016
 21
254.58611573
 31
0.0
100
AcDbText
  0
ENDBLK
  5
6A
100
AcDbEntity
  8
0
100
AcDbBlockEnd
  0
BLOCK
  5
6B
100
AcDbEntity
  8
0
100
AcDbBlockBegin
  2
_OPEN30
 70
       0
 10
0.0
 20
0.0
 30
0.0
  3
_OPEN30
  1

  0
LINE
  5
6C
100
AcDbEntity
  8
0
  6
CONTINUOUS
 62
       0
100
AcDbLine
 10
0.0
 20
0.0
 30
0.0
 11
-0.96592583
 21
0.25881905
 31
0.0
  0
LINE
  5
6D
100
AcDbEntity
  8
0
  6
CONTINUOUS
 62
       0
100
AcDbLine
 10
0.0
 20
0.0
 30
0.0
 11
-0.96592583
 21
-0.25881905
 31
0.0
  0
LINE
  5
6E
100
AcDbEntity
  8
0
  6
CONTINUOUS
 62
       0
100
AcDbLine
 10
0.0
 20
0.0
 30
0.0
 11
-1.0
 21
0.0
 31
0.0
  0
ENDBLK
  5
6F
100
AcDbEntity
  8
0
100
AcDbBlockEnd
  0
BLOCK
  5
70
100
AcDbEntity
  8
0
100
AcDbBlockBegin
  2
DA_IMAGEDIMGROUP_2
 70
       0
 10
0.0
 20
0.0
 30
0.0
  3
DA_IMAGEDIMGROUP_2
  1

  0
LINE
  5
71
100
AcDbEntity
  8
0
  6
CONTINUOUS
 62
       7
100
AcDbLine
 10
-99.88199016
 20
192.14277018
 30
0.0
 11
-73.88199016
 21
192.14277018
 31
0.0
  0
LINE
  5
72
100
AcDbEntity
  8
0
  6
CONTINUOUS
 62
       7
100
AcDbLine
 10
-99.88199016
 20
189.73963703
 30
0.0
 11
-99.88199016
 21
195.14277018
 31
0.0
  0
LINE
  5
73
100
AcDbEntity
  8
0
  6
CONTINUOUS
 62
       7
100
AcDbLine
 10
-73.88199016
 20
189.73963703
 30
0.0
 11
-73.88199016
 21
195.14277018
 31
0.0
  0
LINE
  5
74
100
AcDbEntity
  8
0
  6
CONTINUOUS
 62
       7
100
AcDbLine
 10
-137.74196422
 20
192.14277018
 30
0.0
 11
-99.88199016
 21
192.14277018
 31
0.0
  0
INSERT
  5
75
100
AcDbEntity
  8
0
  6
CONTINUOUS
 62
       7
100
AcDbBlockReference
  2
_OPEN30
 10
-99.88199016
 20
192.14277018
 30
0.0
 41
9.00000836
 42
8.99996782
 50
360.0
  0
LINE
  5
76
100
AcDbEntity
  8
0
  6
CONTINUOUS
 62
       7
100
AcDbLine
 10
-58.88199016
 20
192.14277018
 30
0.0
 11
-73.88199016
 21
192.14277018
 31
0.0
  0
INSERT
  5
77
100
AcDbEntity
  8
0
  6
CONTINUOUS
 62
       7
100
AcDbBlockReference
  2
_OPEN30
 10
-73.88199016
 20
192.14277018
 30
0.0
 41
9.00000836
 42
8.99996782
 50
180.0
  0
TEXT
  5
78
100
AcDbEntity
  8
0
 62
       7
100
AcDbText
 10
-134.74196422
 20
195.14277018
 30
0.0
 40
12.0
  1
26
 41
0.8
 72
       5
 11
-115.54196422
 21
195.14277018
 31
0.0
100
AcDbText
  0
ENDBLK
  5
79
100
AcDbEntity
  8
0
100
AcDbBlockEnd
  0
BLOCK
  5
7A
100
AcDbEntity
  8
0
100
AcDbBlockBegin
  2
GROUP_5
 70
       0
 10
0.0
 20
0.0
 30
0.0
  3
GROUP_5
  1

  0
LINE
  5
7B
100
AcDbEntity
  8
LAYER0240
  6
CONTINUOUS
 62
       9
100
AcDbLine
 10
-101.38199016
 20
106.27815776
 30
0.0
 11
-155.43673568
 21
89.46112582
 31
0.0
  0
INSERT
  5
7C
100
AcDbEntity
  8
LAYER0240
  6
CONTINUOUS
 62
       9
100
AcDbBlockReference
  2
_OPEN30
 10
-101.38199016
 20
106.27815776
 30
0.0
 41
9.00000836
 42
8.99996782
 50
17.28149837
  0
CIRCLE
  5
7D
100
AcDbEntity
  8
LAYER0240
  6
CONTINUOUS
 62
       9
100
AcDbCircle
 10
-168.32730216
 20
85.45072736
 30
0.0
 40
13.5
  0
TEXT
  5
7E
100
AcDbEntity
  8
LAYER0240
 62
       4
100
AcDbText
 10
-173.12730216
 20
79.45072736
 30
0.0
 40
12.0
  1
1
 41
0.8
 72
       5
 11
-163.52730216
 21
79.45072736
 31
0.0
100
AcDbText
  0
ENDBLK
  5
7F
100
AcDbEntity
  8
0
100
AcDbBlockEnd
  0
BLOCK
  5
80
100
AcDbEntity
  8
0
100
AcDbBlockBegin
  2
DA_IMAGEDIMGROUP_3
 70
       0
 10
0.0
 20
0.0
 30
0.0
  3
DA_IMAGEDIMGROUP_3
  1

  0
LINE
  5
81
100
AcDbEntity
  8
0
  6
CONTINUOUS
 62
       9
100
AcDbLine
 10
-78.35491588
 20
11.72770242
 30
0.0
 11
-95.40906445
 21
-11.72770242
 31
0.0
  0
LINE
  5
82
100
AcDbEntity
  8
0
  6
CONTINUOUS
 62
       9
100
AcDbLine
 10
-125.53705504
 20
-53.1642018
 30
0.0
 11
-95.40906445
 21
-11.72770242
 31
0.0
  0
INSERT
  5
83
100
AcDbEntity
  8
0
  6
CONTINUOUS
 62
       9
100
AcDbBlockReference
  2
_OPEN30
 10
-95.40906445
 20
-11.72770242
 30
0.0
 41
9.00000836
 42
8.99996782
 50
53.97954152
  0
LINE
  5
84
100
AcDbEntity
  8
0
  6
CONTINUOUS
 62
       9
100
AcDbLine
 10
-72.47417499
 20
19.81577306
 30
0.0
 11
-78.35491588
 21
11.72770242
 31
0.0
  0
INSERT
  5
85
100
AcDbEntity
  8
0
  6
CONTINUOUS
 62
       9
100
AcDbBlockReference
  2
_OPEN30
 10
-78.35491588
 20
11.72770242
 30
0.0
 41
9.00000836
 42
8.99996782
 50
233.97954152
  0
TEXT
  5
86
100
AcDbEntity
  8
0
 62
       7
100
AcDbText
 10
-131.62403225
 20
-58.1349873
 30
0.0
 40
12.0
  1
φ29
 50
53.97954152
 41
0.8
 72
       5
 11
-114.68749849
 21
-34.84134387
 31
0.0
100
AcDbText
  0
ENDBLK
  5
87
100
AcDbEntity
  8
0
100
AcDbBlockEnd
  0
BLOCK
  5
88
100
AcDbEntity
  8
0
100
AcDbBlockBegin
  2
DA_IMAGEDIMGROUP_4
 70
       0
 10
0.0
 20
0.0
 30
0.0
  3
DA_IMAGEDIMGROUP_4
  1

  0
LINE
  5
89
100
AcDbEntity
  8
0
  6
CONTINUOUS
 62
       9
100
AcDbLine
 10
0.0
 20
0.0
 30
0.0
 11
0.0
 21
35.0
 31
0.0
  0
INSERT
  5
8A
100
AcDbEntity
  8
0
  6
CONTINUOUS
 62
       9
100
AcDbBlockReference
  2
_OPEN30
 10
0.0
 20
0.0
 30
0.0
 41
9.00000836
 42
8.99996782
 50
270.0
  0
INSERT
  5
8B
100
AcDbEntity
  8
0
  6
CONTINUOUS
 62
       9
100
AcDbBlockReference
  2
_OPEN30
 10
0.0
 20
35.0
 30
0.0
 41
9.00000836
 42
8.99996782
 50
90.0
  0
LINE
  5
8C
100
AcDbEntity
  8
0
  6
CONTINUOUS
 62
       9
100
AcDbLine
 10
13.78604404
 20
0.0
 30
0.0
 11
-2.0
 21
0.0
 31
0.0
  0
LINE
  5
8D
100
AcDbEntity
  8
0
  6
CONTINUOUS
 62
       9
100
AcDbLine
 10
55.94804404
 20
35.0
 30
0.0
 11
-2.0
 21
35.0
 31
0.0
  0
TEXT
  5
8E
100
AcDbEntity
  8
0
 62
       7
100
AcDbText
 10
-2.0
 20
7.9
 30
0.0
 40
12.0
  1
35
 50
90.0
 41
0.8
 72
       5
 11
-2.0
 21
27.1
 31
0.0
100
AcDbText
  0
ENDBLK
  5
8F
100
AcDbEntity
  8
0
100
AcDbBlockEnd
  0
BLOCK
  5
90
100
AcDbEntity
  8
0
100
AcDbBlockBegin
  2
GROUP_6
 70
       0
 10
0.0
 20
0.0
 30
0.0
  3
GROUP_6
  1

  0
LINE
  5
91
100
AcDbEntity
  8
LAYER0240
  6
CONTINUOUS
 62
       7
100
AcDbLine
 10
-111.76099732
 20
223.69277573
 30
0.0
 11
-159.43205439
 21
278.11518982
 31
0.0
  0
INSERT
  5
92
100
AcDbEntity
  8
LAYER0240
  6
CONTINUOUS
 62
       7
100
AcDbBlockReference
  2
_OPEN30
 10
-111.76099732
 20
223.69277573
 30
0.0
 41
9.00000836
 42
8.99996782
 50
311.216586
  0
CIRCLE
  5
93
100
AcDbEntity
  8
LAYER0240
  6
CONTINUOUS
 62
       7
100
AcDbCircle
 10
-168.32730216
 20
288.27021652
 30
0.0
 40
13.5
  0
TEXT
  5
94
100
AcDbEntity
  8
LAYER0240
 62
       4
100
AcDbText
 10
-173.12730216
 20
282.27021652
 30
0.0
 40
12.0
  1
2
 41
0.8
 72
       5
 11
-163.52730216
 21
282.27021652
 31
0.0
100
AcDbText
  0
ENDBLK
  5
95
100
AcDbEntity
  8
0
100
AcDbBlockEnd
  0
BLOCK
  5
96
100
AcDbEntity
  8
0
100
AcDbBlockBegin
  2
DA_IMAGEDIMGROUP_5
 70
       0
 10
0.0
 20
0.0
 30
0.0
  3
DA_IMAGEDIMGROUP_5
  1

  0
LINE
  5
97
100
AcDbEntity
  8
0
  6
CONTINUOUS
 62
       9
100
AcDbLine
 10
67.28604404
 20
-23.84896669
 30
0.0
 11
67.28604404
 21
-79.46143373
 31
0.0
  0
LINE
  5
98
100
AcDbEntity
  8
0
  6
CONTINUOUS
 62
       9
100
AcDbLine
 10
18.78604404
 20
-15.6
 30
0.0
 11
18.78604404
 21
-79.46143373
 31
0.0
  0
LINE
  5
99
100
AcDbEntity
  8
0
  6
CONTINUOUS
 62
       9
100
AcDbLine
 10
159.1944852
 20
-10.74311145
 30
0.0
 11
159.1944852
 21
-79.46143373
 31
0.0
  0
LINE
  5
9A
100
AcDbEntity
  8
0
  6
CONTINUOUS
 62
       9
100
AcDbLine
 10
18.78604404
 20
-77.46143373
 30
0.0
 11
67.28604404
 21
-77.46143373
 31
0.0
  0
INSERT
  5
9B
100
AcDbEntity
  8
0
  6
CONTINUOUS
 62
       9
100
AcDbBlockReference
  2
_OPEN30
 10
18.78604404
 20
-77.46143373
 30
0.0
 41
9.00000836
 42
8.99996782
 50
180.0
  0
INSERT
  5
9C
100
AcDbEntity
  8
0
  6
CONTINUOUS
 62
       9
100
AcDbBlockReference
  2
_OPEN30
 10
67.28604404
 20
-77.46143373
 30
0.0
 41
9.00000836
 42
8.99996782
 50
360.0
  0
LINE
  5
9D
100
AcDbEntity
  8
0
  6
CONTINUOUS
 62
       9
100
AcDbLine
 10
67.28604404
 20
-77.46143373
 30
0.0
 11
159.1944852
 21
-77.46143373
 31
0.0
  0
INSERT
  5
9E
100
AcDbEntity
  8
0
  6
CONTINUOUS
 62
       9
100
AcDbBlockReference
  2
_OPEN30
 10
67.28604404
 20
-77.46143373
 30
0.0
 41
9.00000836
 42
8.99996782
 50
180.0
  0
INSERT
  5
9F
100
AcDbEntity
  8
0
  6
CONTINUOUS
 62
       9
100
AcDbBlockReference
  2
_OPEN30
 10
159.1944852
 20
-77.46143373
 30
0.0
 41
9.00000836
 42
8.99996782
 50
360.0
  0
TEXT
  5
A0
100
AcDbEntity
  8
0
 62
       9
100
AcDbText
 10
33.43604404
 20
-75.46143373
 30
0.0
 40
12.0
  1
49
 41
0.8
 72
       5
 11
52.63604404
 21
-75.46143373
 31
0.0
100
AcDbText
  0
TEXT
  5
A1
100
AcDbEntity
  8
0
 62
       9
100
AcDbText
 10
94.04026462
 20
-75.46143373
 30
0.0
 40
12.0
  1
(92)
 41
0.8
 72
       5
 11
132.44026462
 21
-75.46143373
 31
0.0
100
AcDbText
  0
ENDBLK
  5
A2
100
AcDbEntity
  8
0
100
AcDbBlockEnd
  0
BLOCK
  5
A3
100
AcDbEntity
  8
0
100
AcDbBlockBegin
  2
DA_IMAGEDIMGROUP_6
 70
       0
 10
0.0
 20
0.0
 30
0.0
  3
DA_IMAGEDIMGROUP_6
  1

  0
LINE
  5
A4
100
AcDbEntity
  8
0
  6
CONTINUOUS
 62
       9
100
AcDbLine
 10
140.22881977
 20
-30.0
 30
0.0
 11
198.18300654
 21
-30.0
 31
0.0
  0
LINE
  5
A5
100
AcDbEntity
  8
0
  6
CONTINUOUS
 62
       9
100
AcDbLine
 10
140.22881977
 20
30.0
 30
0.0
 11
198.18300654
 21
30.0
 31
0.0
  0
LINE
  5
A6
100
AcDbEntity
  8
0
  6
CONTINUOUS
 62
       9
100
AcDbLine
 10
196.18300654
 20
-30.0
 30
0.0
 11
196.18300654
 21
30.0
 31
0.0
  0
INSERT
  5
A7
100
AcDbEntity
  8
0
  6
CONTINUOUS
 62
       9
100
AcDbBlockReference
  2
_OPEN30
 10
196.18300654
 20
-30.0
 30
0.0
 41
9.00000836
 42
8.99996782
 50
270.0
  0
INSERT
  5
A8
100
AcDbEntity
  8
0
  6
CONTINUOUS
 62
       9
100
AcDbBlockReference
  2
_OPEN30
 10
196.18300654
 20
30.0
 30
0.0
 41
9.00000836
 42
8.99996782
 50
90.0
  0
TEXT
  5
A9
100
AcDbEntity
  8
0
 62
       7
100
AcDbText
 10
194.18300654
 20
-14.4
 30
0.0
 40
12.0
  1
φ60
 50
90.0
 41
0.8
 72
       5
 11
194.18300654
 21
14.4
 31
0.0
100
AcDbText
  0
ENDBLK
  5
AA
100
AcDbEntity
  8
0
100
AcDbBlockEnd
  0
BLOCK
  5
AB
100
AcDbEntity
  8
0
100
AcDbBlockBegin
  2
GROUP_7
 70
       0
 10
0.0
 20
0.0
 30
0.0
  3
GROUP_7
  1

  0
LINE
  5
AC
100
AcDbEntity
  8
LAYER0240
  6
CONTINUOUS
 62
       7
100
AcDbLine
 10
57.94804404
 20
33.838
 30
0.0
 11
28.3800905
 21
64.88949639
 31
0.0
  0
INSERT
  5
AD
100
AcDbEntity
  8
LAYER0240
  6
CONTINUOUS
 62
       7
100
AcDbBlockReference
  2
_OPEN30
 10
57.94804404
 20
33.838
 30
0.0
 41
9.00000836
 42
8.99996782
 50
313.59807735
  0
LINE
  5
AE
100
AcDbEntity
  8
LAYER0240
  6
CONTINUOUS
 62
       7
100
AcDbLine
 10
28.3800905
 20
64.88949639
 30
0.0
 11
-19.6199095
 21
64.88949639
 31
0.0
  0
TEXT
  5
AF
100
AcDbEntity
  8
LAYER0240
 62
       7
100
AcDbText
 10
-19.6199095
 20
64.88949639
 30
0.0
 40
12.0
  1
ＰＪ1/2
 41
0.6333
 72
       5
 11
28.3800905
 21
64.88949639
 31
0.0
100
AcDbText
  0
ENDBLK
  5
B0
100
AcDbEntity
  8
0
100
AcDbBlockEnd
  0
BLOCK
  5
B1
100
AcDbEntity
  8
0
100
AcDbBlockBegin
  2
GROUP_8
 70
       0
 10
0.0
 20
0.0
 30
0.0
  3
GROUP_8
  1

  0
LINE
  5
B2
100
AcDbEntity
  8
LAYER0240
  6
CONTINUOUS
 62
       7
100
AcDbLine
 10
159.1944852
 20
8.25
 30
0.0
 11
198.13632744
 21
45.99920226
 31
0.0
  0
INSERT
  5
B3
100
AcDbEntity
  8
LAYER0240
  6
CONTINUOUS
 62
       7
100
AcDbBlockReference
  2
_OPEN30
 10
159.1944852
 20
8.25
 30
0.0
 41
9.00000836
 42
8.99996782
 50
224.10905204
  0
LINE
  5
B4
100
AcDbEntity
  8
LAYER0240
  6
CONTINUOUS
 62
       7
100
AcDbLine
 10
198.13632744
 20
45.99920226
 30
0.0
 11
236.53632744
 21
45.99920226
 31
0.0
  0
TEXT
  5
B5
100
AcDbEntity
  8
LAYER0240
 62
       7
100
AcDbText
 10
198.13632744
 20
45.99920226
 30
0.0
 40
12.0
  1
Ｒ1/2
 41
0.8
 72
       5
 11
236.53632744
 21
45.99920226
 31
0.0
100
AcDbText
  0
ENDBLK
  5
B6
100
AcDbEntity
  8
0
100
AcDbBlockEnd
  0
BLOCK
  5
B7
100
AcDbEntity
  8
0
100
AcDbBlockBegin
  2
GROUP_9
 70
       0
 10
0.0
 20
0.0
 30
0.0
  3
GROUP_9
  1

  0
TEXT
  5
B8
100
AcDbEntity
  8
LAYER0240
 62
       7
100
AcDbText
 10
-55.0282554
 20
19.69794285
 30
0.0
 40
12.0
  1
開
 41
0.8
 72
       5
 11
-45.4282554
 21
19.69794285
 31
0.0
100
AcDbText
  0
ENDBLK
  5
B9
100
AcDbEntity
  8
0
100
AcDbBlockEnd
  0
BLOCK
  5
BA
100
AcDbEntity
  8
0
100
AcDbBlockBegin
  2
GROUP_10
 70
       0
 10
0.0
 20
0.0
 30
0.0
  3
GROUP_10
  1

  0
TEXT
  5
BB
100
AcDbEntity
  8
LAYER0240
 62
       7
100
AcDbText
 10
-55.0282554
 20
-31.69794285
 30
0.0
 40
12.0
  1
閉
 41
0.8
 72
       5
 11
-45.4282554
 21
-31.69794285
 31
0.0
100
AcDbText
  0
ENDBLK
  5
BC
100
AcDbEntity
  8
0
100
AcDbBlockEnd
  0
BLOCK
  5
BD
100
AcDbEntity
  8
0
100
AcDbBlockBegin
  2
GROUP_11
 70
       0
 10
0.0
 20
0.0
 30
0.0
  3
GROUP_11
  1

  0
TEXT
  5
BE
100
AcDbEntity
  8
LAYER0240
 62
       7
100
AcDbText
 10
83.0625
 20
-362.61162988
 30
0.0
 40
12.0
  1
クロムメッキ仕上げ
 41
0.6923
 72
       5
 11
169.4625
 21
-362.61162988
 31
0.0
100
AcDbText
  0
ENDBLK
  5
BF
100
AcDbEntity
  8
0
100
AcDbBlockEnd
  0
BLOCK
  5
C0
100
AcDbEntity
  8
0
100
AcDbBlockBegin
  2
GROUP_12
 70
       0
 10
0.0
 20
0.0
 30
0.0
  3
GROUP_12
  1

  0
TEXT
  5
C1
100
AcDbEntity
  8
LAYER0240
 62
       7
100
AcDbText
 10
83.0625
 20
-347.61162988
 30
0.0
 40
12.0
  1
クロムメッキ仕上げ
 41
0.6923
 72
       5
 11
169.4625
 21
-347.61162988
 31
0.0
100
AcDbText
  0
ENDBLK
  5
C2
100
AcDbEntity
  8
0
100
AcDbBlockEnd
  0
ENDSEC
  0
SECTION
  2
ENTITIES
  0
LINE
  5
C3
100
AcDbEntity
  8
ZUWAKU
  6
CONTINUOUS
 62
      32
100
AcDbLine
 10
-169.9125
 20
-412.67412988
 30
0.0
 11
-168.225
 21
-407.98662988
 31
0.0
  0
LINE
  5
C4
100
AcDbEntity
  8
ZUWAKU
  6
CONTINUOUS
 62
      32
100
AcDbLine
 10
-182.4
 20
-412.67412988
 30
0.0
 11
-179.775
 21
-405.54912988
 31
0.0
  0
LINE
  5
C5
100
AcDbEntity
  8
ZUWAKU
  6
CONTINUOUS
 62
      32
100
AcDbLine
 10
-184.8375
 20
-402.92412988
 30
0.0
 11
-185.775
 21
-405.54912988
 31
0.0
  0
LINE
  5
C6
100
AcDbEntity
  8
ZUWAKU
  6
CONTINUOUS
 62
      32
100
AcDbLine
 10
-176.2125
 20
-412.67412988
 30
0.0
 11
-173.4
 21
-404.42412988
 31
0.0
  0
LINE
  5
C7
100
AcDbEntity
  8
ZUWAKU
  6
CONTINUOUS
 62
      32
100
AcDbLine
 10
-136.875
 20
-412.67412988
 30
0.0
 11
-140.0625
 21
-407.42412988
 31
0.0
  0
LINE
  5
C8
100
AcDbEntity
  8
ZUWAKU
  6
CONTINUOUS
 62
      32
100
AcDbLine
 10
-184.8375
 20
-402.92412988
 30
0.0
 11
-181.275
 21
-402.92412988
 31
0.0
  0
LINE
  5
C9
100
AcDbEntity
  8
ZUWAKU
  6
CONTINUOUS
 62
      32
100
AcDbLine
 10
-165.7875
 20
-401.23662988
 30
0.0
 11
-159.6
 21
-401.23662988
 31
0.0
  0
LINE
  5
CA
100
AcDbEntity
  8
ZUWAKU
  6
CONTINUOUS
 62
      32
100
AcDbLine
 10
-152.475
 20
-400.67412988
 30
0.0
 11
-150.6
 21
-400.67412988
 31
0.0
  0
LINE
  5
CB
100
AcDbEntity
  8
ZUWAKU
  6
CONTINUOUS
 62
      32
100
AcDbLine
 10
-164.475
 20
-397.86162988
 30
0.0
 11
-165.7875
 21
-401.23662988
 31
0.0
  0
LINE
  5
CC
100
AcDbEntity
  8
ZUWAKU
  6
CONTINUOUS
 62
      32
100
AcDbLine
 10
-158.475
 20
-397.86162988
 30
0.0
 11
-159.6
 21
-401.23662988
 31
0.0
  0
LINE
  5
CD
100
AcDbEntity
  8
ZUWAKU
  6
CONTINUOUS
 62
      32
100
AcDbLine
 10
-182.4
 20
-412.67412988
 30
0.0
 11
-176.2125
 21
-412.67412988
 31
0.0
  0
LINE
  5
CE
100
AcDbEntity
  8
ZUWAKU
  6
CONTINUOUS
 62
      32
100
AcDbLine
 10
-172.8375
 20
-397.86162988
 30
0.0
 11
-165.9
 21
-397.86162988
 31
0.0
  0
LINE
  5
CF
100
AcDbEntity
  8
ZUWAKU
  6
CONTINUOUS
 62
      32
100
AcDbLine
 10
-142.25272308
 20
-401.23662988
 30
0.0
 11
-148.875
 21
-401.23662988
 31
0.0
  0
LINE
  5
D0
100
AcDbEntity
  8
ZUWAKU
  6
CONTINUOUS
 62
      32
100
AcDbLine
 10
-135.0
 20
-397.86162988
 30
0.0
 11
-147.75
 21
-397.86162988
 31
0.0
  0
LINE
  5
D1
100
AcDbEntity
  8
ZUWAKU
  6
CONTINUOUS
 62
      32
100
AcDbLine
 10
-185.775
 20
-405.54912988
 30
0.0
 11
-179.775
 21
-405.54912988
 31
0.0
  0
LINE
  5
D2
100
AcDbEntity
  8
ZUWAKU
  6
CONTINUOUS
 62
      32
100
AcDbLine
 10
-169.9125
 20
-412.67412988
 30
0.0
 11
-159.975
 21
-412.67412988
 31
0.0
  0
LINE
  5
D3
100
AcDbEntity
  8
ZUWAKU
  6
CONTINUOUS
 62
      32
100
AcDbLine
 10
-168.225
 20
-407.98662988
 30
0.0
 11
-159.225
 21
-407.98662988
 31
0.0
  0
LINE
  5
D4
100
AcDbEntity
  8
ZUWAKU
  6
CONTINUOUS
 62
      32
100
AcDbLine
 10
-136.875
 20
-412.67412988
 30
0.0
 11
-141.5625
 21
-412.67412988
 31
0.0
  0
LINE
  5
D5
100
AcDbEntity
  8
ZUWAKU
  6
CONTINUOUS
 62
      32
100
AcDbLine
 10
-148.875
 20
-401.23662988
 30
0.0
 11
-147.75
 21
-397.86162988
 31
0.0
  0
LINE
  5
D6
100
AcDbEntity
  8
ZUWAKU
  6
CONTINUOUS
 62
      32
100
AcDbLine
 10
-214.0875
 20
-397.86162988
 30
0.0
 11
-217.275
 21
-406.86162988
 31
0.0
  0
LINE
  5
D7
100
AcDbEntity
  8
ZUWAKU
  6
CONTINUOUS
 62
      32
100
AcDbLine
 10
-217.275
 20
-406.86162988
 30
0.0
 11
-212.9625
 21
-406.86162988
 31
0.0
  0
LINE
  5
D8
100
AcDbEntity
  8
ZUWAKU
  6
CONTINUOUS
 62
      32
100
AcDbLine
 10
-212.9625
 20
-406.86162988
 30
0.0
 11
-209.5875
 21
-397.86162988
 31
0.0
  0
LINE
  5
D9
100
AcDbEntity
  8
ZUWAKU
  6
CONTINUOUS
 62
      32
100
AcDbLine
 10
-209.5875
 20
-397.86162988
 30
0.0
 11
-214.0875
 21
-397.86162988
 31
0.0
  0
LINE
  5
DA
100
AcDbEntity
  8
ZUWAKU
  6
CONTINUOUS
 62
      32
100
AcDbLine
 10
-156.975
 20
-406.86162988
 30
0.0
 11
-154.9125
 21
-405.17412988
 31
0.0
  0
LINE
  5
DB
100
AcDbEntity
  8
ZUWAKU
  6
CONTINUOUS
 62
      32
100
AcDbLine
 10
-154.9125
 20
-405.17412988
 30
0.0
 11
-153.4125
 21
-403.11162988
 31
0.0
  0
LINE
  5
DC
100
AcDbEntity
  8
ZUWAKU
  6
CONTINUOUS
 62
      32
100
AcDbLine
 10
-153.4125
 20
-403.11162988
 30
0.0
 11
-152.475
 21
-400.67412988
 31
0.0
  0
LINE
  5
DD
100
AcDbEntity
  8
ZUWAKU
  6
CONTINUOUS
 62
      32
100
AcDbLine
 10
-198.675
 20
-397.86162988
 30
0.0
 11
-184.9875
 21
-397.86162988
 31
0.0
  0
LINE
  5
DE
100
AcDbEntity
  8
ZUWAKU
  6
CONTINUOUS
 62
      32
100
AcDbLine
 10
-184.9875
 20
-397.86162988
 30
0.0
 11
-186.1125
 21
-401.23662988
 31
0.0
  0
LINE
  5
DF
100
AcDbEntity
  8
ZUWAKU
  6
CONTINUOUS
 62
      32
100
AcDbLine
 10
-184.9875
 20
-397.86162988
 30
0.0
 11
-186.1125
 21
-401.23662988
 31
0.0
  0
LINE
  5
E0
100
AcDbEntity
  8
ZUWAKU
  6
CONTINUOUS
 62
      32
100
AcDbLine
 10
-186.1125
 20
-401.23662988
 30
0.0
 11
-199.8
 21
-401.23662988
 31
0.0
  0
LINE
  5
E1
100
AcDbEntity
  8
ZUWAKU
  6
CONTINUOUS
 62
      32
100
AcDbLine
 10
-199.8
 20
-401.23662988
 30
0.0
 11
-198.675
 21
-397.86162988
 31
0.0
  0
LINE
  5
E2
100
AcDbEntity
  8
ZUWAKU
  6
CONTINUOUS
 62
      32
100
AcDbLine
 10
-199.8
 20
-401.23662988
 30
0.0
 11
-198.675
 21
-397.86162988
 31
0.0
  0
LINE
  5
E3
100
AcDbEntity
  8
ZUWAKU
  6
CONTINUOUS
 62
      32
100
AcDbLine
 10
-184.9875
 20
-397.86162988
 30
0.0
 11
-198.675
 21
-397.86162988
 31
0.0
  0
LINE
  5
E4
100
AcDbEntity
  8
ZUWAKU
  6
CONTINUOUS
 62
      32
100
AcDbLine
 10
-198.675
 20
-397.86162988
 30
0.0
 11
-199.8
 21
-401.23662988
 31
0.0
  0
LINE
  5
E5
100
AcDbEntity
  8
ZUWAKU
  6
CONTINUOUS
 62
      32
100
AcDbLine
 10
-199.8
 20
-401.23662988
 30
0.0
 11
-186.1125
 21
-401.23662988
 31
0.0
  0
LINE
  5
E6
100
AcDbEntity
  8
ZUWAKU
  6
CONTINUOUS
 62
      32
100
AcDbLine
 10
-192.8625
 20
-412.29912988
 30
0.0
 11
-191.3625
 21
-411.54912988
 31
0.0
  0
LINE
  5
E7
100
AcDbEntity
  8
ZUWAKU
  6
CONTINUOUS
 62
      32
100
AcDbLine
 10
-191.3625
 20
-411.54912988
 30
0.0
 11
-190.2375
 21
-410.42412988
 31
0.0
  0
LINE
  5
E8
100
AcDbEntity
  8
ZUWAKU
  6
CONTINUOUS
 62
      32
100
AcDbLine
 10
-190.2375
 20
-410.42412988
 30
0.0
 11
-188.925
 21
-409.11162988
 31
0.0
  0
LINE
  5
E9
100
AcDbEntity
  8
ZUWAKU
  6
CONTINUOUS
 62
      32
100
AcDbLine
 10
-188.925
 20
-409.11162988
 30
0.0
 11
-186.675
 21
-402.92412988
 31
0.0
  0
LINE
  5
EA
100
AcDbEntity
  8
ZUWAKU
  6
CONTINUOUS
 62
      32
100
AcDbLine
 10
-186.675
 20
-402.92412988
 30
0.0
 11
-200.175
 21
-402.92412988
 31
0.0
  0
LINE
  5
EB
100
AcDbEntity
  8
ZUWAKU
  6
CONTINUOUS
 62
      32
100
AcDbLine
 10
-200.175
 20
-402.92412988
 30
0.0
 11
-200.925
 21
-405.54912988
 31
0.0
  0
LINE
  5
EC
100
AcDbEntity
  8
ZUWAKU
  6
CONTINUOUS
 62
      32
100
AcDbLine
 10
-200.925
 20
-405.54912988
 30
0.0
 11
-193.05
 21
-405.54912988
 31
0.0
  0
LINE
  5
ED
100
AcDbEntity
  8
ZUWAKU
  6
CONTINUOUS
 62
      32
100
AcDbLine
 10
-193.05
 20
-405.54912988
 30
0.0
 11
-193.425
 21
-406.86162988
 31
0.0
  0
LINE
  5
EE
100
AcDbEntity
  8
ZUWAKU
  6
CONTINUOUS
 62
      32
100
AcDbLine
 10
-193.425
 20
-406.86162988
 30
0.0
 11
-194.3625
 21
-407.98662988
 31
0.0
  0
LINE
  5
EF
100
AcDbEntity
  8
ZUWAKU
  6
CONTINUOUS
 62
      32
100
AcDbLine
 10
-194.3625
 20
-407.98662988
 30
0.0
 11
-195.3
 21
-408.92412988
 31
0.0
  0
LINE
  5
F0
100
AcDbEntity
  8
ZUWAKU
  6
CONTINUOUS
 62
      32
100
AcDbLine
 10
-195.3
 20
-408.92412988
 30
0.0
 11
-196.6125
 21
-409.86162988
 31
0.0
  0
LINE
  5
F1
100
AcDbEntity
  8
ZUWAKU
  6
CONTINUOUS
 62
      32
100
AcDbLine
 10
-196.6125
 20
-409.86162988
 30
0.0
 11
-202.8
 21
-409.86162988
 31
0.0
  0
LINE
  5
F2
100
AcDbEntity
  8
ZUWAKU
  6
CONTINUOUS
 62
      32
100
AcDbLine
 10
-202.8
 20
-409.86162988
 30
0.0
 11
-203.925
 21
-412.67412988
 31
0.0
  0
LINE
  5
F3
100
AcDbEntity
  8
ZUWAKU
  6
CONTINUOUS
 62
      32
100
AcDbLine
 10
-215.9625
 20
-412.67412988
 30
0.0
 11
-215.025
 21
-409.86162988
 31
0.0
  0
LINE
  5
F4
100
AcDbEntity
  8
ZUWAKU
  6
CONTINUOUS
 62
      32
100
AcDbLine
 10
-215.025
 20
-409.86162988
 30
0.0
 11
-213.3375
 21
-409.86162988
 31
0.0
  0
LINE
  5
F5
100
AcDbEntity
  8
ZUWAKU
  6
CONTINUOUS
 62
      32
100
AcDbLine
 10
-213.3375
 20
-409.86162988
 30
0.0
 11
-211.8375
 21
-409.67412988
 31
0.0
  0
LINE
  5
F6
100
AcDbEntity
  8
ZUWAKU
  6
CONTINUOUS
 62
      32
100
AcDbLine
 10
-211.8375
 20
-409.67412988
 30
0.0
 11
-210.3375
 21
-408.92412988
 31
0.0
  0
LINE
  5
F7
100
AcDbEntity
  8
ZUWAKU
  6
CONTINUOUS
 62
      32
100
AcDbLine
 10
-210.3375
 20
-408.92412988
 30
0.0
 11
-209.4
 21
-407.42412988
 31
0.0
  0
LINE
  5
F8
100
AcDbEntity
  8
ZUWAKU
  6
CONTINUOUS
 62
      32
100
AcDbLine
 10
-209.4
 20
-407.42412988
 30
0.0
 11
-205.8375
 21
-397.86162988
 31
0.0
  0
LINE
  5
F9
100
AcDbEntity
  8
ZUWAKU
  6
CONTINUOUS
 62
      32
100
AcDbLine
 10
-205.8375
 20
-397.86162988
 30
0.0
 11
-200.775
 21
-397.86162988
 31
0.0
  0
LINE
  5
FA
100
AcDbEntity
  8
ZUWAKU
  6
CONTINUOUS
 62
      32
100
AcDbLine
 10
-200.775
 20
-397.86162988
 30
0.0
 11
-204.525
 21
-408.92412988
 31
0.0
  0
LINE
  5
FB
100
AcDbEntity
  8
ZUWAKU
  6
CONTINUOUS
 62
      32
100
AcDbLine
 10
-204.525
 20
-408.92412988
 30
0.0
 11
-206.025
 21
-410.42412988
 31
0.0
  0
LINE
  5
FC
100
AcDbEntity
  8
ZUWAKU
  6
CONTINUOUS
 62
      32
100
AcDbLine
 10
-206.025
 20
-410.42412988
 30
0.0
 11
-207.525
 21
-411.73662988
 31
0.0
  0
LINE
  5
FD
100
AcDbEntity
  8
ZUWAKU
  6
CONTINUOUS
 62
      32
100
AcDbLine
 10
-207.525
 20
-411.73662988
 30
0.0
 11
-209.4
 21
-412.48662988
 31
0.0
  0
LINE
  5
FE
100
AcDbEntity
  8
ZUWAKU
  6
CONTINUOUS
 62
      32
100
AcDbLine
 10
-165.9
 20
-397.86162988
 30
0.0
 11
-167.025
 21
-400.29912988
 31
0.0
  0
LINE
  5
FF
100
AcDbEntity
  8
ZUWAKU
  6
CONTINUOUS
 62
      32
100
AcDbLine
 10
-167.025
 20
-400.29912988
 30
0.0
 11
-168.9
 21
-402.17412988
 31
0.0
  0
LINE
  5
100
100
AcDbEntity
  8
ZUWAKU
  6
CONTINUOUS
 62
      32
100
AcDbLine
 10
-167.025
 20
-400.29912988
 30
0.0
 11
-168.9
 21
-402.17412988
 31
0.0
  0
LINE
  5
101
100
AcDbEntity
  8
ZUWAKU
  6
CONTINUOUS
 62
      32
100
AcDbLine
 10
-168.9
 20
-402.17412988
 30
0.0
 11
-170.9625
 21
-403.67412988
 31
0.0
  0
LINE
  5
102
100
AcDbEntity
  8
ZUWAKU
  6
CONTINUOUS
 62
      32
100
AcDbLine
 10
-170.9625
 20
-403.67412988
 30
0.0
 11
-173.4
 21
-404.42412988
 31
0.0
  0
LINE
  5
103
100
AcDbEntity
  8
ZUWAKU
  6
CONTINUOUS
 62
      32
100
AcDbLine
 10
-170.9625
 20
-403.67412988
 30
0.0
 11
-173.4
 21
-404.42412988
 31
0.0
  0
LINE
  5
104
100
AcDbEntity
  8
ZUWAKU
  6
CONTINUOUS
 62
      32
100
AcDbLine
 10
-173.4
 20
-404.42412988
 30
0.0
 11
-176.2125
 21
-412.67412988
 31
0.0
  0
LINE
  5
105
100
AcDbEntity
  8
ZUWAKU
  6
CONTINUOUS
 62
      32
100
AcDbLine
 10
-176.2125
 20
-412.67412988
 30
0.0
 11
-182.4
 21
-412.67412988
 31
0.0
  0
LINE
  5
106
100
AcDbEntity
  8
ZUWAKU
  6
CONTINUOUS
 62
      32
100
AcDbLine
 10
-176.2125
 20
-412.67412988
 30
0.0
 11
-182.4
 21
-412.67412988
 31
0.0
  0
LINE
  5
107
100
AcDbEntity
  8
ZUWAKU
  6
CONTINUOUS
 62
      32
100
AcDbLine
 10
-180.075
 20
-405.54912988
 30
0.0
 11
-185.775
 21
-405.54912988
 31
0.0
  0
LINE
  5
108
100
AcDbEntity
  8
ZUWAKU
  6
CONTINUOUS
 62
      32
100
AcDbLine
 10
-185.775
 20
-405.54912988
 30
0.0
 11
-184.8375
 21
-402.92412988
 31
0.0
  0
LINE
  5
109
100
AcDbEntity
  8
ZUWAKU
  6
CONTINUOUS
 62
      32
100
AcDbLine
 10
-182.4
 20
-412.67412988
 30
0.0
 11
-179.775
 21
-405.54912988
 31
0.0
  0
LINE
  5
10A
100
AcDbEntity
  8
ZUWAKU
  6
CONTINUOUS
 62
      32
100
AcDbLine
 10
-182.4
 20
-412.67412988
 30
0.0
 11
-179.775
 21
-405.54912988
 31
0.0
  0
LINE
  5
10B
100
AcDbEntity
  8
ZUWAKU
  6
CONTINUOUS
 62
      32
100
AcDbLine
 10
-184.8375
 20
-402.92412988
 30
0.0
 11
-181.275
 21
-402.92412988
 31
0.0
  0
LINE
  5
10C
100
AcDbEntity
  8
ZUWAKU
  6
CONTINUOUS
 62
      32
100
AcDbLine
 10
-184.8375
 20
-402.92412988
 30
0.0
 11
-181.275
 21
-402.92412988
 31
0.0
  0
LINE
  5
10D
100
AcDbEntity
  8
ZUWAKU
  6
CONTINUOUS
 62
      32
100
AcDbLine
 10
-181.275
 20
-402.92412988
 30
0.0
 11
-178.8375
 21
-402.73662988
 31
0.0
  0
LINE
  5
10E
100
AcDbEntity
  8
ZUWAKU
  6
CONTINUOUS
 62
      32
100
AcDbLine
 10
-181.275
 20
-402.92412988
 30
0.0
 11
-178.8375
 21
-402.73662988
 31
0.0
  0
LINE
  5
10F
100
AcDbEntity
  8
ZUWAKU
  6
CONTINUOUS
 62
      32
100
AcDbLine
 10
-178.8375
 20
-402.73662988
 30
0.0
 11
-176.2125
 21
-401.61162988
 31
0.0
  0
LINE
  5
110
100
AcDbEntity
  8
ZUWAKU
  6
CONTINUOUS
 62
      32
100
AcDbLine
 10
-178.8375
 20
-402.73662988
 30
0.0
 11
-176.2125
 21
-401.61162988
 31
0.0
  0
LINE
  5
111
100
AcDbEntity
  8
ZUWAKU
  6
CONTINUOUS
 62
      32
100
AcDbLine
 10
-176.2125
 20
-401.61162988
 30
0.0
 11
-174.3375
 21
-399.92412988
 31
0.0
  0
LINE
  5
112
100
AcDbEntity
  8
ZUWAKU
  6
CONTINUOUS
 62
      32
100
AcDbLine
 10
-176.2125
 20
-401.61162988
 30
0.0
 11
-174.3375
 21
-399.92412988
 31
0.0
  0
LINE
  5
113
100
AcDbEntity
  8
ZUWAKU
  6
CONTINUOUS
 62
      32
100
AcDbLine
 10
-209.5875
 20
-397.86162988
 30
0.0
 11
-212.9625
 21
-406.86162988
 31
0.0
  0
LINE
  5
114
100
AcDbEntity
  8
ZUWAKU
  6
CONTINUOUS
 62
      32
100
AcDbLine
 10
-212.9625
 20
-406.86162988
 30
0.0
 11
-217.275
 21
-406.86162988
 31
0.0
  0
LINE
  5
115
100
AcDbEntity
  8
ZUWAKU
  6
CONTINUOUS
 62
      32
100
AcDbLine
 10
-212.9625
 20
-406.86162988
 30
0.0
 11
-217.275
 21
-406.86162988
 31
0.0
  0
LINE
  5
116
100
AcDbEntity
  8
ZUWAKU
  6
CONTINUOUS
 62
      32
100
AcDbLine
 10
-217.275
 20
-406.86162988
 30
0.0
 11
-214.0875
 21
-397.86162988
 31
0.0
  0
LINE
  5
117
100
AcDbEntity
  8
ZUWAKU
  6
CONTINUOUS
 62
      32
100
AcDbLine
 10
-214.0875
 20
-397.86162988
 30
0.0
 11
-209.5875
 21
-397.86162988
 31
0.0
  0
LINE
  5
118
100
AcDbEntity
  8
ZUWAKU
  6
CONTINUOUS
 62
      32
100
AcDbLine
 10
-214.0875
 20
-397.86162988
 30
0.0
 11
-209.5875
 21
-397.86162988
 31
0.0
  0
LINE
  5
119
100
AcDbEntity
  8
ZUWAKU
  6
CONTINUOUS
 62
      32
100
AcDbLine
 10
-147.75
 20
-397.86162988
 30
0.0
 11
-148.875
 21
-401.23662988
 31
0.0
  0
LINE
  5
11A
100
AcDbEntity
  8
ZUWAKU
  6
CONTINUOUS
 62
      32
100
AcDbLine
 10
-148.875
 20
-401.23662988
 30
0.0
 11
-142.875
 21
-401.23662988
 31
0.0
  0
LINE
  5
11B
100
AcDbEntity
  8
ZUWAKU
  6
CONTINUOUS
 62
      32
100
AcDbLine
 10
-148.875
 20
-401.23662988
 30
0.0
 11
-142.875
 21
-401.23662988
 31
0.0
  0
LINE
  5
11C
100
AcDbEntity
  8
ZUWAKU
  6
CONTINUOUS
 62
      32
100
AcDbLine
 10
-153.0
 20
-409.67412988
 30
0.0
 11
-154.125
 21
-412.86162988
 31
0.0
  0
LINE
  5
11D
100
AcDbEntity
  8
ZUWAKU
  6
CONTINUOUS
 62
      32
100
AcDbLine
 10
-153.0
 20
-409.67412988
 30
0.0
 11
-154.125
 21
-412.86162988
 31
0.0
  0
LINE
  5
11E
100
AcDbEntity
  8
ZUWAKU
  6
CONTINUOUS
 62
      32
100
AcDbLine
 10
-154.125
 20
-412.86162988
 30
0.0
 11
-148.5
 21
-411.92412988
 31
0.0
  0
LINE
  5
11F
100
AcDbEntity
  8
ZUWAKU
  6
CONTINUOUS
 62
      32
100
AcDbLine
 10
-148.5
 20
-411.92412988
 30
0.0
 11
-145.875
 21
-411.17412988
 31
0.0
  0
LINE
  5
120
100
AcDbEntity
  8
ZUWAKU
  6
CONTINUOUS
 62
      32
100
AcDbLine
 10
-148.5
 20
-411.92412988
 30
0.0
 11
-145.875
 21
-411.17412988
 31
0.0
  0
LINE
  5
121
100
AcDbEntity
  8
ZUWAKU
  6
CONTINUOUS
 62
      32
100
AcDbLine
 10
-143.0625
 20
-410.23662988
 30
0.0
 11
-141.5625
 21
-412.67412988
 31
0.0
  0
LINE
  5
122
100
AcDbEntity
  8
ZUWAKU
  6
CONTINUOUS
 62
      32
100
AcDbLine
 10
-141.5625
 20
-412.67412988
 30
0.0
 11
-136.875
 21
-412.67412988
 31
0.0
  0
LINE
  5
123
100
AcDbEntity
  8
ZUWAKU
  6
CONTINUOUS
 62
      32
100
AcDbLine
 10
-141.5625
 20
-412.67412988
 30
0.0
 11
-136.875
 21
-412.67412988
 31
0.0
  0
LINE
  5
124
100
AcDbEntity
  8
ZUWAKU
  6
CONTINUOUS
 62
      32
100
AcDbLine
 10
-140.0625
 20
-407.42412988
 30
0.0
 11
-138.375
 21
-405.17412988
 31
0.0
  0
LINE
  5
125
100
AcDbEntity
  8
ZUWAKU
  6
CONTINUOUS
 62
      32
100
AcDbLine
 10
-138.375
 20
-405.17412988
 30
0.0
 11
-136.875
 21
-402.92412988
 31
0.0
  0
LINE
  5
126
100
AcDbEntity
  8
ZUWAKU
  6
CONTINUOUS
 62
      32
100
AcDbLine
 10
-136.875
 20
-402.92412988
 30
0.0
 11
-135.75
 21
-400.48662988
 31
0.0
  0
LINE
  5
127
100
AcDbEntity
  8
ZUWAKU
  6
CONTINUOUS
 62
      32
100
AcDbLine
 10
-135.75
 20
-400.48662988
 30
0.0
 11
-135.0
 21
-397.86162988
 31
0.0
  0
LINE
  5
128
100
AcDbEntity
  8
ZUWAKU
  6
CONTINUOUS
 62
      32
100
AcDbLine
 10
-135.75
 20
-400.48662988
 30
0.0
 11
-135.0
 21
-397.86162988
 31
0.0
  0
LINE
  5
129
100
AcDbEntity
  8
ZUWAKU
  6
CONTINUOUS
 62
      32
100
AcDbLine
 10
-135.0
 20
-397.86162988
 30
0.0
 11
-147.75
 21
-397.86162988
 31
0.0
  0
LINE
  5
12A
100
AcDbEntity
  8
ZUWAKU
  6
CONTINUOUS
 62
      32
100
AcDbLine
 10
-146.4375
 20
-407.23662988
 30
0.0
 11
-149.4375
 21
-408.92412988
 31
0.0
  0
LINE
  5
12B
100
AcDbEntity
  8
ZUWAKU
  6
CONTINUOUS
 62
      32
100
AcDbLine
 10
-145.875
 20
-411.17412988
 30
0.0
 11
-143.0625
 21
-410.23662988
 31
0.0
  0
LINE
  5
12C
100
AcDbEntity
  8
ZUWAKU
  6
CONTINUOUS
 62
      32
100
AcDbLine
 10
-145.875
 20
-411.17412988
 30
0.0
 11
-143.0625
 21
-410.23662988
 31
0.0
  0
LINE
  5
12D
100
AcDbEntity
  8
ZUWAKU
  6
CONTINUOUS
 62
      32
100
AcDbLine
 10
-136.875
 20
-412.67412988
 30
0.0
 11
-140.0625
 21
-407.42412988
 31
0.0
  0
LINE
  5
12E
100
AcDbEntity
  8
ZUWAKU
  6
CONTINUOUS
 62
      32
100
AcDbLine
 10
-136.875
 20
-412.67412988
 30
0.0
 11
-140.0625
 21
-407.42412988
 31
0.0
  0
LINE
  5
12F
100
AcDbEntity
  8
ZUWAKU
  6
CONTINUOUS
 62
      32
100
AcDbLine
 10
-144.0
 20
-404.42412988
 30
0.0
 11
-146.4375
 21
-407.23662988
 31
0.0
  0
LINE
  5
130
100
AcDbEntity
  8
ZUWAKU
  6
CONTINUOUS
 62
      32
100
AcDbLine
 10
-144.0
 20
-404.42412988
 30
0.0
 11
-146.4375
 21
-407.23662988
 31
0.0
  0
LINE
  5
131
100
AcDbEntity
  8
ZUWAKU
  6
CONTINUOUS
 62
      32
100
AcDbLine
 10
-181.275
 20
-402.92412988
 30
0.0
 11
-178.8375
 21
-402.73662988
 31
0.0
  0
LINE
  5
132
100
AcDbEntity
  8
ZUWAKU
  6
CONTINUOUS
 62
      32
100
AcDbLine
 10
-178.8375
 20
-402.73662988
 30
0.0
 11
-176.2125
 21
-401.61162988
 31
0.0
  0
LINE
  5
133
100
AcDbEntity
  8
ZUWAKU
  6
CONTINUOUS
 62
      32
100
AcDbLine
 10
-176.2125
 20
-401.61162988
 30
0.0
 11
-174.3375
 21
-399.92412988
 31
0.0
  0
LINE
  5
134
100
AcDbEntity
  8
ZUWAKU
  6
CONTINUOUS
 62
      32
100
AcDbLine
 10
-174.3375
 20
-399.92412988
 30
0.0
 11
-172.8375
 21
-397.86162988
 31
0.0
  0
LINE
  5
135
100
AcDbEntity
  8
ZUWAKU
  6
CONTINUOUS
 62
      32
100
AcDbLine
 10
-159.975
 20
-412.67412988
 30
0.0
 11
-156.6
 21
-411.17412988
 31
0.0
  0
LINE
  5
136
100
AcDbEntity
  8
ZUWAKU
  6
CONTINUOUS
 62
      32
100
AcDbLine
 10
-156.6
 20
-411.17412988
 30
0.0
 11
-153.6
 21
-408.36162988
 31
0.0
  0
LINE
  5
137
100
AcDbEntity
  8
ZUWAKU
  6
CONTINUOUS
 62
      32
100
AcDbLine
 10
-153.6
 20
-408.36162988
 30
0.0
 11
-151.35
 21
-404.61162988
 31
0.0
  0
LINE
  5
138
100
AcDbEntity
  8
ZUWAKU
  6
CONTINUOUS
 62
      32
100
AcDbLine
 10
-151.35
 20
-404.61162988
 30
0.0
 11
-150.6
 21
-400.67412988
 31
0.0
  0
LINE
  5
139
100
AcDbEntity
  8
ZUWAKU
  6
CONTINUOUS
 62
      32
100
AcDbLine
 10
-153.0
 20
-409.67412988
 30
0.0
 11
-149.4375
 21
-408.92412988
 31
0.0
  0
LINE
  5
13A
100
AcDbEntity
  8
ZUWAKU
  6
CONTINUOUS
 62
      32
100
AcDbLine
 10
-149.4375
 20
-408.92412988
 30
0.0
 11
-146.4375
 21
-407.23662988
 31
0.0
  0
LINE
  5
13B
100
AcDbEntity
  8
ZUWAKU
  6
CONTINUOUS
 62
      32
100
AcDbLine
 10
-146.4375
 20
-407.23662988
 30
0.0
 11
-144.0
 21
-404.42412988
 31
0.0
  0
LINE
  5
13C
100
AcDbEntity
  8
ZUWAKU
  6
CONTINUOUS
 62
      32
100
AcDbLine
 10
-173.4
 20
-404.42412988
 30
0.0
 11
-170.9625
 21
-403.67412988
 31
0.0
  0
LINE
  5
13D
100
AcDbEntity
  8
ZUWAKU
  6
CONTINUOUS
 62
      32
100
AcDbLine
 10
-170.9625
 20
-403.67412988
 30
0.0
 11
-168.9
 21
-402.17412988
 31
0.0
  0
LINE
  5
13E
100
AcDbEntity
  8
ZUWAKU
  6
CONTINUOUS
 62
      32
100
AcDbLine
 10
-168.9
 20
-402.17412988
 30
0.0
 11
-167.025
 21
-400.29912988
 31
0.0
  0
LINE
  5
13F
100
AcDbEntity
  8
ZUWAKU
  6
CONTINUOUS
 62
      32
100
AcDbLine
 10
-167.025
 20
-400.29912988
 30
0.0
 11
-165.9
 21
-397.86162988
 31
0.0
  0
LINE
  5
140
100
AcDbEntity
  8
ZUWAKU
  6
CONTINUOUS
 62
      32
100
AcDbLine
 10
-140.0625
 20
-407.42412988
 30
0.0
 11
-138.375
 21
-405.17412988
 31
0.0
  0
LINE
  5
141
100
AcDbEntity
  8
ZUWAKU
  6
CONTINUOUS
 62
      32
100
AcDbLine
 10
-138.375
 20
-405.17412988
 30
0.0
 11
-136.875
 21
-402.92412988
 31
0.0
  0
LINE
  5
142
100
AcDbEntity
  8
ZUWAKU
  6
CONTINUOUS
 62
      32
100
AcDbLine
 10
-136.875
 20
-402.92412988
 30
0.0
 11
-135.75
 21
-400.48662988
 31
0.0
  0
LINE
  5
143
100
AcDbEntity
  8
ZUWAKU
  6
CONTINUOUS
 62
      32
100
AcDbLine
 10
-135.75
 20
-400.48662988
 30
0.0
 11
-135.0
 21
-397.86162988
 31
0.0
  0
LINE
  5
144
100
AcDbEntity
  8
ZUWAKU
  6
CONTINUOUS
 62
      32
100
AcDbLine
 10
-148.5
 20
-411.92412988
 30
0.0
 11
-145.875
 21
-411.17412988
 31
0.0
  0
LINE
  5
145
100
AcDbEntity
  8
ZUWAKU
  6
CONTINUOUS
 62
      32
100
AcDbLine
 10
-145.875
 20
-411.17412988
 30
0.0
 11
-143.0625
 21
-410.23662988
 31
0.0
  0
LINE
  5
146
100
AcDbEntity
  8
ZUWAKU
  6
CONTINUOUS
 62
      32
100
AcDbLine
 10
-153.4125
 20
-403.11162988
 30
0.0
 11
-152.475
 21
-400.67412988
 31
0.0
  0
LINE
  5
147
100
AcDbEntity
  8
ZUWAKU
  6
CONTINUOUS
 62
      32
100
AcDbLine
 10
-152.475
 20
-400.67412988
 30
0.0
 11
-150.6
 21
-400.67412988
 31
0.0
  0
LINE
  5
148
100
AcDbEntity
  8
ZUWAKU
  6
CONTINUOUS
 62
      32
100
AcDbLine
 10
-152.475
 20
-400.67412988
 30
0.0
 11
-150.6
 21
-400.67412988
 31
0.0
  0
LINE
  5
149
100
AcDbEntity
  8
ZUWAKU
  6
CONTINUOUS
 62
      32
100
AcDbLine
 10
-150.6
 20
-400.67412988
 30
0.0
 11
-151.35
 21
-404.61162988
 31
0.0
  0
LINE
  5
14A
100
AcDbEntity
  8
ZUWAKU
  6
CONTINUOUS
 62
      32
100
AcDbLine
 10
-151.35
 20
-404.61162988
 30
0.0
 11
-153.6
 21
-408.36162988
 31
0.0
  0
LINE
  5
14B
100
AcDbEntity
  8
ZUWAKU
  6
CONTINUOUS
 62
      32
100
AcDbLine
 10
-151.35
 20
-404.61162988
 30
0.0
 11
-153.6
 21
-408.36162988
 31
0.0
  0
LINE
  5
14C
100
AcDbEntity
  8
ZUWAKU
  6
CONTINUOUS
 62
      32
100
AcDbLine
 10
-153.6
 20
-408.36162988
 30
0.0
 11
-156.6
 21
-411.17412988
 31
0.0
  0
LINE
  5
14D
100
AcDbEntity
  8
ZUWAKU
  6
CONTINUOUS
 62
      32
100
AcDbLine
 10
-160.35
 20
-412.67412988
 30
0.0
 11
-169.9125
 21
-412.67412988
 31
0.0
  0
LINE
  5
14E
100
AcDbEntity
  8
ZUWAKU
  6
CONTINUOUS
 62
      32
100
AcDbLine
 10
-169.9125
 20
-412.67412988
 30
0.0
 11
-168.225
 21
-407.98662988
 31
0.0
  0
LINE
  5
14F
100
AcDbEntity
  8
ZUWAKU
  6
CONTINUOUS
 62
      32
100
AcDbLine
 10
-169.9125
 20
-412.67412988
 30
0.0
 11
-168.225
 21
-407.98662988
 31
0.0
  0
LINE
  5
150
100
AcDbEntity
  8
ZUWAKU
  6
CONTINUOUS
 62
      32
100
AcDbLine
 10
-154.9125
 20
-405.17412988
 30
0.0
 11
-153.4125
 21
-403.11162988
 31
0.0
  0
LINE
  5
151
100
AcDbEntity
  8
ZUWAKU
  6
CONTINUOUS
 62
      32
100
AcDbLine
 10
-168.225
 20
-407.98662988
 30
0.0
 11
-159.225
 21
-407.98662988
 31
0.0
  0
LINE
  5
152
100
AcDbEntity
  8
ZUWAKU
  6
CONTINUOUS
 62
      32
100
AcDbLine
 10
-168.225
 20
-407.98662988
 30
0.0
 11
-159.225
 21
-407.98662988
 31
0.0
  0
LINE
  5
153
100
AcDbEntity
  8
ZUWAKU
  6
CONTINUOUS
 62
      32
100
AcDbLine
 10
-159.225
 20
-407.98662988
 30
0.0
 11
-156.975
 21
-406.86162988
 31
0.0
  0
LINE
  5
154
100
AcDbEntity
  8
ZUWAKU
  6
CONTINUOUS
 62
      32
100
AcDbLine
 10
-159.225
 20
-407.98662988
 30
0.0
 11
-156.975
 21
-406.86162988
 31
0.0
  0
LINE
  5
155
100
AcDbEntity
  8
ZUWAKU
  6
CONTINUOUS
 62
      32
100
AcDbLine
 10
-156.975
 20
-406.86162988
 30
0.0
 11
-154.9125
 21
-405.17412988
 31
0.0
  0
LINE
  5
156
100
AcDbEntity
  8
ZUWAKU
  6
CONTINUOUS
 62
      32
100
AcDbLine
 10
-186.675
 20
-402.92412988
 30
0.0
 11
-188.925
 21
-409.11162988
 31
0.0
  0
LINE
  5
157
100
AcDbEntity
  8
ZUWAKU
  6
CONTINUOUS
 62
      32
100
AcDbLine
 10
-188.925
 20
-409.11162988
 30
0.0
 11
-190.2375
 21
-410.42412988
 31
0.0
  0
LINE
  5
158
100
AcDbEntity
  8
ZUWAKU
  6
CONTINUOUS
 62
      32
100
AcDbLine
 10
-188.925
 20
-409.11162988
 30
0.0
 11
-190.2375
 21
-410.42412988
 31
0.0
  0
LINE
  5
159
100
AcDbEntity
  8
ZUWAKU
  6
CONTINUOUS
 62
      32
100
AcDbLine
 10
-190.2375
 20
-410.42412988
 30
0.0
 11
-191.3625
 21
-411.54912988
 31
0.0
  0
LINE
  5
15A
100
AcDbEntity
  8
ZUWAKU
  6
CONTINUOUS
 62
      32
100
AcDbLine
 10
-191.3625
 20
-411.54912988
 30
0.0
 11
-192.8625
 21
-412.29912988
 31
0.0
  0
LINE
  5
15B
100
AcDbEntity
  8
ZUWAKU
  6
CONTINUOUS
 62
      32
100
AcDbLine
 10
-191.3625
 20
-411.54912988
 30
0.0
 11
-192.8625
 21
-412.29912988
 31
0.0
  0
LINE
  5
15C
100
AcDbEntity
  8
ZUWAKU
  6
CONTINUOUS
 62
      32
100
AcDbLine
 10
-192.8625
 20
-412.29912988
 30
0.0
 11
-194.3625
 21
-412.67412988
 31
0.0
  0
LINE
  5
15D
100
AcDbEntity
  8
ZUWAKU
  6
CONTINUOUS
 62
      32
100
AcDbLine
 10
-194.3625
 20
-412.67412988
 30
0.0
 11
-203.925
 21
-412.67412988
 31
0.0
  0
LINE
  5
15E
100
AcDbEntity
  8
ZUWAKU
  6
CONTINUOUS
 62
      32
100
AcDbLine
 10
-194.3625
 20
-412.67412988
 30
0.0
 11
-203.925
 21
-412.67412988
 31
0.0
  0
LINE
  5
15F
100
AcDbEntity
  8
ZUWAKU
  6
CONTINUOUS
 62
      32
100
AcDbLine
 10
-203.925
 20
-412.67412988
 30
0.0
 11
-202.8
 21
-409.86162988
 31
0.0
  0
LINE
  5
160
100
AcDbEntity
  8
ZUWAKU
  6
CONTINUOUS
 62
      32
100
AcDbLine
 10
-202.8
 20
-409.86162988
 30
0.0
 11
-196.6125
 21
-409.86162988
 31
0.0
  0
LINE
  5
161
100
AcDbEntity
  8
ZUWAKU
  6
CONTINUOUS
 62
      32
100
AcDbLine
 10
-202.8
 20
-409.86162988
 30
0.0
 11
-196.6125
 21
-409.86162988
 31
0.0
  0
LINE
  5
162
100
AcDbEntity
  8
ZUWAKU
  6
CONTINUOUS
 62
      32
100
AcDbLine
 10
-193.05
 20
-405.54912988
 30
0.0
 11
-200.925
 21
-405.54912988
 31
0.0
  0
LINE
  5
163
100
AcDbEntity
  8
ZUWAKU
  6
CONTINUOUS
 62
      32
100
AcDbLine
 10
-200.925
 20
-405.54912988
 30
0.0
 11
-200.175
 21
-402.92412988
 31
0.0
  0
LINE
  5
164
100
AcDbEntity
  8
ZUWAKU
  6
CONTINUOUS
 62
      32
100
AcDbLine
 10
-200.925
 20
-405.54912988
 30
0.0
 11
-200.175
 21
-402.92412988
 31
0.0
  0
LINE
  5
165
100
AcDbEntity
  8
ZUWAKU
  6
CONTINUOUS
 62
      32
100
AcDbLine
 10
-196.6125
 20
-409.86162988
 30
0.0
 11
-195.3
 21
-408.92412988
 31
0.0
  0
LINE
  5
166
100
AcDbEntity
  8
ZUWAKU
  6
CONTINUOUS
 62
      32
100
AcDbLine
 10
-196.6125
 20
-409.86162988
 30
0.0
 11
-195.3
 21
-408.92412988
 31
0.0
  0
LINE
  5
167
100
AcDbEntity
  8
ZUWAKU
  6
CONTINUOUS
 62
      32
100
AcDbLine
 10
-195.3
 20
-408.92412988
 30
0.0
 11
-194.3625
 21
-407.98662988
 31
0.0
  0
LINE
  5
168
100
AcDbEntity
  8
ZUWAKU
  6
CONTINUOUS
 62
      32
100
AcDbLine
 10
-195.3
 20
-408.92412988
 30
0.0
 11
-194.3625
 21
-407.98662988
 31
0.0
  0
LINE
  5
169
100
AcDbEntity
  8
ZUWAKU
  6
CONTINUOUS
 62
      32
100
AcDbLine
 10
-194.3625
 20
-407.98662988
 30
0.0
 11
-193.425
 21
-406.86162988
 31
0.0
  0
LINE
  5
16A
100
AcDbEntity
  8
ZUWAKU
  6
CONTINUOUS
 62
      32
100
AcDbLine
 10
-194.3625
 20
-407.98662988
 30
0.0
 11
-193.425
 21
-406.86162988
 31
0.0
  0
LINE
  5
16B
100
AcDbEntity
  8
ZUWAKU
  6
CONTINUOUS
 62
      32
100
AcDbLine
 10
-193.425
 20
-406.86162988
 30
0.0
 11
-193.05
 21
-405.54912988
 31
0.0
  0
LINE
  5
16C
100
AcDbEntity
  8
ZUWAKU
  6
CONTINUOUS
 62
      32
100
AcDbLine
 10
-193.425
 20
-406.86162988
 30
0.0
 11
-193.05
 21
-405.54912988
 31
0.0
  0
LINE
  5
16D
100
AcDbEntity
  8
ZUWAKU
  6
CONTINUOUS
 62
      32
100
AcDbLine
 10
-205.2375
 20
-397.86162988
 30
0.0
 11
-201.11398879
 21
-397.86162988
 31
0.0
  0
LINE
  5
16E
100
AcDbEntity
  8
ZUWAKU
  6
CONTINUOUS
 62
      32
100
AcDbLine
 10
-204.525
 20
-408.92412988
 30
0.0
 11
-206.025
 21
-410.42412988
 31
0.0
  0
LINE
  5
16F
100
AcDbEntity
  8
ZUWAKU
  6
CONTINUOUS
 62
      32
100
AcDbLine
 10
-206.025
 20
-410.42412988
 30
0.0
 11
-207.525
 21
-411.73662988
 31
0.0
  0
LINE
  5
170
100
AcDbEntity
  8
ZUWAKU
  6
CONTINUOUS
 62
      32
100
AcDbLine
 10
-206.025
 20
-410.42412988
 30
0.0
 11
-207.525
 21
-411.73662988
 31
0.0
  0
LINE
  5
171
100
AcDbEntity
  8
ZUWAKU
  6
CONTINUOUS
 62
      32
100
AcDbLine
 10
-207.525
 20
-411.73662988
 30
0.0
 11
-209.4
 21
-412.48662988
 31
0.0
  0
LINE
  5
172
100
AcDbEntity
  8
ZUWAKU
  6
CONTINUOUS
 62
      32
100
AcDbLine
 10
-209.4
 20
-412.48662988
 30
0.0
 11
-211.275
 21
-412.67412988
 31
0.0
  0
LINE
  5
173
100
AcDbEntity
  8
ZUWAKU
  6
CONTINUOUS
 62
      32
100
AcDbLine
 10
-211.275
 20
-412.67412988
 30
0.0
 11
-215.9625
 21
-412.67412988
 31
0.0
  0
LINE
  5
174
100
AcDbEntity
  8
ZUWAKU
  6
CONTINUOUS
 62
      32
100
AcDbLine
 10
-215.9625
 20
-412.67412988
 30
0.0
 11
-215.025
 21
-409.86162988
 31
0.0
  0
LINE
  5
175
100
AcDbEntity
  8
ZUWAKU
  6
CONTINUOUS
 62
      32
100
AcDbLine
 10
-215.9625
 20
-412.67412988
 30
0.0
 11
-215.025
 21
-409.86162988
 31
0.0
  0
LINE
  5
176
100
AcDbEntity
  8
ZUWAKU
  6
CONTINUOUS
 62
      32
100
AcDbLine
 10
-209.4
 20
-407.42412988
 30
0.0
 11
-205.8375
 21
-397.86162988
 31
0.0
  0
LINE
  5
177
100
AcDbEntity
  8
ZUWAKU
  6
CONTINUOUS
 62
      32
100
AcDbLine
 10
-215.025
 20
-409.86162988
 30
0.0
 11
-213.3375
 21
-409.86162988
 31
0.0
  0
LINE
  5
178
100
AcDbEntity
  8
ZUWAKU
  6
CONTINUOUS
 62
      32
100
AcDbLine
 10
-215.025
 20
-409.86162988
 30
0.0
 11
-213.3375
 21
-409.86162988
 31
0.0
  0
LINE
  5
179
100
AcDbEntity
  8
ZUWAKU
  6
CONTINUOUS
 62
      32
100
AcDbLine
 10
-210.3375
 20
-408.92412988
 30
0.0
 11
-209.4
 21
-407.42412988
 31
0.0
  0
LINE
  5
17A
100
AcDbEntity
  8
ZUWAKU
  6
CONTINUOUS
 62
      32
100
AcDbLine
 10
-211.8375
 20
-409.67412988
 30
0.0
 11
-210.3375
 21
-408.92412988
 31
0.0
  0
LINE
  5
17B
100
AcDbEntity
  8
ZUWAKU
  6
CONTINUOUS
 62
      32
100
AcDbLine
 10
-213.3375
 20
-409.86162988
 30
0.0
 11
-211.8375
 21
-409.67412988
 31
0.0
  0
LINE
  5
17C
100
AcDbEntity
  8
ZUWAKU
  6
CONTINUOUS
 62
      32
100
AcDbLine
 10
-213.3375
 20
-409.86162988
 30
0.0
 11
-211.8375
 21
-409.67412988
 31
0.0
  0
LINE
  5
17D
100
AcDbEntity
  8
ZUWAKU
  6
CONTINUOUS
 62
      32
100
AcDbLine
 10
-164.475
 20
-397.86162988
 30
0.0
 11
-158.475
 21
-397.86162988
 31
0.0
  0
LINE
  5
17E
100
AcDbEntity
  8
ZUWAKU
  6
CONTINUOUS
 62
      32
100
AcDbLine
 10
-158.475
 20
-397.86162988
 30
0.0
 11
-159.6
 21
-401.23662988
 31
0.0
  0
LINE
  5
17F
100
AcDbEntity
  8
ZUWAKU
  6
CONTINUOUS
 62
      32
100
AcDbLine
 10
-158.475
 20
-397.86162988
 30
0.0
 11
-159.6
 21
-401.23662988
 31
0.0
  0
LINE
  5
180
100
AcDbEntity
  8
ZUWAKU
  6
CONTINUOUS
 62
      32
100
AcDbLine
 10
-159.9
 20
-401.23662988
 30
0.0
 11
-165.7875
 21
-401.23662988
 31
0.0
  0
LINE
  5
181
100
AcDbEntity
  8
ZUWAKU
  6
CONTINUOUS
 62
      32
100
AcDbLine
 10
-142.25272308
 20
-401.21168646
 30
0.0
 11
-144.0
 21
-404.42412988
 31
0.0
  0
LINE
  5
182
100
AcDbEntity
  8
ZUWAKU
  6
CONTINUOUS
 62
      32
100
AcDbLine
 10
-137.0625
 20
-397.86162988
 30
0.0
 11
-146.4375
 21
-407.23662988
 31
0.0
  0
LINE
  5
183
100
AcDbEntity
  8
ZUWAKU
  6
CONTINUOUS
 62
      32
100
AcDbLine
 10
-146.4375
 20
-407.23662988
 30
0.0
 11
-151.65
 21
-412.44912988
 31
0.0
  0
LINE
  5
184
100
AcDbEntity
  8
ZUWAKU
  6
CONTINUOUS
 62
      32
100
AcDbLine
 10
-137.91102814
 20
-397.86162988
 30
0.0
 11
-143.43529641
 21
-403.38589815
 31
0.0
  0
LINE
  5
185
100
AcDbEntity
  8
ZUWAKU
  6
CONTINUOUS
 62
      32
100
AcDbLine
 10
-148.37699289
 20
-408.32759463
 30
0.0
 11
-152.66823376
 21
-412.61883551
 31
0.0
  0
LINE
  5
186
100
AcDbEntity
  8
ZUWAKU
  6
CONTINUOUS
 62
      32
100
AcDbLine
 10
-138.75955627
 20
-397.86162988
 30
0.0
 11
-142.42338845
 21
-401.52546206
 31
0.0
  0
LINE
  5
187
100
AcDbEntity
  8
ZUWAKU
  6
CONTINUOUS
 62
      32
100
AcDbLine
 10
-149.92460461
 20
-409.02667822
 30
0.0
 11
-153.68646753
 21
-412.78854114
 31
0.0
  0
LINE
  5
188
100
AcDbEntity
  8
ZUWAKU
  6
CONTINUOUS
 62
      32
100
AcDbLine
 10
-139.60808441
 20
-397.86162988
 30
0.0
 11
-142.98308441
 21
-401.23662988
 31
0.0
  0
LINE
  5
189
100
AcDbEntity
  8
ZUWAKU
  6
CONTINUOUS
 62
      32
100
AcDbLine
 10
-150.99940692
 20
-409.25295239
 30
0.0
 11
-153.86149941
 21
-412.11504488
 31
0.0
  0
LINE
  5
18A
100
AcDbEntity
  8
ZUWAKU
  6
CONTINUOUS
 62
      32
100
AcDbLine
 10
-140.45661255
 20
-397.86162988
 30
0.0
 11
-143.83161255
 21
-401.23662988
 31
0.0
  0
LINE
  5
18B
100
AcDbEntity
  8
ZUWAKU
  6
CONTINUOUS
 62
      32
100
AcDbLine
 10
-152.07420923
 20
-409.47922656
 30
0.0
 11
-153.39866588
 21
-410.80368321
 31
0.0
  0
LINE
  5
18C
100
AcDbEntity
  8
ZUWAKU
  6
CONTINUOUS
 62
      32
100
AcDbLine
 10
-141.30514069
 20
-397.86162988
 30
0.0
 11
-144.68014069
 21
-401.23662988
 31
0.0
  0
LINE
  5
18D
100
AcDbEntity
  8
ZUWAKU
  6
CONTINUOUS
 62
      32
100
AcDbLine
 10
-142.15366882
 20
-397.86162988
 30
0.0
 11
-145.52866882
 21
-401.23662988
 31
0.0
  0
LINE
  5
18E
100
AcDbEntity
  8
ZUWAKU
  6
CONTINUOUS
 62
      32
100
AcDbLine
 10
-143.00219696
 20
-397.86162988
 30
0.0
 11
-146.37719696
 21
-401.23662988
 31
0.0
  0
LINE
  5
18F
100
AcDbEntity
  8
ZUWAKU
  6
CONTINUOUS
 62
      32
100
AcDbLine
 10
-143.8507251
 20
-397.86162988
 30
0.0
 11
-147.2257251
 21
-401.23662988
 31
0.0
  0
LINE
  5
190
100
AcDbEntity
  8
ZUWAKU
  6
CONTINUOUS
 62
      32
100
AcDbLine
 10
-144.69925324
 20
-397.86162988
 30
0.0
 11
-148.07425324
 21
-401.23662988
 31
0.0
  0
LINE
  5
191
100
AcDbEntity
  8
ZUWAKU
  6
CONTINUOUS
 62
      32
100
AcDbLine
 10
-145.54778137
 20
-397.86162988
 30
0.0
 11
-148.85110931
 21
-401.16495782
 31
0.0
  0
LINE
  5
192
100
AcDbEntity
  8
ZUWAKU
  6
CONTINUOUS
 62
      32
100
AcDbLine
 10
-146.39630951
 20
-397.86162988
 30
0.0
 11
-148.42684524
 21
-399.89216561
 31
0.0
  0
LINE
  5
193
100
AcDbEntity
  8
ZUWAKU
  6
CONTINUOUS
 62
      32
100
AcDbLine
 10
-147.24483765
 20
-397.86162988
 30
0.0
 11
-148.00258118
 21
-398.61937341
 31
0.0
  0
LINE
  5
194
100
AcDbEntity
  8
ZUWAKU
  6
CONTINUOUS
 62
      32
100
AcDbLine
 10
-136.21397186
 20
-397.86162988
 30
0.0
 11
-150.63176624
 21
-412.27942425
 31
0.0
  0
LINE
  5
195
100
AcDbEntity
  8
ZUWAKU
  6
CONTINUOUS
 62
      32
100
AcDbLine
 10
-135.36544373
 20
-397.86162988
 30
0.0
 11
-149.61353247
 21
-412.10971863
 31
0.0
  0
LINE
  5
196
100
AcDbEntity
  8
ZUWAKU
  6
CONTINUOUS
 62
      32
100
AcDbLine
 10
-135.19323376
 20
-398.53794806
 30
0.0
 11
-148.59529871
 21
-411.940013
 31
0.0
  0
LINE
  5
197
100
AcDbEntity
  8
ZUWAKU
  6
CONTINUOUS
 62
      32
100
AcDbLine
 10
-135.53264502
 20
-399.72588745
 30
0.0
 11
-147.42324243
 21
-411.61648486
 31
0.0
  0
LINE
  5
198
100
AcDbEntity
  8
ZUWAKU
  6
CONTINUOUS
 62
      32
100
AcDbLine
 10
-136.01154916
 20
-401.05331973
 30
0.0
 11
-146.23530304
 21
-411.27707361
 31
0.0
  0
LINE
  5
199
100
AcDbEntity
  8
ZUWAKU
  6
CONTINUOUS
 62
      32
100
AcDbLine
 10
-136.73885899
 20
-402.6291577
 30
0.0
 11
-144.98824676
 21
-410.87854547
 31
0.0
  0
LINE
  5
19A
100
AcDbEntity
  8
ZUWAKU
  6
CONTINUOUS
 62
      32
100
AcDbLine
 10
-138.25439392
 20
-404.99322077
 30
0.0
 11
-143.71545456
 21
-410.4542814
 31
0.0
  0
LINE
  5
19B
100
AcDbEntity
  8
ZUWAKU
  6
CONTINUOUS
 62
      32
100
AcDbLine
 10
-139.97722607
 20
-407.56458105
 30
0.0
 11
-142.90508091
 21
-410.4924359
 31
0.0
  0
LINE
  5
19C
100
AcDbEntity
  8
ZUWAKU
  6
CONTINUOUS
 62
      32
100
AcDbLine
 10
-139.656671
 20
-408.09255412
 30
0.0
 11
-142.5818321
 21
-411.01771522
 31
0.0
  0
LINE
  5
19D
100
AcDbEntity
  8
ZUWAKU
  6
CONTINUOUS
 62
      32
100
AcDbLine
 10
-139.33611593
 20
-408.62052718
 30
0.0
 11
-142.25858329
 21
-411.54299454
 31
0.0
  0
LINE
  5
19E
100
AcDbEntity
  8
ZUWAKU
  6
CONTINUOUS
 62
      32
100
AcDbLine
 10
-139.01556085
 20
-409.14850024
 30
0.0
 11
-141.93533447
 21
-412.06827386
 31
0.0
  0
LINE
  5
19F
100
AcDbEntity
  8
ZUWAKU
  6
CONTINUOUS
 62
      32
100
AcDbLine
 10
-138.69500578
 20
-409.67647331
 30
0.0
 11
-141.61208566
 21
-412.59355319
 31
0.0
  0
LINE
  5
1A0
100
AcDbEntity
  8
ZUWAKU
  6
CONTINUOUS
 62
      32
100
AcDbLine
 10
-138.3744507
 20
-410.20444637
 30
0.0
 11
-140.84413421
 21
-412.67412988
 31
0.0
  0
LINE
  5
1A1
100
AcDbEntity
  8
ZUWAKU
  6
CONTINUOUS
 62
      32
100
AcDbLine
 10
-138.05389563
 20
-410.73241943
 30
0.0
 11
-139.99560608
 21
-412.67412988
 31
0.0
  0
LINE
  5
1A2
100
AcDbEntity
  8
ZUWAKU
  6
CONTINUOUS
 62
      32
100
AcDbLine
 10
-137.73334055
 20
-411.2603925
 30
0.0
 11
-139.14707794
 21
-412.67412988
 31
0.0
  0
LINE
  5
1A3
100
AcDbEntity
  8
ZUWAKU
  6
CONTINUOUS
 62
      32
100
AcDbLine
 10
-137.41278548
 20
-411.78836556
 30
0.0
 11
-138.2985498
 21
-412.67412988
 31
0.0
  0
LINE
  5
1A4
100
AcDbEntity
  8
ZUWAKU
  6
CONTINUOUS
 62
      32
100
AcDbLine
 10
-137.09223041
 20
-412.31633862
 30
0.0
 11
-137.45002166
 21
-412.67412988
 31
0.0
  0
LINE
  5
1A5
100
AcDbEntity
  8
ZUWAKU
  6
CONTINUOUS
 62
      32
100
AcDbLine
 10
-160.44375
 20
-397.86162988
 30
0.0
 11
-163.81875
 21
-401.23662988
 31
0.0
  0
LINE
  5
1A6
100
AcDbEntity
  8
ZUWAKU
  6
CONTINUOUS
 62
      32
100
AcDbLine
 10
-161.29227814
 20
-397.86162988
 30
0.0
 11
-164.66727814
 21
-401.23662988
 31
0.0
  0
LINE
  5
1A7
100
AcDbEntity
  8
ZUWAKU
  6
CONTINUOUS
 62
      32
100
AcDbLine
 10
-162.14080627
 20
-397.86162988
 30
0.0
 11
-165.51580627
 21
-401.23662988
 31
0.0
  0
LINE
  5
1A8
100
AcDbEntity
  8
ZUWAKU
  6
CONTINUOUS
 62
      32
100
AcDbLine
 10
-162.98933441
 20
-397.86162988
 30
0.0
 11
-165.42042356
 21
-400.29271902
 31
0.0
  0
LINE
  5
1A9
100
AcDbEntity
  8
ZUWAKU
  6
CONTINUOUS
 62
      32
100
AcDbLine
 10
-163.83786255
 20
-397.86162988
 30
0.0
 11
-164.8804511
 21
-398.90421844
 31
0.0
  0
LINE
  5
1AA
100
AcDbEntity
  8
ZUWAKU
  6
CONTINUOUS
 62
      32
100
AcDbLine
 10
-159.59522186
 20
-397.86162988
 30
0.0
 11
-162.97022186
 21
-401.23662988
 31
0.0
  0
LINE
  5
1AB
100
AcDbEntity
  8
ZUWAKU
  6
CONTINUOUS
 62
      32
100
AcDbLine
 10
-158.74669373
 20
-397.86162988
 30
0.0
 11
-162.12169373
 21
-401.23662988
 31
0.0
  0
LINE
  5
1AC
100
AcDbEntity
  8
ZUWAKU
  6
CONTINUOUS
 62
      32
100
AcDbLine
 10
-158.76341721
 20
-398.7268815
 30
0.0
 11
-161.27316559
 21
-401.23662988
 31
0.0
  0
LINE
  5
1AD
100
AcDbEntity
  8
ZUWAKU
  6
CONTINUOUS
 62
      32
100
AcDbLine
 10
-159.18768127
 20
-399.99967371
 30
0.0
 11
-160.42463745
 21
-401.23662988
 31
0.0
  0
LINE
  5
1AE
100
AcDbEntity
  8
ZUWAKU
  6
CONTINUOUS
 62
      32
100
AcDbLine
 10
-159.57610931
 20
-401.23662988
 30
0.0
 11
-159.61194534
 21
-401.27246591
 31
0.0
  0
LINE
  5
1AF
100
AcDbEntity
  8
ZUWAKU
  6
CONTINUOUS
 62
      32
100
AcDbLine
 10
-161.56875
 20
-407.98662988
 30
0.0
 11
-166.25625
 21
-412.67412988
 31
0.0
  0
LINE
  5
1B0
100
AcDbEntity
  8
ZUWAKU
  6
CONTINUOUS
 62
      32
100
AcDbLine
 10
-162.41727814
 20
-407.98662988
 30
0.0
 11
-167.10477814
 21
-412.67412988
 31
0.0
  0
LINE
  5
1B1
100
AcDbEntity
  8
ZUWAKU
  6
CONTINUOUS
 62
      32
100
AcDbLine
 10
-163.26580627
 20
-407.98662988
 30
0.0
 11
-167.95330627
 21
-412.67412988
 31
0.0
  0
LINE
  5
1B2
100
AcDbEntity
  8
ZUWAKU
  6
CONTINUOUS
 62
      32
100
AcDbLine
 10
-164.11433441
 20
-407.98662988
 30
0.0
 11
-168.80183441
 21
-412.67412988
 31
0.0
  0
LINE
  5
1B3
100
AcDbEntity
  8
ZUWAKU
  6
CONTINUOUS
 62
      32
100
AcDbLine
 10
-164.96286255
 20
-407.98662988
 30
0.0
 11
-169.65036255
 21
-412.67412988
 31
0.0
  0
LINE
  5
1B4
100
AcDbEntity
  8
ZUWAKU
  6
CONTINUOUS
 62
      32
100
AcDbLine
 10
-165.81139069
 20
-407.98662988
 30
0.0
 11
-169.58265524
 21
-411.75789443
 31
0.0
  0
LINE
  5
1B5
100
AcDbEntity
  8
ZUWAKU
  6
CONTINUOUS
 62
      32
100
AcDbLine
 10
-166.65991882
 20
-407.98662988
 30
0.0
 11
-169.10535816
 21
-410.43206922
 31
0.0
  0
LINE
  5
1B6
100
AcDbEntity
  8
ZUWAKU
  6
CONTINUOUS
 62
      32
100
AcDbLine
 10
-167.50844696
 20
-407.98662988
 30
0.0
 11
-168.62806108
 21
-409.106244
 31
0.0
  0
LINE
  5
1B7
100
AcDbEntity
  8
ZUWAKU
  6
CONTINUOUS
 62
      32
100
AcDbLine
 10
-160.72022186
 20
-407.98662988
 30
0.0
 11
-165.40772186
 21
-412.67412988
 31
0.0
  0
LINE
  5
1B8
100
AcDbEntity
  8
ZUWAKU
  6
CONTINUOUS
 62
      32
100
AcDbLine
 10
-159.87169373
 20
-407.98662988
 30
0.0
 11
-164.55919373
 21
-412.67412988
 31
0.0
  0
LINE
  5
1B9
100
AcDbEntity
  8
ZUWAKU
  6
CONTINUOUS
 62
      32
100
AcDbLine
 10
-151.71066559
 20
-400.67412988
 30
0.0
 11
-152.95270901
 21
-401.9161733
 31
0.0
  0
LINE
  5
1BA
100
AcDbEntity
  8
ZUWAKU
  6
CONTINUOUS
 62
      32
100
AcDbLine
 10
-158.82133118
 20
-407.78479547
 30
0.0
 11
-163.71066559
 21
-412.67412988
 31
0.0
  0
LINE
  5
1BB
100
AcDbEntity
  8
ZUWAKU
  6
CONTINUOUS
 62
      32
100
AcDbLine
 10
-150.86213745
 20
-400.67412988
 30
0.0
 11
-153.7134668
 21
-403.52545923
 31
0.0
  0
LINE
  5
1BC
100
AcDbEntity
  8
ZUWAKU
  6
CONTINUOUS
 62
      32
100
AcDbLine
 10
-157.1242749
 20
-406.93626733
 30
0.0
 11
-162.86213745
 21
-412.67412988
 31
0.0
  0
LINE
  5
1BD
100
AcDbEntity
  8
ZUWAKU
  6
CONTINUOUS
 62
      32
100
AcDbLine
 10
-150.73797428
 20
-401.39849485
 30
0.0
 11
-162.01360931
 21
-412.67412988
 31
0.0
  0
LINE
  5
1BE
100
AcDbEntity
  8
ZUWAKU
  6
CONTINUOUS
 62
      32
100
AcDbLine
 10
-150.93762796
 20
-402.44667666
 30
0.0
 11
-161.16508118
 21
-412.67412988
 31
0.0
  0
LINE
  5
1BF
100
AcDbEntity
  8
ZUWAKU
  6
CONTINUOUS
 62
      32
100
AcDbLine
 10
-151.13728164
 20
-403.49485848
 30
0.0
 11
-160.31655304
 21
-412.67412988
 31
0.0
  0
LINE
  5
1C0
100
AcDbEntity
  8
ZUWAKU
  6
CONTINUOUS
 62
      32
100
AcDbLine
 10
-151.33693532
 20
-404.5430403
 30
0.0
 11
-159.06244482
 21
-412.2685498
 31
0.0
  0
LINE
  5
1C1
100
AcDbEntity
  8
ZUWAKU
  6
CONTINUOUS
 62
      32
100
AcDbLine
 10
-152.53950486
 20
-406.59413797
 30
0.0
 11
-157.53509417
 21
-411.58972729
 31
0.0
  0
LINE
  5
1C2
100
AcDbEntity
  8
ZUWAKU
  6
CONTINUOUS
 62
      32
100
AcDbLine
 10
-168.43125
 20
-397.86162988
 30
0.0
 11
-181.9078125
 21
-411.33819238
 31
0.0
  0
LINE
  5
1C3
100
AcDbEntity
  8
ZUWAKU
  6
CONTINUOUS
 62
      32
100
AcDbLine
 10
-169.27977814
 20
-397.86162988
 30
0.0
 11
-181.41283775
 21
-409.9946895
 31
0.0
  0
LINE
  5
1C4
100
AcDbEntity
  8
ZUWAKU
  6
CONTINUOUS
 62
      32
100
AcDbLine
 10
-170.12830627
 20
-397.86162988
 30
0.0
 11
-180.91786301
 21
-408.65118661
 31
0.0
  0
LINE
  5
1C5
100
AcDbEntity
  8
ZUWAKU
  6
CONTINUOUS
 62
      32
100
AcDbLine
 10
-170.97683441
 20
-397.86162988
 30
0.0
 11
-180.42288826
 21
-407.30768373
 31
0.0
  0
LINE
  5
1C6
100
AcDbEntity
  8
ZUWAKU
  6
CONTINUOUS
 62
      32
100
AcDbLine
 10
-171.82536255
 20
-397.86162988
 30
0.0
 11
-179.92791351
 21
-405.96418084
 31
0.0
  0
LINE
  5
1C7
100
AcDbEntity
  8
ZUWAKU
  6
CONTINUOUS
 62
      32
100
AcDbLine
 10
-172.67389069
 20
-397.86162988
 30
0.0
 11
-173.2737915
 21
-398.4615307
 31
0.0
  0
LINE
  5
1C8
100
AcDbEntity
  8
ZUWAKU
  6
CONTINUOUS
 62
      32
100
AcDbLine
 10
-176.5824337
 20
-401.7701729
 30
0.0
 11
-180.36139069
 21
-405.54912988
 31
0.0
  0
LINE
  5
1C9
100
AcDbEntity
  8
ZUWAKU
  6
CONTINUOUS
 62
      32
100
AcDbLine
 10
-178.06735794
 20
-402.406569
 30
0.0
 11
-181.20991882
 21
-405.54912988
 31
0.0
  0
LINE
  5
1CA
100
AcDbEntity
  8
ZUWAKU
  6
CONTINUOUS
 62
      32
100
AcDbLine
 10
-179.27998421
 20
-402.77066713
 30
0.0
 11
-182.05844696
 21
-405.54912988
 31
0.0
  0
LINE
  5
1CB
100
AcDbEntity
  8
ZUWAKU
  6
CONTINUOUS
 62
      32
100
AcDbLine
 10
-180.19922302
 20
-402.84137781
 30
0.0
 11
-182.9069751
 21
-405.54912988
 31
0.0
  0
LINE
  5
1CC
100
AcDbEntity
  8
ZUWAKU
  6
CONTINUOUS
 62
      32
100
AcDbLine
 10
-181.11846184
 20
-402.91208848
 30
0.0
 11
-183.75550324
 21
-405.54912988
 31
0.0
  0
LINE
  5
1CD
100
AcDbEntity
  8
ZUWAKU
  6
CONTINUOUS
 62
      32
100
AcDbLine
 10
-181.97903137
 20
-402.92412988
 30
0.0
 11
-184.60403137
 21
-405.54912988
 31
0.0
  0
LINE
  5
1CE
100
AcDbEntity
  8
ZUWAKU
  6
CONTINUOUS
 62
      32
100
AcDbLine
 10
-182.82755951
 20
-402.92412988
 30
0.0
 11
-185.45255951
 21
-405.54912988
 31
0.0
  0
LINE
  5
1CF
100
AcDbEntity
  8
ZUWAKU
  6
CONTINUOUS
 62
      32
100
AcDbLine
 10
-183.67608765
 20
-402.92412988
 30
0.0
 11
-185.48272908
 21
-404.73077132
 31
0.0
  0
LINE
  5
1D0
100
AcDbEntity
  8
ZUWAKU
  6
CONTINUOUS
 62
      32
100
AcDbLine
 10
-184.52461579
 20
-402.92412988
 30
0.0
 11
-185.01132456
 21
-403.41083866
 31
0.0
  0
LINE
  5
1D1
100
AcDbEntity
  8
ZUWAKU
  6
CONTINUOUS
 62
      32
100
AcDbLine
 10
-167.58272186
 20
-397.86162988
 30
0.0
 11
-182.40278725
 21
-412.68169527
 31
0.0
  0
LINE
  5
1D2
100
AcDbEntity
  8
ZUWAKU
  6
CONTINUOUS
 62
      32
100
AcDbLine
 10
-166.73419373
 20
-397.86162988
 30
0.0
 11
-173.25077983
 21
-404.37821598
 31
0.0
  0
LINE
  5
1D3
100
AcDbEntity
  8
ZUWAKU
  6
CONTINUOUS
 62
      32
100
AcDbLine
 10
-173.45343428
 20
-404.58087044
 30
0.0
 11
-181.54669373
 21
-412.67412988
 31
0.0
  0
LINE
  5
1D4
100
AcDbEntity
  8
ZUWAKU
  6
CONTINUOUS
 62
      32
100
AcDbLine
 10
-165.88566559
 20
-397.86162988
 30
0.0
 11
-172.02512807
 21
-404.00109236
 31
0.0
  0
LINE
  5
1D5
100
AcDbEntity
  8
ZUWAKU
  6
CONTINUOUS
 62
      32
100
AcDbLine
 10
-173.89232814
 20
-405.86829244
 30
0.0
 11
-180.69816559
 21
-412.67412988
 31
0.0
  0
LINE
  5
1D6
100
AcDbEntity
  8
ZUWAKU
  6
CONTINUOUS
 62
      32
100
AcDbLine
 10
-166.63959647
 20
-399.4640889
 30
0.0
 11
-170.54867065
 21
-403.37316308
 31
0.0
  0
LINE
  5
1D7
100
AcDbEntity
  8
ZUWAKU
  6
CONTINUOUS
 62
      32
100
AcDbLine
 10
-174.33122201
 20
-407.15571444
 30
0.0
 11
-179.84963745
 21
-412.67412988
 31
0.0
  0
LINE
  5
1D8
100
AcDbEntity
  8
ZUWAKU
  6
CONTINUOUS
 62
      32
100
AcDbLine
 10
-174.77011587
 20
-408.44313644
 30
0.0
 11
-179.00110931
 21
-412.67412988
 31
0.0
  0
LINE
  5
1D9
100
AcDbEntity
  8
ZUWAKU
  6
CONTINUOUS
 62
      32
100
AcDbLine
 10
-175.20900974
 20
-409.73055844
 30
0.0
 11
-178.15258118
 21
-412.67412988
 31
0.0
  0
LINE
  5
1DA
100
AcDbEntity
  8
ZUWAKU
  6
CONTINUOUS
 62
      32
100
AcDbLine
 10
-175.6479036
 20
-411.01798044
 30
0.0
 11
-177.30405304
 21
-412.67412988
 31
0.0
  0
LINE
  5
1DB
100
AcDbEntity
  8
ZUWAKU
  6
CONTINUOUS
 62
      32
100
AcDbLine
 10
-176.08679747
 20
-412.30540245
 30
0.0
 11
-176.4555249
 21
-412.67412988
 31
0.0
  0
LINE
  5
1DC
100
AcDbEntity
  8
ZUWAKU
  6
CONTINUOUS
 62
      32
100
AcDbLine
 10
-190.70625
 20
-397.86162988
 30
0.0
 11
-194.08125
 21
-401.23662988
 31
0.0
  0
LINE
  5
1DD
100
AcDbEntity
  8
ZUWAKU
  6
CONTINUOUS
 62
      32
100
AcDbLine
 10
-191.55477814
 20
-397.86162988
 30
0.0
 11
-194.92977814
 21
-401.23662988
 31
0.0
  0
LINE
  5
1DE
100
AcDbEntity
  8
ZUWAKU
  6
CONTINUOUS
 62
      32
100
AcDbLine
 10
-192.40330627
 20
-397.86162988
 30
0.0
 11
-195.77830627
 21
-401.23662988
 31
0.0
  0
LINE
  5
1DF
100
AcDbEntity
  8
ZUWAKU
  6
CONTINUOUS
 62
      32
100
AcDbLine
 10
-193.25183441
 20
-397.86162988
 30
0.0
 11
-196.62683441
 21
-401.23662988
 31
0.0
  0
LINE
  5
1E0
100
AcDbEntity
  8
ZUWAKU
  6
CONTINUOUS
 62
      32
100
AcDbLine
 10
-194.10036255
 20
-397.86162988
 30
0.0
 11
-197.47536255
 21
-401.23662988
 31
0.0
  0
LINE
  5
1E1
100
AcDbEntity
  8
ZUWAKU
  6
CONTINUOUS
 62
      32
100
AcDbLine
 10
-194.94889069
 20
-397.86162988
 30
0.0
 11
-198.32389069
 21
-401.23662988
 31
0.0
  0
LINE
  5
1E2
100
AcDbEntity
  8
ZUWAKU
  6
CONTINUOUS
 62
      32
100
AcDbLine
 10
-195.79741882
 20
-397.86162988
 30
0.0
 11
-199.17241882
 21
-401.23662988
 31
0.0
  0
LINE
  5
1E3
100
AcDbEntity
  8
ZUWAKU
  6
CONTINUOUS
 62
      32
100
AcDbLine
 10
-196.64594696
 20
-397.86162988
 30
0.0
 11
-199.68952652
 21
-400.90520944
 31
0.0
  0
LINE
  5
1E4
100
AcDbEntity
  8
ZUWAKU
  6
CONTINUOUS
 62
      32
100
AcDbLine
 10
-197.4944751
 20
-397.86162988
 30
0.0
 11
-199.26526245
 21
-399.63241723
 31
0.0
  0
LINE
  5
1E5
100
AcDbEntity
  8
ZUWAKU
  6
CONTINUOUS
 62
      32
100
AcDbLine
 10
-198.34300324
 20
-397.86162988
 30
0.0
 11
-198.84099838
 21
-398.35962503
 31
0.0
  0
LINE
  5
1E6
100
AcDbEntity
  8
ZUWAKU
  6
CONTINUOUS
 62
      32
100
AcDbLine
 10
-189.85772186
 20
-397.86162988
 30
0.0
 11
-193.23272186
 21
-401.23662988
 31
0.0
  0
LINE
  5
1E7
100
AcDbEntity
  8
ZUWAKU
  6
CONTINUOUS
 62
      32
100
AcDbLine
 10
-189.00919373
 20
-397.86162988
 30
0.0
 11
-192.38419373
 21
-401.23662988
 31
0.0
  0
LINE
  5
1E8
100
AcDbEntity
  8
ZUWAKU
  6
CONTINUOUS
 62
      32
100
AcDbLine
 10
-188.16066559
 20
-397.86162988
 30
0.0
 11
-191.53566559
 21
-401.23662988
 31
0.0
  0
LINE
  5
1E9
100
AcDbEntity
  8
ZUWAKU
  6
CONTINUOUS
 62
      32
100
AcDbLine
 10
-187.31213745
 20
-397.86162988
 30
0.0
 11
-190.68713745
 21
-401.23662988
 31
0.0
  0
LINE
  5
1EA
100
AcDbEntity
  8
ZUWAKU
  6
CONTINUOUS
 62
      32
100
AcDbLine
 10
-186.46360931
 20
-397.86162988
 30
0.0
 11
-189.83860931
 21
-401.23662988
 31
0.0
  0
LINE
  5
1EB
100
AcDbEntity
  8
ZUWAKU
  6
CONTINUOUS
 62
      32
100
AcDbLine
 10
-185.61508118
 20
-397.86162988
 30
0.0
 11
-188.99008118
 21
-401.23662988
 31
0.0
  0
LINE
  5
1EC
100
AcDbEntity
  8
ZUWAKU
  6
CONTINUOUS
 62
      32
100
AcDbLine
 10
-185.09797348
 20
-398.19305032
 30
0.0
 11
-188.14155304
 21
-401.23662988
 31
0.0
  0
LINE
  5
1ED
100
AcDbEntity
  8
ZUWAKU
  6
CONTINUOUS
 62
      32
100
AcDbLine
 10
-185.52223755
 20
-399.46584253
 30
0.0
 11
-187.2930249
 21
-401.23662988
 31
0.0
  0
LINE
  5
1EE
100
AcDbEntity
  8
ZUWAKU
  6
CONTINUOUS
 62
      32
100
AcDbLine
 10
-185.94650162
 20
-400.73863474
 30
0.0
 11
-186.44449676
 21
-401.23662988
 31
0.0
  0
LINE
  5
1EF
100
AcDbEntity
  8
ZUWAKU
  6
CONTINUOUS
 62
      32
100
AcDbLine
 10
-190.425
 20
-402.92412988
 30
0.0
 11
-193.05
 21
-405.54912988
 31
0.0
  0
LINE
  5
1F0
100
AcDbEntity
  8
ZUWAKU
  6
CONTINUOUS
 62
      32
100
AcDbLine
 10
-197.3625
 20
-409.86162988
 30
0.0
 11
-200.175
 21
-412.67412988
 31
0.0
  0
LINE
  5
1F1
100
AcDbEntity
  8
ZUWAKU
  6
CONTINUOUS
 62
      32
100
AcDbLine
 10
-191.27352814
 20
-402.92412988
 30
0.0
 11
-193.89852814
 21
-405.54912988
 31
0.0
  0
LINE
  5
1F2
100
AcDbEntity
  8
ZUWAKU
  6
CONTINUOUS
 62
      32
100
AcDbLine
 10
-198.21102814
 20
-409.86162988
 30
0.0
 11
-201.02352814
 21
-412.67412988
 31
0.0
  0
LINE
  5
1F3
100
AcDbEntity
  8
ZUWAKU
  6
CONTINUOUS
 62
      32
100
AcDbLine
 10
-192.12205627
 20
-402.92412988
 30
0.0
 11
-194.74705627
 21
-405.54912988
 31
0.0
  0
LINE
  5
1F4
100
AcDbEntity
  8
ZUWAKU
  6
CONTINUOUS
 62
      32
100
AcDbLine
 10
-199.05955627
 20
-409.86162988
 30
0.0
 11
-201.87205627
 21
-412.67412988
 31
0.0
  0
LINE
  5
1F5
100
AcDbEntity
  8
ZUWAKU
  6
CONTINUOUS
 62
      32
100
AcDbLine
 10
-192.97058441
 20
-402.92412988
 30
0.0
 11
-195.59558441
 21
-405.54912988
 31
0.0
  0
LINE
  5
1F6
100
AcDbEntity
  8
ZUWAKU
  6
CONTINUOUS
 62
      32
100
AcDbLine
 10
-199.90808441
 20
-409.86162988
 30
0.0
 11
-202.72058441
 21
-412.67412988
 31
0.0
  0
LINE
  5
1F7
100
AcDbEntity
  8
ZUWAKU
  6
CONTINUOUS
 62
      32
100
AcDbLine
 10
-193.81911255
 20
-402.92412988
 30
0.0
 11
-196.44411255
 21
-405.54912988
 31
0.0
  0
LINE
  5
1F8
100
AcDbEntity
  8
ZUWAKU
  6
CONTINUOUS
 62
      32
100
AcDbLine
 10
-200.75661255
 20
-409.86162988
 30
0.0
 11
-203.56911255
 21
-412.67412988
 31
0.0
  0
LINE
  5
1F9
100
AcDbEntity
  8
ZUWAKU
  6
CONTINUOUS
 62
      32
100
AcDbLine
 10
-194.66764069
 20
-402.92412988
 30
0.0
 11
-197.29264069
 21
-405.54912988
 31
0.0
  0
LINE
  5
1FA
100
AcDbEntity
  8
ZUWAKU
  6
CONTINUOUS
 62
      32
100
AcDbLine
 10
-201.60514069
 20
-409.86162988
 30
0.0
 11
-203.59657288
 21
-411.85306207
 31
0.0
  0
LINE
  5
1FB
100
AcDbEntity
  8
ZUWAKU
  6
CONTINUOUS
 62
      32
100
AcDbLine
 10
-195.51616882
 20
-402.92412988
 30
0.0
 11
-198.14116882
 21
-405.54912988
 31
0.0
  0
LINE
  5
1FC
100
AcDbEntity
  8
ZUWAKU
  6
CONTINUOUS
 62
      32
100
AcDbLine
 10
-202.45366882
 20
-409.86162988
 30
0.0
 11
-203.03088745
 21
-410.43884851
 31
0.0
  0
LINE
  5
1FD
100
AcDbEntity
  8
ZUWAKU
  6
CONTINUOUS
 62
      32
100
AcDbLine
 10
-196.36469696
 20
-402.92412988
 30
0.0
 11
-198.98969696
 21
-405.54912988
 31
0.0
  0
LINE
  5
1FE
100
AcDbEntity
  8
ZUWAKU
  6
CONTINUOUS
 62
      32
100
AcDbLine
 10
-197.2132251
 20
-402.92412988
 30
0.0
 11
-199.8382251
 21
-405.54912988
 31
0.0
  0
LINE
  5
1FF
100
AcDbEntity
  8
ZUWAKU
  6
CONTINUOUS
 62
      32
100
AcDbLine
 10
-198.06175324
 20
-402.92412988
 30
0.0
 11
-200.68675324
 21
-405.54912988
 31
0.0
  0
LINE
  5
200
100
AcDbEntity
  8
ZUWAKU
  6
CONTINUOUS
 62
      32
100
AcDbLine
 10
-198.91028137
 20
-402.92412988
 30
0.0
 11
-200.68088745
 21
-404.69473596
 31
0.0
  0
LINE
  5
201
100
AcDbEntity
  8
ZUWAKU
  6
CONTINUOUS
 62
      32
100
AcDbLine
 10
-199.75880951
 20
-402.92412988
 30
0.0
 11
-200.3414762
 21
-403.50679656
 31
0.0
  0
LINE
  5
202
100
AcDbEntity
  8
ZUWAKU
  6
CONTINUOUS
 62
      32
100
AcDbLine
 10
-189.57647186
 20
-402.92412988
 30
0.0
 11
-193.38941125
 21
-406.73706927
 31
0.0
  0
LINE
  5
203
100
AcDbEntity
  8
ZUWAKU
  6
CONTINUOUS
 62
      32
100
AcDbLine
 10
-196.26765152
 20
-409.61530954
 30
0.0
 11
-199.32647186
 21
-412.67412988
 31
0.0
  0
LINE
  5
204
100
AcDbEntity
  8
ZUWAKU
  6
CONTINUOUS
 62
      32
100
AcDbLine
 10
-188.72794373
 20
-402.92412988
 30
0.0
 11
-198.47794373
 21
-412.67412988
 31
0.0
  0
LINE
  5
205
100
AcDbEntity
  8
ZUWAKU
  6
CONTINUOUS
 62
      32
100
AcDbLine
 10
-187.87941559
 20
-402.92412988
 30
0.0
 11
-197.62941559
 21
-412.67412988
 31
0.0
  0
LINE
  5
206
100
AcDbEntity
  8
ZUWAKU
  6
CONTINUOUS
 62
      32
100
AcDbLine
 10
-187.03088745
 20
-402.92412988
 30
0.0
 11
-196.78088745
 21
-412.67412988
 31
0.0
  0
LINE
  5
207
100
AcDbEntity
  8
ZUWAKU
  6
CONTINUOUS
 62
      32
100
AcDbLine
 10
-186.95650896
 20
-403.69827953
 30
0.0
 11
-195.93235931
 21
-412.67412988
 31
0.0
  0
LINE
  5
208
100
AcDbEntity
  8
ZUWAKU
  6
CONTINUOUS
 62
      32
100
AcDbLine
 10
-187.44138219
 20
-405.03168089
 30
0.0
 11
-195.08383118
 21
-412.67412988
 31
0.0
  0
LINE
  5
209
100
AcDbEntity
  8
ZUWAKU
  6
CONTINUOUS
 62
      32
100
AcDbLine
 10
-187.92625541
 20
-406.36508225
 30
0.0
 11
-194.19290405
 21
-412.63173089
 31
0.0
  0
LINE
  5
20A
100
AcDbEntity
  8
ZUWAKU
  6
CONTINUOUS
 62
      32
100
AcDbLine
 10
-188.41112863
 20
-407.69848361
 30
0.0
 11
-193.0615332
 21
-412.34888818
 31
0.0
  0
LINE
  5
20B
100
AcDbEntity
  8
ZUWAKU
  6
CONTINUOUS
 62
      32
100
AcDbLine
 10
-188.89600185
 20
-409.03188497
 30
0.0
 11
-191.46399353
 21
-411.59987664
 31
0.0
  0
LINE
  5
20C
100
AcDbEntity
  8
ZUWAKU
  6
CONTINUOUS
 62
      32
100
AcDbLine
 10
-200.9625
 20
-397.86162988
 30
0.0
 11
-208.73203125
 21
-405.63116113
 31
0.0
  0
LINE
  5
20D
100
AcDbEntity
  8
ZUWAKU
  6
CONTINUOUS
 62
      32
100
AcDbLine
 10
-212.90892857
 20
-409.80805845
 30
0.0
 11
-215.775
 21
-412.67412988
 31
0.0
  0
LINE
  5
20E
100
AcDbEntity
  8
ZUWAKU
  6
CONTINUOUS
 62
      32
100
AcDbLine
 10
-201.81102814
 20
-397.86162988
 30
0.0
 11
-208.22821767
 21
-404.27881941
 31
0.0
  0
LINE
  5
20F
100
AcDbEntity
  8
ZUWAKU
  6
CONTINUOUS
 62
      32
100
AcDbLine
 10
-213.81102814
 20
-409.86162988
 30
0.0
 11
-215.63198593
 21
-411.68258768
 31
0.0
  0
LINE
  5
210
100
AcDbEntity
  8
ZUWAKU
  6
CONTINUOUS
 62
      32
100
AcDbLine
 10
-202.65955627
 20
-397.86162988
 30
0.0
 11
-207.72440409
 21
-402.92647769
 31
0.0
  0
LINE
  5
211
100
AcDbEntity
  8
ZUWAKU
  6
CONTINUOUS
 62
      32
100
AcDbLine
 10
-214.65955627
 20
-409.86162988
 30
0.0
 11
-215.20772186
 21
-410.40979547
 31
0.0
  0
LINE
  5
212
100
AcDbEntity
  8
ZUWAKU
  6
CONTINUOUS
 62
      32
100
AcDbLine
 10
-203.50808441
 20
-397.86162988
 30
0.0
 11
-207.22059051
 21
-401.57413597
 31
0.0
  0
LINE
  5
213
100
AcDbEntity
  8
ZUWAKU
  6
CONTINUOUS
 62
      32
100
AcDbLine
 10
-204.35661255
 20
-397.86162988
 30
0.0
 11
-206.71677692
 21
-400.22179426
 31
0.0
  0
LINE
  5
214
100
AcDbEntity
  8
ZUWAKU
  6
CONTINUOUS
 62
      32
100
AcDbLine
 10
-205.20514069
 20
-397.86162988
 30
0.0
 11
-206.21296334
 21
-398.86945254
 31
0.0
  0
LINE
  5
215
100
AcDbEntity
  8
ZUWAKU
  6
CONTINUOUS
 62
      32
100
AcDbLine
 10
-201.11398879
 20
-398.86164681
 30
0.0
 11
-209.23584483
 21
-406.98350285
 31
0.0
  0
LINE
  5
216
100
AcDbEntity
  8
ZUWAKU
  6
CONTINUOUS
 62
      32
100
AcDbLine
 10
-211.93918213
 20
-409.68684015
 30
0.0
 11
-214.92647186
 21
-412.67412988
 31
0.0
  0
LINE
  5
217
100
AcDbEntity
  8
ZUWAKU
  6
CONTINUOUS
 62
      32
100
AcDbLine
 10
-201.54913142
 20
-400.14531758
 30
0.0
 11
-210.31838745
 21
-408.91457361
 31
0.0
  0
LINE
  5
218
100
AcDbEntity
  8
ZUWAKU
  6
CONTINUOUS
 62
      32
100
AcDbLine
 10
-210.35342712
 20
-408.94961328
 30
0.0
 11
-214.07794373
 21
-412.67412988
 31
0.0
  0
LINE
  5
219
100
AcDbEntity
  8
ZUWAKU
  6
CONTINUOUS
 62
      32
100
AcDbLine
 10
-201.98427406
 20
-401.42898835
 30
0.0
 11
-213.22941559
 21
-412.67412988
 31
0.0
  0
LINE
  5
21A
100
AcDbEntity
  8
ZUWAKU
  6
CONTINUOUS
 62
      32
100
AcDbLine
 10
-202.41941669
 20
-402.71265912
 30
0.0
 11
-212.38088745
 21
-412.67412988
 31
0.0
  0
LINE
  5
21B
100
AcDbEntity
  8
ZUWAKU
  6
CONTINUOUS
 62
      32
100
AcDbLine
 10
-202.85455933
 20
-403.9963299
 30
0.0
 11
-211.53235931
 21
-412.67412988
 31
0.0
  0
LINE
  5
21C
100
AcDbEntity
  8
ZUWAKU
  6
CONTINUOUS
 62
      32
100
AcDbLine
 10
-203.28970196
 20
-405.28000067
 30
0.0
 11
-210.61814575
 21
-412.60844446
 31
0.0
  0
LINE
  5
21D
100
AcDbEntity
  8
ZUWAKU
  6
CONTINUOUS
 62
      32
100
AcDbLine
 10
-203.7248446
 20
-406.56367144
 30
0.0
 11
-209.67533671
 21
-412.51416355
 31
0.0
  0
LINE
  5
21E
100
AcDbEntity
  8
ZUWAKU
  6
CONTINUOUS
 62
      32
100
AcDbLine
 10
-204.15998723
 20
-407.84734221
 30
0.0
 11
-208.3987915
 21
-412.08614648
 31
0.0
  0
LINE
  5
21F
100
AcDbEntity
  8
ZUWAKU
  6
CONTINUOUS
 62
      32
100
AcDbLine
 10
-209.98125
 20
-398.91162988
 30
0.0
 11
-216.91512097
 21
-405.84550085
 31
0.0
  0
LINE
  5
220
100
AcDbEntity
  8
ZUWAKU
  6
CONTINUOUS
 62
      32
100
AcDbLine
 10
-209.77977814
 20
-397.86162988
 30
0.0
 11
-216.44979909
 21
-404.53165083
 31
0.0
  0
LINE
  5
221
100
AcDbEntity
  8
ZUWAKU
  6
CONTINUOUS
 62
      32
100
AcDbLine
 10
-210.62830627
 20
-397.86162988
 30
0.0
 11
-215.9844772
 21
-403.21780081
 31
0.0
  0
LINE
  5
222
100
AcDbEntity
  8
ZUWAKU
  6
CONTINUOUS
 62
      32
100
AcDbLine
 10
-211.47683441
 20
-397.86162988
 30
0.0
 11
-215.51915532
 21
-401.90395079
 31
0.0
  0
LINE
  5
223
100
AcDbEntity
  8
ZUWAKU
  6
CONTINUOUS
 62
      32
100
AcDbLine
 10
-212.32536255
 20
-397.86162988
 30
0.0
 11
-215.05383344
 21
-400.59010077
 31
0.0
  0
LINE
  5
224
100
AcDbEntity
  8
ZUWAKU
  6
CONTINUOUS
 62
      32
100
AcDbLine
 10
-213.17389069
 20
-397.86162988
 30
0.0
 11
-214.58851156
 21
-399.27625075
 31
0.0
  0
LINE
  5
225
100
AcDbEntity
  8
ZUWAKU
  6
CONTINUOUS
 62
      32
100
AcDbLine
 10
-214.02241882
 20
-397.86162988
 30
0.0
 11
-214.12318968
 21
-397.96240073
 31
0.0
  0
LINE
  5
226
100
AcDbEntity
  8
ZUWAKU
  6
CONTINUOUS
 62
      32
100
AcDbLine
 10
-210.49036688
 20
-400.2692749
 30
0.0
 11
-217.08272186
 21
-406.86162988
 31
0.0
  0
LINE
  5
227
100
AcDbEntity
  8
ZUWAKU
  6
CONTINUOUS
 62
      32
100
AcDbLine
 10
-210.99948376
 20
-401.62691992
 30
0.0
 11
-216.23419373
 21
-406.86162988
 31
0.0
  0
LINE
  5
228
100
AcDbEntity
  8
ZUWAKU
  6
CONTINUOUS
 62
      32
100
AcDbLine
 10
-211.50860065
 20
-402.98456494
 30
0.0
 11
-215.38566559
 21
-406.86162988
 31
0.0
  0
LINE
  5
229
100
AcDbEntity
  8
ZUWAKU
  6
CONTINUOUS
 62
      32
100
AcDbLine
 10
-212.01771753
 20
-404.34220996
 30
0.0
 11
-214.53713745
 21
-406.86162988
 31
0.0
  0
LINE
  5
22A
100
AcDbEntity
  8
ZUWAKU
  6
CONTINUOUS
 62
      32
100
AcDbLine
 10
-212.52683441
 20
-405.69985498
 30
0.0
 11
-213.68860931
 21
-406.86162988
 31
0.0
  0
LINE
  5
22B
100
AcDbEntity
  8
ZUWAKU
  6
CONTINUOUS
 62
      32
100
AcDbLine
 10
-242.25
 20
420.57587012
 30
0.0
 11
-244.79263043
 21
425.07437012
 31
0.0
  0
LINE
  5
22C
100
AcDbEntity
  8
ZUWAKU
  6
CONTINUOUS
 62
      32
100
AcDbLine
 10
-254.92666748
 20
429.01337012
 30
0.0
 11
-254.61416748
 21
429.95087012
 31
0.0
  0
LINE
  5
22D
100
AcDbEntity
  8
ZUWAKU
  6
CONTINUOUS
 62
      32
100
AcDbLine
 10
-231.03089307
 20
421.68542358
 30
0.0
 11
-231.372
 21
421.51487012
 31
0.0
  0
LINE
  5
22E
100
AcDbEntity
  8
ZUWAKU
  6
CONTINUOUS
 62
      32
100
AcDbLine
 10
-230.8125
 20
420.57587012
 30
0.0
 11
-229.2375
 21
422.15087012
 31
0.0
  0
LINE
  5
22F
100
AcDbEntity
  8
ZUWAKU
  6
CONTINUOUS
 62
      32
100
AcDbLine
 10
-229.5
 20
420.57587012
 30
0.0
 11
-229.2375
 21
422.15087012
 31
0.0
  0
LINE
  5
230
100
AcDbEntity
  8
ZUWAKU
  6
CONTINUOUS
 62
      32
100
AcDbLine
 10
-222.5625
 20
421.88837012
 30
0.0
 11
-222.5625
 21
421.51487012
 31
0.0
  0
LINE
  5
231
100
AcDbEntity
  8
ZUWAKU
  6
CONTINUOUS
 62
      32
100
AcDbLine
 10
-214.26743836
 20
420.57587012
 30
0.0
 11
-217.6875
 21
420.57587012
 31
0.0
  0
LINE
  5
232
100
AcDbEntity
  8
ZUWAKU
  6
CONTINUOUS
 62
      32
100
AcDbLine
 10
-219.53540257
 20
421.91208037
 30
0.0
 11
-221.0625
 21
420.57587012
 31
0.0
  0
LINE
  5
233
100
AcDbEntity
  8
ZUWAKU
  6
CONTINUOUS
 62
      32
100
AcDbLine
 10
-208.70025599
 20
420.57587012
 30
0.0
 11
-212.625
 21
420.57587012
 31
0.0
  0
LINE
  5
234
100
AcDbEntity
  8
ZUWAKU
  6
CONTINUOUS
 62
      32
100
AcDbLine
 10
-247.804125
 20
421.51487012
 30
0.0
 11
-244.9921875
 21
429.01337012
 31
0.0
  0
LINE
  5
235
100
AcDbEntity
  8
ZUWAKU
  6
CONTINUOUS
 62
      32
100
AcDbLine
 10
-245.11433506
 20
426.01337012
 30
0.0
 11
-240.72546646
 21
426.01337012
 31
0.0
  0
LINE
  5
236
100
AcDbEntity
  8
ZUWAKU
  6
CONTINUOUS
 62
      32
100
AcDbLine
 10
-216.86931818
 20
422.82587012
 30
0.0
 11
-217.5
 21
422.82587012
 31
0.0
  0
LINE
  5
237
100
AcDbEntity
  8
ZUWAKU
  6
CONTINUOUS
 62
      32
100
AcDbLine
 10
-217.5
 20
422.82587012
 30
0.0
 11
-218.11984233
 21
422.82587012
 31
0.0
  0
LINE
  5
238
100
AcDbEntity
  8
ZUWAKU
  6
CONTINUOUS
 62
      32
100
AcDbLine
 10
-223.60423441
 20
420.57587012
 30
0.0
 11
-221.0625
 21
420.57587012
 31
0.0
  0
CIRCLE
  5
239
100
AcDbEntity
  8
ZUWAKU
  6
CONTINUOUS
 62
      32
100
AcDbCircle
 10
-227.72422572
 20
425.82587012
 30
0.0
 40
0.56797572
  0
LINE
  5
23A
100
AcDbEntity
  8
ZUWAKU
  6
CONTINUOUS
 62
      32
100
AcDbLine
 10
-247.1015625
 20
429.01337012
 30
0.0
 11
-244.9921875
 21
429.01337012
 31
0.0
  0
LINE
  5
23B
100
AcDbEntity
  8
ZUWAKU
  6
CONTINUOUS
 62
      32
100
AcDbLine
 10
-243.98933506
 20
429.01337012
 30
0.0
 11
-240.72546646
 21
429.01337012
 31
0.0
  0
LINE
  5
23C
100
AcDbEntity
  8
ZUWAKU
  6
CONTINUOUS
 62
      32
100
AcDbLine
 10
-250.3125
 20
420.57587012
 30
0.0
 11
-249.960375
 21
421.51487012
 31
0.0
  0
LINE
  5
23D
100
AcDbEntity
  8
ZUWAKU
  6
CONTINUOUS
 62
      32
100
AcDbLine
 10
-247.1015625
 20
429.01337012
 30
0.0
 11
-246.75
 21
429.95087012
 31
0.0
  0
LINE
  5
23E
100
AcDbEntity
  8
ZUWAKU
  6
CONTINUOUS
 62
      32
100
AcDbLine
 10
-247.57076541
 20
429.01337012
 30
0.0
 11
-247.21920291
 21
429.95087012
 31
0.0
  0
LINE
  5
23F
100
AcDbEntity
  8
ZUWAKU
  6
CONTINUOUS
 62
      32
100
AcDbLine
 10
-240.72546646
 20
429.95087012
 30
0.0
 11
-246.75
 21
429.95087012
 31
0.0
  0
LINE
  5
240
100
AcDbEntity
  8
ZUWAKU
  6
CONTINUOUS
 62
      32
100
AcDbLine
 10
-247.21920291
 20
429.95087012
 30
0.0
 11
-248.10993105
 21
429.95087012
 31
0.0
  0
LINE
  5
241
100
AcDbEntity
  8
ZUWAKU
  6
CONTINUOUS
 62
      32
100
AcDbLine
 10
-248.46149355
 20
429.01337012
 30
0.0
 11
-247.57076541
 21
429.01337012
 31
0.0
  0
LINE
  5
242
100
AcDbEntity
  8
ZUWAKU
  6
CONTINUOUS
 62
      32
100
AcDbLine
 10
-248.80305088
 20
429.01337012
 30
0.0
 11
-248.45148838
 21
429.95087012
 31
0.0
  0
LINE
  5
243
100
AcDbEntity
  8
ZUWAKU
  6
CONTINUOUS
 62
      32
100
AcDbLine
 10
-248.45148838
 20
429.95087012
 30
0.0
 11
-249.19812705
 21
429.95087012
 31
0.0
  0
LINE
  5
244
100
AcDbEntity
  8
ZUWAKU
  6
CONTINUOUS
 62
      32
100
AcDbLine
 10
-249.54968955
 20
429.01337012
 30
0.0
 11
-248.80305088
 21
429.01337012
 31
0.0
  0
LINE
  5
245
100
AcDbEntity
  8
ZUWAKU
  6
CONTINUOUS
 62
      32
100
AcDbLine
 10
-249.54968955
 20
429.01337012
 30
0.0
 11
-249.19812705
 21
429.95087012
 31
0.0
  0
LINE
  5
246
100
AcDbEntity
  8
ZUWAKU
  6
CONTINUOUS
 62
      32
100
AcDbLine
 10
-249.83558754
 20
429.95087012
 30
0.0
 11
-250.5672369
 21
429.95087012
 31
0.0
  0
LINE
  5
247
100
AcDbEntity
  8
ZUWAKU
  6
CONTINUOUS
 62
      32
100
AcDbLine
 10
-250.9187994
 20
429.01337012
 30
0.0
 11
-250.18715004
 21
429.01337012
 31
0.0
  0
LINE
  5
248
100
AcDbEntity
  8
ZUWAKU
  6
CONTINUOUS
 62
      32
100
AcDbLine
 10
-250.9187994
 20
429.01337012
 30
0.0
 11
-250.5672369
 21
429.95087012
 31
0.0
  0
LINE
  5
249
100
AcDbEntity
  8
ZUWAKU
  6
CONTINUOUS
 62
      32
100
AcDbLine
 10
-248.46149355
 20
429.01337012
 30
0.0
 11
-248.10993105
 21
429.95087012
 31
0.0
  0
LINE
  5
24A
100
AcDbEntity
  8
ZUWAKU
  6
CONTINUOUS
 62
      32
100
AcDbLine
 10
-250.18715004
 20
429.01337012
 30
0.0
 11
-249.83558754
 21
429.95087012
 31
0.0
  0
LINE
  5
24B
100
AcDbEntity
  8
ZUWAKU
  6
CONTINUOUS
 62
      32
100
AcDbLine
 10
-251.46679355
 20
429.01337012
 30
0.0
 11
-251.11523105
 21
429.95087012
 31
0.0
  0
LINE
  5
24C
100
AcDbEntity
  8
ZUWAKU
  6
CONTINUOUS
 62
      32
100
AcDbLine
 10
-251.11523105
 20
429.95087012
 30
0.0
 11
-251.79171194
 21
429.95087012
 31
0.0
  0
LINE
  5
24D
100
AcDbEntity
  8
ZUWAKU
  6
CONTINUOUS
 62
      32
100
AcDbLine
 10
-252.14327444
 20
429.01337012
 30
0.0
 11
-251.46679355
 21
429.01337012
 31
0.0
  0
LINE
  5
24E
100
AcDbEntity
  8
ZUWAKU
  6
CONTINUOUS
 62
      32
100
AcDbLine
 10
-252.14327444
 20
429.01337012
 30
0.0
 11
-251.79171194
 21
429.95087012
 31
0.0
  0
LINE
  5
24F
100
AcDbEntity
  8
ZUWAKU
  6
CONTINUOUS
 62
      32
100
AcDbLine
 10
-252.7159276
 20
429.01337012
 30
0.0
 11
-252.3643651
 21
429.95087012
 31
0.0
  0
LINE
  5
250
100
AcDbEntity
  8
ZUWAKU
  6
CONTINUOUS
 62
      32
100
AcDbLine
 10
-252.3643651
 20
429.95087012
 30
0.0
 11
-252.9659276
 21
429.95087012
 31
0.0
  0
LINE
  5
251
100
AcDbEntity
  8
ZUWAKU
  6
CONTINUOUS
 62
      32
100
AcDbLine
 10
-253.2784276
 20
429.01337012
 30
0.0
 11
-252.7159276
 21
429.01337012
 31
0.0
  0
LINE
  5
252
100
AcDbEntity
  8
ZUWAKU
  6
CONTINUOUS
 62
      32
100
AcDbLine
 10
-253.2784276
 20
429.01337012
 30
0.0
 11
-252.9659276
 21
429.95087012
 31
0.0
  0
LINE
  5
253
100
AcDbEntity
  8
ZUWAKU
  6
CONTINUOUS
 62
      32
100
AcDbLine
 10
-253.87744516
 20
429.01337012
 30
0.0
 11
-253.56494516
 21
429.95087012
 31
0.0
  0
LINE
  5
254
100
AcDbEntity
  8
ZUWAKU
  6
CONTINUOUS
 62
      32
100
AcDbLine
 10
-254.36416748
 20
429.01337012
 30
0.0
 11
-254.05166748
 21
429.95087012
 31
0.0
  0
LINE
  5
255
100
AcDbEntity
  8
ZUWAKU
  6
CONTINUOUS
 62
      32
100
AcDbLine
 10
-255.27041748
 20
429.01337012
 30
0.0
 11
-254.95791748
 21
429.95087012
 31
0.0
  0
LINE
  5
256
100
AcDbEntity
  8
ZUWAKU
  6
CONTINUOUS
 62
      32
100
AcDbLine
 10
-255.86416748
 20
429.01337012
 30
0.0
 11
-255.55166748
 21
429.95087012
 31
0.0
  0
LINE
  5
257
100
AcDbEntity
  8
ZUWAKU
  6
CONTINUOUS
 62
      32
100
AcDbLine
 10
-256.02041748
 20
429.01337012
 30
0.0
 11
-255.70791748
 21
429.95087012
 31
0.0
  0
LINE
  5
258
100
AcDbEntity
  8
ZUWAKU
  6
CONTINUOUS
 62
      32
100
AcDbLine
 10
-253.56494516
 20
429.95087012
 30
0.0
 11
-254.05166748
 21
429.95087012
 31
0.0
  0
LINE
  5
259
100
AcDbEntity
  8
ZUWAKU
  6
CONTINUOUS
 62
      32
100
AcDbLine
 10
-254.36416748
 20
429.01337012
 30
0.0
 11
-253.87744516
 21
429.01337012
 31
0.0
  0
LINE
  5
25A
100
AcDbEntity
  8
ZUWAKU
  6
CONTINUOUS
 62
      32
100
AcDbLine
 10
-254.61416748
 20
429.95087012
 30
0.0
 11
-254.95791748
 21
429.95087012
 31
0.0
  0
LINE
  5
25B
100
AcDbEntity
  8
ZUWAKU
  6
CONTINUOUS
 62
      32
100
AcDbLine
 10
-255.55166748
 20
429.95087012
 30
0.0
 11
-255.70791748
 21
429.95087012
 31
0.0
  0
LINE
  5
25C
100
AcDbEntity
  8
ZUWAKU
  6
CONTINUOUS
 62
      32
100
AcDbLine
 10
-255.27041748
 20
429.01337012
 30
0.0
 11
-254.92666748
 21
429.01337012
 31
0.0
  0
LINE
  5
25D
100
AcDbEntity
  8
ZUWAKU
  6
CONTINUOUS
 62
      32
100
AcDbLine
 10
-255.86416748
 20
429.01337012
 30
0.0
 11
-256.02041748
 21
429.01337012
 31
0.0
  0
ARC
  5
25E
100
AcDbEntity
  8
ZUWAKU
  6
CONTINUOUS
 62
      32
100
AcDbCircle
 10
-240.72546646
 20
427.51337012
 30
0.0
 40
1.5
100
AcDbArc
 50
270.0
 51
450.0
  0
LINE
  5
25F
100
AcDbEntity
  8
ZUWAKU
  6
CONTINUOUS
 62
      32
100
AcDbLine
 10
-249.960375
 20
421.51487012
 30
0.0
 11
-247.804125
 21
421.51487012
 31
0.0
  0
LINE
  5
260
100
AcDbEntity
  8
ZUWAKU
  6
CONTINUOUS
 62
      32
100
AcDbLine
 10
-250.3125
 20
420.57587012
 30
0.0
 11
-247.15339756
 21
420.57587012
 31
0.0
  0
LINE
  5
261
100
AcDbEntity
  8
ZUWAKU
  6
CONTINUOUS
 62
      32
100
AcDbLine
 10
-247.15339756
 20
420.57587012
 30
0.0
 11
-245.46646006
 21
425.07437012
 31
0.0
  0
LINE
  5
262
100
AcDbEntity
  8
ZUWAKU
  6
CONTINUOUS
 62
      32
100
AcDbLine
 10
-245.11433506
 20
426.01337012
 30
0.0
 11
-243.98933506
 21
429.01337012
 31
0.0
  0
LINE
  5
263
100
AcDbEntity
  8
ZUWAKU
  6
CONTINUOUS
 62
      32
100
AcDbLine
 10
-245.46646006
 20
425.07437012
 30
0.0
 11
-244.79263043
 21
425.07437012
 31
0.0
  0
LINE
  5
264
100
AcDbEntity
  8
ZUWAKU
  6
CONTINUOUS
 62
      32
100
AcDbLine
 10
-243.71401789
 20
425.07437012
 30
0.0
 11
-240.72546646
 21
425.07437012
 31
0.0
  0
LINE
  5
265
100
AcDbEntity
  8
ZUWAKU
  6
CONTINUOUS
 62
      32
100
AcDbLine
 10
-241.70212658
 20
421.51487012
 30
0.0
 11
-243.71401789
 21
425.07437012
 31
0.0
  0
ARC
  5
266
100
AcDbEntity
  8
ZUWAKU
  6
CONTINUOUS
 62
      32
100
AcDbCircle
 10
-240.72546646
 20
427.51337012
 30
0.0
 40
2.4375
100
AcDbArc
 50
270.0
 51
450.0
  0
ELLIPSE
  5
267
100
AcDbEntity
  8
ZUWAKU
  6
CONTINUOUS
 62
      32
100
AcDbEllipse
 10
-237.61984669
 20
422.68954985
 30
0.0
 11
-0.2469559898247837
 21
-0.4527526480119946
 31
0.0
210
0.0
220
0.0
230
1.0
 40
0.75209874
 41
0.0
 42
6.2831853071796004
  0
LINE
  5
268
100
AcDbEntity
  8
ZUWAKU
  6
CONTINUOUS
 62
      32
100
AcDbLine
 10
-242.25
 20
420.57587012
 30
0.0
 11
-238.875
 21
420.57587012
 31
0.0
  0
ELLIPSE
  5
269
100
AcDbEntity
  8
ZUWAKU
  6
CONTINUOUS
 62
      32
100
AcDbEllipse
 10
-237.61984669
 20
422.68954985
 30
0.0
 11
-0.7889967726031273
 21
-1.4464940831052218
 31
0.0
210
0.0
220
0.0
230
1.0
 40
0.75209874
 41
1.163380251178052
 42
5.8601607076995661
  0
LINE
  5
26A
100
AcDbEntity
  8
ZUWAKU
  6
CONTINUOUS
 62
      32
100
AcDbLine
 10
-241.70212658
 20
421.51487012
 30
0.0
 11
-238.9313221
 21
421.51487012
 31
0.0
  0
ARC
  5
26B
100
AcDbEntity
  8
ZUWAKU
  6
CONTINUOUS
 62
      32
100
AcDbCircle
 10
-239.21063822
 20
423.62077271
 30
0.0
 40
2.12434536
100
AcDbArc
 50
277.55531967
 51
282.61004677
  0
ARC
  5
26C
100
AcDbEntity
  8
ZUWAKU
  6
CONTINUOUS
 62
      32
100
AcDbCircle
 10
-239.21063822
 20
423.62077271
 30
0.0
 40
3.06334536
100
AcDbArc
 50
276.29029269
 51
293.79815684
  0
ARC
  5
26D
100
AcDbEntity
  8
ZUWAKU
  6
CONTINUOUS
 62
      32
100
AcDbCircle
 10
-239.21063822
 20
423.62077271
 30
0.0
 40
3.06334536
100
AcDbArc
 50
316.57125834
 51
318.01426788
  0
ARC
  5
26E
100
AcDbEntity
  8
ZUWAKU
  6
CONTINUOUS
 62
      32
100
AcDbCircle
 10
-237.01039409
 20
422.61183208
 30
0.0
 40
2.03660652
100
AcDbArc
 50
209.3318227
 51
211.50126528
  0
ARC
  5
26F
100
AcDbEntity
  8
ZUWAKU
  6
CONTINUOUS
 62
      32
100
AcDbCircle
 10
-237.01039409
 20
422.61183208
 30
0.0
 40
2.03660652
100
AcDbArc
 50
241.74457829
 51
270.0
  0
ELLIPSE
  5
270
100
AcDbEntity
  8
ZUWAKU
  6
CONTINUOUS
 62
      32
100
AcDbEllipse
 10
-232.82485678
 20
423.95040382
 30
0.0
 11
-0.4111291384866433
 21
-0.8479538481288387
 31
0.0
210
0.0
220
0.0
230
1.0
 40
0.44219156
 41
0.0
 42
6.2831853071796004
  0
ARC
  5
271
100
AcDbEntity
  8
ZUWAKU
  6
CONTINUOUS
 62
      32
100
AcDbCircle
 10
-231.96016712
 20
424.19852531
 30
0.0
 40
3.64232051
100
AcDbArc
 50
241.28311564
 51
264.0434522
  0
LINE
  5
272
100
AcDbEntity
  8
ZUWAKU
  6
CONTINUOUS
 62
      32
100
AcDbLine
 10
-237.01039409
 20
420.57587012
 30
0.0
 11
-234.89735329
 21
420.57587012
 31
0.0
  0
ARC
  5
273
100
AcDbEntity
  8
ZUWAKU
  6
CONTINUOUS
 62
      32
100
AcDbCircle
 10
-231.96016712
 20
424.19852531
 30
0.0
 40
2.70332051
100
AcDbArc
 50
251.08708107
 51
263.08482824
  0
ARC
  5
274
100
AcDbEntity
  8
ZUWAKU
  6
CONTINUOUS
 62
      32
100
AcDbCircle
 10
-235.69439623
 20
424.64414454
 30
0.0
 40
3.20661627
100
AcDbArc
 50
282.60950936
 51
291.93126974
  0
ELLIPSE
  5
275
100
AcDbEntity
  8
ZUWAKU
  6
CONTINUOUS
 62
      32
100
AcDbEllipse
 10
-232.82485678
 20
423.95040382
 30
0.0
 11
-1.3135116245580321
 21
-2.7091177256514811
 31
0.0
210
0.0
220
0.0
230
1.0
 40
0.44219156
 41
1.1621663820477923
 42
5.8906096214263046
  0
LINE
  5
276
100
AcDbEntity
  8
ZUWAKU
  6
CONTINUOUS
 62
      32
100
AcDbLine
 10
-236.98594519
 20
421.51487012
 30
0.0
 11
-234.99437519
 21
421.51487012
 31
0.0
  0
ARC
  5
277
100
AcDbEntity
  8
ZUWAKU
  6
CONTINUOUS
 62
      32
100
AcDbCircle
 10
-235.69439623
 20
424.64414454
 30
0.0
 40
4.14561627
100
AcDbArc
 50
313.58286141
 51
326.24939265
  0
ARC
  5
278
100
AcDbEntity
  8
ZUWAKU
  6
CONTINUOUS
 62
      32
100
AcDbCircle
 10
-235.69439623
 20
424.64414454
 30
0.0
 40
4.14561627
100
AcDbArc
 50
281.08479974
 51
298.5950739
  0
LINE
  5
279
100
AcDbEntity
  8
ZUWAKU
  6
CONTINUOUS
 62
      32
100
AcDbLine
 10
-232.33814603
 20
420.57587012
 30
0.0
 11
-230.8125
 21
420.57587012
 31
0.0
  0
LINE
  5
27A
100
AcDbEntity
  8
ZUWAKU
  6
CONTINUOUS
 62
      32
100
AcDbLine
 10
-231.03089307
 20
421.68542358
 30
0.0
 11
-228.47945258
 21
424.23686407
 31
0.0
  0
LINE
  5
27B
100
AcDbEntity
  8
ZUWAKU
  6
CONTINUOUS
 62
      32
100
AcDbLine
 10
-228.39154766
 20
421.51487012
 30
0.0
 11
-227.97900442
 21
423.99012959
 31
0.0
  0
LINE
  5
27C
100
AcDbEntity
  8
ZUWAKU
  6
CONTINUOUS
 62
      32
100
AcDbLine
 10
-232.28564613
 20
421.51487012
 30
0.0
 11
-231.372
 21
421.51487012
 31
0.0
  0
ARC
  5
27D
100
AcDbEntity
  8
ZUWAKU
  6
CONTINUOUS
 62
      32
100
AcDbCircle
 10
-228.26639474
 20
424.03802798
 30
0.0
 40
0.29142656
100
AcDbArc
 50
350.53767779
 51
496.97750576
  0
ELLIPSE
  5
27E
100
AcDbEntity
  8
ZUWAKU
  6
CONTINUOUS
 62
      32
100
AcDbEllipse
 10
-224.28794948
 20
422.33981411
 30
0.0
 11
-0.2735448899302071
 21
-0.460707183040256
 31
0.0
210
0.0
220
0.0
230
1.0
 40
0.58819821
 41
0.0
 42
6.2831853071796004
  0
LINE
  5
27F
100
AcDbEntity
  8
ZUWAKU
  6
CONTINUOUS
 62
      32
100
AcDbLine
 10
-227.40139776
 20
421.51487012
 30
0.0
 11
-225.83857798
 21
422.26551584
 31
0.0
  0
LINE
  5
280
100
AcDbEntity
  8
ZUWAKU
  6
CONTINUOUS
 62
      32
100
AcDbLine
 10
-227.25
 20
420.57587012
 30
0.0
 11
-225.94155176
 21
421.15565982
 31
0.0
  0
LINE
  5
281
100
AcDbEntity
  8
ZUWAKU
  6
CONTINUOUS
 62
      32
100
AcDbLine
 10
-228.39154766
 20
421.51487012
 30
0.0
 11
-227.40139776
 21
421.51487012
 31
0.0
  0
LINE
  5
282
100
AcDbEntity
  8
ZUWAKU
  6
CONTINUOUS
 62
      32
100
AcDbLine
 10
-224.04187763
 20
420.99892524
 30
0.0
 11
-223.60423441
 21
420.57587012
 31
0.0
  0
LINE
  5
283
100
AcDbEntity
  8
ZUWAKU
  6
CONTINUOUS
 62
      32
100
AcDbLine
 10
-222.5625
 20
421.51487012
 30
0.0
 11
-221.24336327
 21
421.51487012
 31
0.0
  0
LINE
  5
284
100
AcDbEntity
  8
ZUWAKU
  6
CONTINUOUS
 62
      32
100
AcDbLine
 10
-218.24507756
 20
424.13837012
 30
0.0
 11
-221.24336327
 21
421.51487012
 31
0.0
  0
ELLIPSE
  5
285
100
AcDbEntity
  8
ZUWAKU
  6
CONTINUOUS
 62
      32
100
AcDbEllipse
 10
-224.48361689
 20
422.228862
 30
0.0
 11
-1.1915556281608701
 21
-1.4762483691800981
 31
0.0
210
0.0
220
0.0
230
1.0
 40
0.63020876
 41
2.7713952963881097
 42
5.1608192210644113
  0
ELLIPSE
  5
286
100
AcDbEntity
  8
ZUWAKU
  6
CONTINUOUS
 62
      32
100
AcDbEllipse
 10
-224.48361689
 20
422.228862
 30
0.0
 11
-1.1915556281608701
 21
-1.4762483691800981
 31
0.0
210
0.0
220
0.0
230
1.0
 40
0.63020876
 41
5.8878630804446965
 42
7.4876029260781456
  0
LINE
  5
287
100
AcDbEntity
  8
ZUWAKU
  6
CONTINUOUS
 62
      32
100
AcDbLine
 10
-222.80936937
 20
423.95715764
 30
0.0
 11
-221.81021363
 21
423.95715764
 31
0.0
  0
LINE
  5
288
100
AcDbEntity
  8
ZUWAKU
  6
CONTINUOUS
 62
      32
100
AcDbLine
 10
-223.03618389
 20
423.33341773
 30
0.0
 11
-222.80936937
 21
423.95715764
 31
0.0
  0
LINE
  5
289
100
AcDbEntity
  8
ZUWAKU
  6
CONTINUOUS
 62
      32
100
AcDbLine
 10
-222.5625
 20
421.88837012
 30
0.0
 11
-221.81021363
 21
423.95715764
 31
0.0
  0
LINE
  5
28A
100
AcDbEntity
  8
ZUWAKU
  6
CONTINUOUS
 62
      32
100
AcDbLine
 10
-220.01055585
 20
420.60540886
 30
0.0
 11
-219.53540257
 21
421.91208037
 31
0.0
  0
LINE
  5
28B
100
AcDbEntity
  8
ZUWAKU
  6
CONTINUOUS
 62
      32
100
AcDbLine
 10
-218.11984233
 20
422.82587012
 30
0.0
 11
-218.93802415
 21
420.57587012
 31
0.0
  0
LINE
  5
28C
100
AcDbEntity
  8
ZUWAKU
  6
CONTINUOUS
 62
      32
100
AcDbLine
 10
-217.6875
 20
420.57587012
 30
0.0
 11
-216.86931818
 21
422.82587012
 31
0.0
  0
LINE
  5
28D
100
AcDbEntity
  8
ZUWAKU
  6
CONTINUOUS
 62
      32
100
AcDbLine
 10
-215.50137093
 20
423.54085006
 30
0.0
 11
-216.23809091
 21
421.51487012
 31
0.0
  0
LINE
  5
28E
100
AcDbEntity
  8
ZUWAKU
  6
CONTINUOUS
 62
      32
100
AcDbLine
 10
-215.81312053
 20
424.13837012
 30
0.0
 11
-215.50137093
 21
423.54085006
 31
0.0
  0
LINE
  5
28F
100
AcDbEntity
  8
ZUWAKU
  6
CONTINUOUS
 62
      32
100
AcDbLine
 10
-217.87020395
 20
423.58066617
 30
0.0
 11
-217.68575106
 21
424.13837012
 31
0.0
  0
LINE
  5
290
100
AcDbEntity
  8
ZUWAKU
  6
CONTINUOUS
 62
      32
100
AcDbLine
 10
-217.87020395
 20
423.58066617
 30
0.0
 11
-216.87135819
 21
424.13837012
 31
0.0
  0
LINE
  5
291
100
AcDbEntity
  8
ZUWAKU
  6
CONTINUOUS
 62
      32
100
AcDbLine
 10
-215.81312053
 20
424.13837012
 30
0.0
 11
-216.87135819
 21
424.13837012
 31
0.0
  0
LINE
  5
292
100
AcDbEntity
  8
ZUWAKU
  6
CONTINUOUS
 62
      32
100
AcDbLine
 10
-217.68575106
 20
424.13837012
 30
0.0
 11
-218.24507756
 21
424.13837012
 31
0.0
  0
ELLIPSE
  5
293
100
AcDbEntity
  8
ZUWAKU
  6
CONTINUOUS
 62
      32
100
AcDbEllipse
 10
-207.44510269
 20
422.68954985
 30
0.0
 11
-0.2469559898247837
 21
-0.4527526480119946
 31
0.0
210
0.0
220
0.0
230
1.0
 40
0.75209874
 41
0.0
 42
6.2831853071796004
  0
ELLIPSE
  5
294
100
AcDbEntity
  8
ZUWAKU
  6
CONTINUOUS
 62
      32
100
AcDbEllipse
 10
-207.44510269
 20
422.68954985
 30
0.0
 11
-0.7889967726031273
 21
-1.4464940831052218
 31
0.0
210
0.0
220
0.0
230
1.0
 40
0.75209874
 41
1.163380251178052
 42
5.8601607076995661
  0
ARC
  5
295
100
AcDbEntity
  8
ZUWAKU
  6
CONTINUOUS
 62
      32
100
AcDbCircle
 10
-209.03589421
 20
423.62077271
 30
0.0
 40
2.12434536
100
AcDbArc
 50
277.55531967
 51
282.61004677
  0
ARC
  5
296
100
AcDbEntity
  8
ZUWAKU
  6
CONTINUOUS
 62
      32
100
AcDbCircle
 10
-209.03589421
 20
423.62077271
 30
0.0
 40
3.06334536
100
AcDbArc
 50
276.29029269
 51
293.79815684
  0
ARC
  5
297
100
AcDbEntity
  8
ZUWAKU
  6
CONTINUOUS
 62
      32
100
AcDbCircle
 10
-209.03589421
 20
423.62077271
 30
0.0
 40
3.06334536
100
AcDbArc
 50
316.57125834
 51
318.01426788
  0
ARC
  5
298
100
AcDbEntity
  8
ZUWAKU
  6
CONTINUOUS
 62
      32
100
AcDbCircle
 10
-206.83565008
 20
422.61183208
 30
0.0
 40
2.03660652
100
AcDbArc
 50
209.3318227
 51
211.50126528
  0
ARC
  5
299
100
AcDbEntity
  8
ZUWAKU
  6
CONTINUOUS
 62
      32
100
AcDbCircle
 10
-206.83565008
 20
422.61183208
 30
0.0
 40
2.03660652
100
AcDbArc
 50
241.74457829
 51
270.0
  0
LINE
  5
29A
100
AcDbEntity
  8
ZUWAKU
  6
CONTINUOUS
 62
      32
100
AcDbLine
 10
-212.01810583
 20
421.51487012
 30
0.0
 11
-208.7565781
 21
421.51487012
 31
0.0
  0
LINE
  5
29B
100
AcDbEntity
  8
ZUWAKU
  6
CONTINUOUS
 62
      32
100
AcDbLine
 10
-206.83565008
 20
420.57587012
 30
0.0
 11
-205.03002725
 21
420.57587012
 31
0.0
  0
LINE
  5
29C
100
AcDbEntity
  8
ZUWAKU
  6
CONTINUOUS
 62
      32
100
AcDbLine
 10
-206.81120118
 20
421.51487012
 30
0.0
 11
-204.81963118
 21
421.51487012
 31
0.0
  0
LINE
  5
29D
100
AcDbEntity
  8
ZUWAKU
  6
CONTINUOUS
 62
      32
100
AcDbLine
 10
-229.5
 20
420.57587012
 30
0.0
 11
-227.25
 21
420.57587012
 31
0.0
  0
LINE
  5
29E
100
AcDbEntity
  8
ZUWAKU
  6
CONTINUOUS
 62
      32
100
AcDbLine
 10
-220.01055585
 20
420.60540886
 30
0.0
 11
-218.93802415
 21
420.57587012
 31
0.0
  0
LINE
  5
29F
100
AcDbEntity
  8
ZUWAKU
  6
CONTINUOUS
 62
      32
100
AcDbLine
 10
-216.23809091
 20
421.51487012
 30
0.0
 11
-214.50423216
 21
421.51487012
 31
0.0
  0
LINE
  5
2A0
100
AcDbEntity
  8
ZUWAKU
  6
CONTINUOUS
 62
      32
100
AcDbLine
 10
-211.30448845
 20
422.86665426
 30
0.0
 11
-210.60403749
 21
423.43285212
 31
0.0
  0
ARC
  5
2A1
100
AcDbEntity
  8
ZUWAKU
  6
CONTINUOUS
 62
      32
100
AcDbCircle
 10
-212.01810583
 20
422.38487012
 30
0.0
 40
0.87
100
AcDbArc
 50
34.07537472
 51
270.0
  0
ARC
  5
2A2
100
AcDbEntity
  8
ZUWAKU
  6
CONTINUOUS
 62
      32
100
AcDbCircle
 10
-212.01810583
 20
422.38487012
 30
0.0
 40
1.7600726
100
AcDbArc
 50
36.54256145
 51
190.98612084
  0
LINE
  5
2A3
100
AcDbEntity
  8
ZUWAKU
  6
CONTINUOUS
 62
      32
100
AcDbLine
 10
-214.26743836
 20
420.57587012
 30
0.0
 11
-213.37591188
 21
421.23189904
 31
0.0
  0
LINE
  5
2A4
100
AcDbEntity
  8
ZUWAKU
  6
CONTINUOUS
 62
      32
100
AcDbLine
 10
-213.75710256
 20
422.06464473
 30
0.0
 11
-214.50423216
 21
421.51487012
 31
0.0
  0
LINE
  5
2A5
100
AcDbEntity
  8
ZUWAKU
  6
CONTINUOUS
 62
      32
100
AcDbLine
 10
-213.37591188
 20
421.23189904
 30
0.0
 11
-212.625
 21
420.57587012
 31
0.0
  0
LINE
  5
2A6
100
AcDbEntity
  8
ZUWAKU
  6
CONTINUOUS
 62
      32
100
AcDbLine
 10
-204.81963118
 20
421.51487012
 30
0.0
 11
-205.03002725
 21
420.57587012
 31
0.0
  0
LINE
  5
2A7
100
AcDbEntity
  8
ZUWAKU
  6
CONTINUOUS
 62
      32
100
AcDbLine
 10
-254.68447998
 20
429.73993262
 30
0.0
 11
-255.20010498
 21
429.22430762
 31
0.0
  0
LINE
  5
2A8
100
AcDbEntity
  8
ZUWAKU
  6
CONTINUOUS
 62
      32
100
AcDbLine
 10
-253.59951458
 20
429.84716186
 30
0.0
 11
-254.32959805
 21
429.11707838
 31
0.0
  0
LINE
  5
2A9
100
AcDbEntity
  8
ZUWAKU
  6
CONTINUOUS
 62
      32
100
AcDbLine
 10
-252.37139635
 20
429.93212012
 30
0.0
 11
-253.27256823
 21
429.03094824
 31
0.0
  0
LINE
  5
2AA
100
AcDbEntity
  8
ZUWAKU
  6
CONTINUOUS
 62
      32
100
AcDbLine
 10
-251.16050275
 20
429.95087012
 30
0.0
 11
-252.09800275
 21
429.01337012
 31
0.0
  0
LINE
  5
2AB
100
AcDbEntity
  8
ZUWAKU
  6
CONTINUOUS
 62
      32
100
AcDbLine
 10
-249.90844347
 20
429.95087012
 30
0.0
 11
-250.84594347
 21
429.01337012
 31
0.0
  0
LINE
  5
2AC
100
AcDbEntity
  8
ZUWAKU
  6
CONTINUOUS
 62
      32
100
AcDbLine
 10
-248.53183897
 20
429.95087012
 30
0.0
 11
-249.46933897
 21
429.01337012
 31
0.0
  0
LINE
  5
2AD
100
AcDbEntity
  8
ZUWAKU
  6
CONTINUOUS
 62
      32
100
AcDbLine
 10
-247.37159823
 20
429.95087012
 30
0.0
 11
-248.30909823
 21
429.01337012
 31
0.0
  0
LINE
  5
2AE
100
AcDbEntity
  8
ZUWAKU
  6
CONTINUOUS
 62
      32
100
AcDbLine
 10
-247.04724319
 20
420.85894844
 30
0.0
 11
-247.33032151
 21
420.57587012
 31
0.0
  0
LINE
  5
2AF
100
AcDbEntity
  8
ZUWAKU
  6
CONTINUOUS
 62
      32
100
AcDbLine
 10
-246.53812631
 20
422.21659346
 30
0.0
 11
-248.17884965
 21
420.57587012
 31
0.0
  0
LINE
  5
2B0
100
AcDbEntity
  8
ZUWAKU
  6
CONTINUOUS
 62
      32
100
AcDbLine
 10
-246.02900943
 20
423.57423848
 30
0.0
 11
-247.63357333
 21
421.96967457
 31
0.0
  0
LINE
  5
2B1
100
AcDbEntity
  8
ZUWAKU
  6
CONTINUOUS
 62
      32
100
AcDbLine
 10
-248.08837779
 20
421.51487012
 30
0.0
 11
-249.02737779
 21
420.57587012
 31
0.0
  0
LINE
  5
2B2
100
AcDbEntity
  8
ZUWAKU
  6
CONTINUOUS
 62
      32
100
AcDbLine
 10
-245.51989254
 20
424.9318835
 30
0.0
 11
-247.12445645
 21
423.32731959
 31
0.0
  0
LINE
  5
2B3
100
AcDbEntity
  8
ZUWAKU
  6
CONTINUOUS
 62
      32
100
AcDbLine
 10
-248.93690592
 20
421.51487012
 30
0.0
 11
-249.87590592
 21
420.57587012
 31
0.0
  0
LINE
  5
2B4
100
AcDbEntity
  8
ZUWAKU
  6
CONTINUOUS
 62
      32
100
AcDbLine
 10
-249.78543406
 20
421.51487012
 30
0.0
 11
-250.06533956
 21
421.23496461
 31
0.0
  0
LINE
  5
2B5
100
AcDbEntity
  8
ZUWAKU
  6
CONTINUOUS
 62
      32
100
AcDbLine
 10
-243.89501847
 20
429.95087012
 30
0.0
 11
-245.08798892
 21
428.75789967
 31
0.0
  0
LINE
  5
2B6
100
AcDbEntity
  8
ZUWAKU
  6
CONTINUOUS
 62
      32
100
AcDbLine
 10
-244.74354661
 20
429.95087012
 30
0.0
 11
-245.68104661
 21
429.01337012
 31
0.0
  0
LINE
  5
2B7
100
AcDbEntity
  8
ZUWAKU
  6
CONTINUOUS
 62
      32
100
AcDbLine
 10
-245.59207475
 20
429.95087012
 30
0.0
 11
-246.52957475
 21
429.01337012
 31
0.0
  0
LINE
  5
2B8
100
AcDbEntity
  8
ZUWAKU
  6
CONTINUOUS
 62
      32
100
AcDbLine
 10
-246.44060288
 20
429.95087012
 30
0.0
 11
-246.93563827
 21
429.45583473
 31
0.0
  0
LINE
  5
2B9
100
AcDbEntity
  8
ZUWAKU
  6
CONTINUOUS
 62
      32
100
AcDbLine
 10
-237.83730871
 20
424.12918596
 30
0.0
 11
-238.73487872
 21
423.23161595
 31
0.0
  0
LINE
  5
2BA
100
AcDbEntity
  8
ZUWAKU
  6
CONTINUOUS
 62
      32
100
AcDbLine
 10
-236.93369667
 20
424.18426986
 30
0.0
 11
-238.9561783
 21
422.16178823
 31
0.0
  0
LINE
  5
2BB
100
AcDbEntity
  8
ZUWAKU
  6
CONTINUOUS
 62
      32
100
AcDbLine
 10
-236.27805653
 20
423.14285372
 30
0.0
 11
-238.84111379
 21
420.57979647
 31
0.0
  0
LINE
  5
2BC
100
AcDbEntity
  8
ZUWAKU
  6
CONTINUOUS
 62
      32
100
AcDbLine
 10
-242.1979622
 20
429.95087012
 30
0.0
 11
-243.1354622
 21
429.01337012
 31
0.0
  0
LINE
  5
2BD
100
AcDbEntity
  8
ZUWAKU
  6
CONTINUOUS
 62
      32
100
AcDbLine
 10
-244.50165878
 20
427.64717354
 30
0.0
 11
-246.10622268
 21
426.04260963
 31
0.0
  0
LINE
  5
2BE
100
AcDbEntity
  8
ZUWAKU
  6
CONTINUOUS
 62
      32
100
AcDbLine
 10
-241.34943406
 20
429.95087012
 30
0.0
 11
-242.28693406
 21
429.01337012
 31
0.0
  0
LINE
  5
2BF
100
AcDbEntity
  8
ZUWAKU
  6
CONTINUOUS
 62
      32
100
AcDbLine
 10
-245.01077566
 20
426.28952852
 30
0.0
 11
-246.61533956
 21
424.68496461
 31
0.0
  0
LINE
  5
2C0
100
AcDbEntity
  8
ZUWAKU
  6
CONTINUOUS
 62
      32
100
AcDbLine
 10
-240.51041137
 20
429.94136467
 30
0.0
 11
-241.43840592
 21
429.01337012
 31
0.0
  0
LINE
  5
2C1
100
AcDbEntity
  8
ZUWAKU
  6
CONTINUOUS
 62
      32
100
AcDbLine
 10
-244.43840592
 20
426.01337012
 30
0.0
 11
-245.37740592
 21
425.07437012
 31
0.0
  0
LINE
  5
2C2
100
AcDbEntity
  8
ZUWAKU
  6
CONTINUOUS
 62
      32
100
AcDbLine
 10
-239.82485863
 20
429.77838928
 30
0.0
 11
-240.59551731
 21
429.00773059
 31
0.0
  0
LINE
  5
2C3
100
AcDbEntity
  8
ZUWAKU
  6
CONTINUOUS
 62
      32
100
AcDbLine
 10
-243.58987779
 20
426.01337012
 30
0.0
 11
-244.69738642
 21
424.90586148
 31
0.0
  0
LINE
  5
2C4
100
AcDbEntity
  8
ZUWAKU
  6
CONTINUOUS
 62
      32
100
AcDbLine
 10
-239.27924572
 20
429.47547405
 30
0.0
 11
-239.95459022
 21
428.80012955
 31
0.0
  0
LINE
  5
2C5
100
AcDbEntity
  8
ZUWAKU
  6
CONTINUOUS
 62
      32
100
AcDbLine
 10
-238.84361492
 20
429.0625767
 30
0.0
 11
-239.51160552
 21
428.39458611
 31
0.0
  0
LINE
  5
2C6
100
AcDbEntity
  8
ZUWAKU
  6
CONTINUOUS
 62
      32
100
AcDbLine
 10
-238.51564841
 20
428.54201508
 30
0.0
 11
-239.25385351
 21
427.80380998
 31
0.0
  0
LINE
  5
2C7
100
AcDbEntity
  8
ZUWAKU
  6
CONTINUOUS
 62
      32
100
AcDbLine
 10
-238.31749656
 20
427.8916388
 30
0.0
 11
-239.40226826
 21
426.80686709
 31
0.0
  0
LINE
  5
2C8
100
AcDbEntity
  8
ZUWAKU
  6
CONTINUOUS
 62
      32
100
AcDbLine
 10
-243.04649033
 20
429.95087012
 30
0.0
 11
-243.98399033
 21
429.01337012
 31
0.0
  0
LINE
  5
2C9
100
AcDbEntity
  8
ZUWAKU
  6
CONTINUOUS
 62
      32
100
AcDbLine
 10
-243.9925419
 20
429.00481856
 30
0.0
 11
-245.5971058
 21
427.40025465
 31
0.0
  0
LINE
  5
2CA
100
AcDbEntity
  8
ZUWAKU
  6
CONTINUOUS
 62
      32
100
AcDbLine
 10
-241.89282151
 20
426.01337012
 30
0.0
 11
-242.83182151
 21
425.07437012
 31
0.0
  0
LINE
  5
2CB
100
AcDbEntity
  8
ZUWAKU
  6
CONTINUOUS
 62
      32
100
AcDbLine
 10
-243.39544697
 20
424.51074465
 30
0.0
 11
-244.08456055
 21
423.82163108
 31
0.0
  0
LINE
  5
2CC
100
AcDbEntity
  8
ZUWAKU
  6
CONTINUOUS
 62
      32
100
AcDbLine
 10
-242.74134965
 20
426.01337012
 30
0.0
 11
-243.68034965
 21
425.07437012
 31
0.0
  0
LINE
  5
2CD
100
AcDbEntity
  8
ZUWAKU
  6
CONTINUOUS
 62
      32
100
AcDbLine
 10
-243.70185991
 20
425.05285985
 30
0.0
 11
-244.39097348
 21
424.36374628
 31
0.0
  0
LINE
  5
2CE
100
AcDbEntity
  8
ZUWAKU
  6
CONTINUOUS
 62
      32
100
AcDbLine
 10
-241.04429337
 20
426.01337012
 30
0.0
 11
-241.98329337
 21
425.07437012
 31
0.0
  0
LINE
  5
2CF
100
AcDbEntity
  8
ZUWAKU
  6
CONTINUOUS
 62
      32
100
AcDbLine
 10
-243.08903404
 20
423.96862946
 30
0.0
 11
-243.77814761
 21
423.27951588
 31
0.0
  0
LINE
  5
2D0
100
AcDbEntity
  8
ZUWAKU
  6
CONTINUOUS
 62
      32
100
AcDbLine
 10
-240.01896343
 20
426.19017192
 30
0.0
 11
-241.13476524
 21
425.07437012
 31
0.0
  0
LINE
  5
2D1
100
AcDbEntity
  8
ZUWAKU
  6
CONTINUOUS
 62
      32
100
AcDbLine
 10
-242.7826211
 20
423.42651426
 30
0.0
 11
-243.47173467
 21
422.73740069
 31
0.0
  0
LINE
  5
2D2
100
AcDbEntity
  8
ZUWAKU
  6
CONTINUOUS
 62
      32
100
AcDbLine
 10
-238.33785188
 20
427.02275534
 30
0.0
 11
-240.23485168
 21
425.12575554
 31
0.0
  0
LINE
  5
2D3
100
AcDbEntity
  8
ZUWAKU
  6
CONTINUOUS
 62
      32
100
AcDbLine
 10
-242.47620816
 20
422.88439906
 30
0.0
 11
-243.16532173
 21
422.19528549
 31
0.0
  0
LINE
  5
2D4
100
AcDbEntity
  8
ZUWAKU
  6
CONTINUOUS
 62
      32
100
AcDbLine
 10
-242.16979522
 20
422.34228386
 30
0.0
 11
-242.85890879
 21
421.65317029
 31
0.0
  0
LINE
  5
2D5
100
AcDbEntity
  8
ZUWAKU
  6
CONTINUOUS
 62
      32
100
AcDbLine
 10
-241.86338228
 20
421.80016866
 30
0.0
 11
-242.55249585
 21
421.11105509
 31
0.0
  0
LINE
  5
2D6
100
AcDbEntity
  8
ZUWAKU
  6
CONTINUOUS
 62
      32
100
AcDbLine
 10
-241.30015269
 20
421.51487012
 30
0.0
 11
-242.23915269
 21
420.57587012
 31
0.0
  0
LINE
  5
2D7
100
AcDbEntity
  8
ZUWAKU
  6
CONTINUOUS
 62
      32
100
AcDbLine
 10
-240.45162455
 20
421.51487012
 30
0.0
 11
-241.39062455
 21
420.57587012
 31
0.0
  0
LINE
  5
2D8
100
AcDbEntity
  8
ZUWAKU
  6
CONTINUOUS
 62
      32
100
AcDbLine
 10
-239.60309641
 20
421.51487012
 30
0.0
 11
-240.54209641
 21
420.57587012
 31
0.0
  0
LINE
  5
2D9
100
AcDbEntity
  8
ZUWAKU
  6
CONTINUOUS
 62
      32
100
AcDbLine
 10
-236.47303061
 20
423.79640778
 30
0.0
 11
-237.25065583
 21
423.01878256
 31
0.0
  0
LINE
  5
2DA
100
AcDbEntity
  8
ZUWAKU
  6
CONTINUOUS
 62
      32
100
AcDbLine
 10
-237.95690669
 20
422.3125317
 30
0.0
 11
-239.69356827
 21
420.57587012
 31
0.0
  0
LINE
  5
2DB
100
AcDbEntity
  8
ZUWAKU
  6
CONTINUOUS
 62
      32
100
AcDbLine
 10
-231.85377665
 20
426.71860547
 30
0.0
 11
-234.00528384
 21
424.56709827
 31
0.0
  0
LINE
  5
2DC
100
AcDbEntity
  8
ZUWAKU
  6
CONTINUOUS
 62
      32
100
AcDbLine
 10
-236.61334177
 20
421.95904035
 30
0.0
 11
-237.82649403
 21
420.74588809
 31
0.0
  0
LINE
  5
2DD
100
AcDbEntity
  8
ZUWAKU
  6
CONTINUOUS
 62
      32
100
AcDbLine
 10
-231.27082947
 20
426.45302451
 30
0.0
 11
-234.48938587
 21
423.23446811
 31
0.0
  0
LINE
  5
2DE
100
AcDbEntity
  8
ZUWAKU
  6
CONTINUOUS
 62
      32
100
AcDbLine
 10
-236.20898386
 20
421.51487012
 30
0.0
 11
-237.14422637
 21
420.57962761
 31
0.0
  0
LINE
  5
2DF
100
AcDbEntity
  8
ZUWAKU
  6
CONTINUOUS
 62
      32
100
AcDbLine
 10
-235.36045572
 20
421.51487012
 30
0.0
 11
-236.29945572
 21
420.57587012
 31
0.0
  0
LINE
  5
2E0
100
AcDbEntity
  8
ZUWAKU
  6
CONTINUOUS
 62
      32
100
AcDbLine
 10
-231.05955655
 20
425.8157693
 30
0.0
 11
-232.28135363
 21
424.59397221
 31
0.0
  0
LINE
  5
2E1
100
AcDbEntity
  8
ZUWAKU
  6
CONTINUOUS
 62
      32
100
AcDbLine
 10
-233.38001655
 20
423.4953093
 30
0.0
 11
-234.60181363
 21
422.27351221
 31
0.0
  0
LINE
  5
2E2
100
AcDbEntity
  8
ZUWAKU
  6
CONTINUOUS
 62
      32
100
AcDbLine
 10
-231.10835912
 20
424.91843858
 30
0.0
 11
-235.45092759
 21
420.57587012
 31
0.0
  0
LINE
  5
2E3
100
AcDbEntity
  8
ZUWAKU
  6
CONTINUOUS
 62
      32
100
AcDbLine
 10
-231.47688789
 20
423.70138168
 30
0.0
 11
-234.50565108
 21
420.67261849
 31
0.0
  0
LINE
  5
2E4
100
AcDbEntity
  8
ZUWAKU
  6
CONTINUOUS
 62
      32
100
AcDbLine
 10
-228.3052165
 20
424.32685718
 30
0.0
 11
-232.05620356
 21
420.57587012
 31
0.0
  0
LINE
  5
2E5
100
AcDbEntity
  8
ZUWAKU
  6
CONTINUOUS
 62
      32
100
AcDbLine
 10
-228.01589254
 20
426.31323742
 30
0.0
 11
-228.21159302
 21
426.11753694
 31
0.0
  0
LINE
  5
2E6
100
AcDbEntity
  8
ZUWAKU
  6
CONTINUOUS
 62
      32
100
AcDbLine
 10
-232.72382152
 20
421.60530844
 30
0.0
 11
-233.45296239
 21
420.87616757
 31
0.0
  0
LINE
  5
2E7
100
AcDbEntity
  8
ZUWAKU
  6
CONTINUOUS
 62
      32
100
AcDbLine
 10
-227.28936516
 20
426.19123666
 30
0.0
 11
-228.08959226
 21
425.39100956
 31
0.0
  0
LINE
  5
2E8
100
AcDbEntity
  8
ZUWAKU
  6
CONTINUOUS
 62
      32
100
AcDbLine
 10
-231.9657317
 20
421.51487012
 30
0.0
 11
-232.82116886
 21
420.65943296
 31
0.0
  0
LINE
  5
2E9
100
AcDbEntity
  8
ZUWAKU
  6
CONTINUOUS
 62
      32
100
AcDbLine
 10
-223.66997232
 20
423.87093254
 30
0.0
 11
-226.73828941
 21
420.80261545
 31
0.0
  0
LINE
  5
2EA
100
AcDbEntity
  8
ZUWAKU
  6
CONTINUOUS
 62
      32
100
AcDbLine
 10
-227.72309101
 20
421.51487012
 30
0.0
 11
-228.66209101
 21
420.57587012
 31
0.0
  0
LINE
  5
2EB
100
AcDbEntity
  8
ZUWAKU
  6
CONTINUOUS
 62
      32
100
AcDbLine
 10
-228.35553337
 20
421.7309559
 30
0.0
 11
-229.51061915
 21
420.57587012
 31
0.0
  0
LINE
  5
2EC
100
AcDbEntity
  8
ZUWAKU
  6
CONTINUOUS
 62
      32
100
AcDbLine
 10
-228.18582774
 20
422.74918967
 30
0.0
 11
-229.32817054
 21
421.60684687
 31
0.0
  0
LINE
  5
2ED
100
AcDbEntity
  8
ZUWAKU
  6
CONTINUOUS
 62
      32
100
AcDbLine
 10
-231.20767543
 20
420.57587012
 30
0.0
 11
-228.01612211
 21
423.76742343
 31
0.0
  0
LINE
  5
2EE
100
AcDbEntity
  8
ZUWAKU
  6
CONTINUOUS
 62
      32
100
AcDbLine
 10
-221.88669094
 20
423.95715764
 30
0.0
 11
-225.26233088
 21
420.58151771
 31
0.0
  0
LINE
  5
2EF
100
AcDbEntity
  8
ZUWAKU
  6
CONTINUOUS
 62
      32
100
AcDbLine
 10
-222.25138553
 20
422.74393492
 30
0.0
 11
-224.01875098
 21
420.97656947
 31
0.0
  0
LINE
  5
2F0
100
AcDbEntity
  8
ZUWAKU
  6
CONTINUOUS
 62
      32
100
AcDbLine
 10
-222.5625
 20
421.58429231
 30
0.0
 11
-223.57092219
 21
420.57587012
 31
0.0
  0
LINE
  5
2F1
100
AcDbEntity
  8
ZUWAKU
  6
CONTINUOUS
 62
      32
100
AcDbLine
 10
-221.78339405
 20
421.51487012
 30
0.0
 11
-222.72239405
 21
420.57587012
 31
0.0
  0
LINE
  5
2F2
100
AcDbEntity
  8
ZUWAKU
  6
CONTINUOUS
 62
      32
100
AcDbLine
 10
-218.77538441
 20
423.67435163
 30
0.0
 11
-221.87386591
 21
420.57587012
 31
0.0
  0
LINE
  5
2F3
100
AcDbEntity
  8
ZUWAKU
  6
CONTINUOUS
 62
      32
100
AcDbLine
 10
-224.94893444
 20
423.44049856
 30
0.0
 11
-225.43119675
 21
422.95823625
 31
0.0
  0
LINE
  5
2F4
100
AcDbEntity
  8
ZUWAKU
  6
CONTINUOUS
 62
      32
100
AcDbLine
 10
-226.38763972
 20
422.00179327
 30
0.0
 11
-227.81356288
 21
420.57587012
 31
0.0
  0
LINE
  5
2F5
100
AcDbEntity
  8
ZUWAKU
  6
CONTINUOUS
 62
      32
100
AcDbLine
 10
-224.66249651
 20
422.02988021
 30
0.0
 11
-225.80521327
 21
420.88716345
 31
0.0
  0
LINE
  5
2F6
100
AcDbEntity
  8
ZUWAKU
  6
CONTINUOUS
 62
      32
100
AcDbLine
 10
-222.73521908
 20
423.95715764
 30
0.0
 11
-222.85174097
 21
423.84063575
 31
0.0
  0
LINE
  5
2F7
100
AcDbEntity
  8
ZUWAKU
  6
CONTINUOUS
 62
      32
100
AcDbLine
 10
-223.14508367
 20
423.54729305
 30
0.0
 11
-223.95180385
 21
422.74057287
 31
0.0
  0
LINE
  5
2F8
100
AcDbEntity
  8
ZUWAKU
  6
CONTINUOUS
 62
      32
100
AcDbLine
 10
-216.58099742
 20
424.13837012
 30
0.0
 11
-217.89349742
 21
422.82587012
 31
0.0
  0
LINE
  5
2F9
100
AcDbEntity
  8
ZUWAKU
  6
CONTINUOUS
 62
      32
100
AcDbLine
 10
-218.24918227
 20
422.47018527
 30
0.0
 11
-219.95146851
 21
420.76789903
 31
0.0
  0
TEXT
  5
2FA
100
AcDbEntity
  8
ZUWAKU
 62
      32
100
AcDbText
 10
-252.15356297
 20
-412.67412988
 30
0.0
 40
10.2
  1
株式会社
 41
0.6667
 72
       5
 11
-219.51356297
 21
-412.67412988
 31
0.0
100
AcDbText
  0
LINE
  5
2FB
100
AcDbEntity
  8
ZUWAKU
  6
CONTINUOUS
 62
      43
100
AcDbLine
 10
-273.9375
 20
403.23245871
 30
0.0
 11
283.125
 21
403.23245871
 31
0.0
  0
LINE
  5
2FC
100
AcDbEntity
  8
ZUWAKU
  6
CONTINUOUS
 62
      43
100
AcDbLine
 10
-273.1875
 20
-420.36162988
 30
0.0
 11
280.125
 21
-420.36162988
 31
0.0
  0
LINE
  5
2FD
100
AcDbEntity
  8
ZUWAKU
  6
CONTINUOUS
 62
      43
100
AcDbLine
 10
-273.1875
 20
-384.17412988
 30
0.0
 11
280.125
 21
-384.17412988
 31
0.0
  0
LINE
  5
2FE
100
AcDbEntity
  8
ZUWAKU
  6
CONTINUOUS
 62
      43
100
AcDbLine
 10
-273.1875
 20
-379.11162988
 30
0.0
 11
280.125
 21
-379.11162988
 31
0.0
  0
LINE
  5
2FF
100
AcDbEntity
  8
ZUWAKU
  6
CONTINUOUS
 62
      43
100
AcDbLine
 10
-273.1875
 20
-379.11162988
 30
0.0
 11
-273.1875
 21
-259.11162988
 31
0.0
  0
LINE
  5
300
100
AcDbEntity
  8
ZUWAKU
  6
CONTINUOUS
 62
      43
100
AcDbLine
 10
280.125
 20
-379.11162988
 30
0.0
 11
280.125
 21
-259.11162988
 31
0.0
  0
LINE
  5
301
100
AcDbEntity
  8
ZUWAKU
  6
CONTINUOUS
 62
      43
100
AcDbLine
 10
-273.1875
 20
-259.11162988
 30
0.0
 11
280.125
 21
-259.11162988
 31
0.0
  0
ELLIPSE
  5
302
100
AcDbEntity
  8
ZUWAKU
  6
CONTINUOUS
 62
      43
100
AcDbEllipse
 10
-230.53125
 20
424.22548309
 30
0.0
 11
-38.34375
 21
0.0
 31
0.0
210
0.0
220
0.0
230
1.0
 40
0.40365317
 41
0.0
 42
6.2831853071796004
  0
LINE
  5
303
100
AcDbEntity
  8
ZUWAKU
  6
CONTINUOUS
 62
      43
100
AcDbLine
 10
-261.375
 20
431.63837012
 30
0.0
 11
-261.375
 21
417.01337012
 31
0.0
  0
LINE
  5
304
100
AcDbEntity
  8
ZUWAKU
  6
CONTINUOUS
 62
      43
100
AcDbLine
 10
-199.5
 20
431.63837012
 30
0.0
 11
-199.5
 21
417.01337012
 31
0.0
  0
LINE
  5
305
100
AcDbEntity
  8
ZUWAKU
  6
CONTINUOUS
 62
      43
100
AcDbLine
 10
-261.375
 20
431.63837012
 30
0.0
 11
-199.5
 21
431.63837012
 31
0.0
  0
LINE
  5
306
100
AcDbEntity
  8
ZUWAKU
  6
CONTINUOUS
 62
      43
100
AcDbLine
 10
-261.375
 20
417.01337012
 30
0.0
 11
-199.5
 21
417.01337012
 31
0.0
  0
LINE
  5
307
100
AcDbEntity
  8
ZUWAKU
  6
CONTINUOUS
 62
      43
100
AcDbLine
 10
-234.35280535
 20
439.62599625
 30
0.0
 11
-242.34043149
 21
431.63837012
 31
0.0
  0
LINE
  5
308
100
AcDbEntity
  8
ZUWAKU
  6
CONTINUOUS
 62
      43
100
AcDbLine
 10
-235.2414949
 20
439.58583484
 30
0.0
 11
-243.18895962
 21
431.63837012
 31
0.0
  0
LINE
  5
309
100
AcDbEntity
  8
ZUWAKU
  6
CONTINUOUS
 62
      43
100
AcDbLine
 10
-236.13923101
 20
439.53662687
 30
0.0
 11
-244.03748776
 21
431.63837012
 31
0.0
  0
LINE
  5
30A
100
AcDbEntity
  8
ZUWAKU
  6
CONTINUOUS
 62
      43
100
AcDbLine
 10
-237.04638754
 20
439.47799847
 30
0.0
 11
-244.8860159
 21
431.63837012
 31
0.0
  0
LINE
  5
30B
100
AcDbEntity
  8
ZUWAKU
  6
CONTINUOUS
 62
      43
100
AcDbLine
 10
-237.96338201
 20
439.40953215
 30
0.0
 11
-245.73454404
 21
431.63837012
 31
0.0
  0
LINE
  5
30C
100
AcDbEntity
  8
ZUWAKU
  6
CONTINUOUS
 62
      43
100
AcDbLine
 10
-238.89068229
 20
439.33076
 30
0.0
 11
-246.58307217
 21
431.63837012
 31
0.0
  0
LINE
  5
30D
100
AcDbEntity
  8
ZUWAKU
  6
CONTINUOUS
 62
      43
100
AcDbLine
 10
-239.82881478
 20
439.24115565
 30
0.0
 11
-247.43160031
 21
431.63837012
 31
0.0
  0
LINE
  5
30E
100
AcDbEntity
  8
ZUWAKU
  6
CONTINUOUS
 62
      43
100
AcDbLine
 10
-240.77837433
 20
439.14012424
 30
0.0
 11
-248.28012845
 21
431.63837012
 31
0.0
  0
LINE
  5
30F
100
AcDbEntity
  8
ZUWAKU
  6
CONTINUOUS
 62
      43
100
AcDbLine
 10
-241.74003663
 20
439.02699007
 30
0.0
 11
-249.12865659
 21
431.63837012
 31
0.0
  0
LINE
  5
310
100
AcDbEntity
  8
ZUWAKU
  6
CONTINUOUS
 62
      43
100
AcDbLine
 10
-242.71457364
 20
438.9009812
 30
0.0
 11
-249.97718472
 21
431.63837012
 31
0.0
  0
LINE
  5
311
100
AcDbEntity
  8
ZUWAKU
  6
CONTINUOUS
 62
      43
100
AcDbLine
 10
-243.70287316
 20
438.76120982
 30
0.0
 11
-250.82571286
 21
431.63837012
 31
0.0
  0
LINE
  5
312
100
AcDbEntity
  8
ZUWAKU
  6
CONTINUOUS
 62
      43
100
AcDbLine
 10
-244.70596394
 20
438.60664717
 30
0.0
 11
-251.674241
 21
431.63837012
 31
0.0
  0
LINE
  5
313
100
AcDbEntity
  8
ZUWAKU
  6
CONTINUOUS
 62
      43
100
AcDbLine
 10
-245.72504839
 20
438.43609086
 30
0.0
 11
-252.52276914
 21
431.63837012
 31
0.0
  0
LINE
  5
314
100
AcDbEntity
  8
ZUWAKU
  6
CONTINUOUS
 62
      43
100
AcDbLine
 10
-246.76154583
 20
438.24812156
 30
0.0
 11
-253.37129727
 21
431.63837012
 31
0.0
  0
LINE
  5
315
100
AcDbEntity
  8
ZUWAKU
  6
CONTINUOUS
 62
      43
100
AcDbLine
 10
-247.81715094
 20
438.04104459
 30
0.0
 11
-254.21982541
 21
431.63837012
 31
0.0
  0
LINE
  5
316
100
AcDbEntity
  8
ZUWAKU
  6
CONTINUOUS
 62
      43
100
AcDbLine
 10
-261.375
 20
424.48319553
 30
0.0
 11
-261.53232541
 21
424.32587012
 31
0.0
  0
LINE
  5
317
100
AcDbEntity
  8
ZUWAKU
  6
CONTINUOUS
 62
      43
100
AcDbLine
 10
-248.89391434
 20
437.81280933
 30
0.0
 11
-255.06835355
 21
431.63837012
 31
0.0
  0
LINE
  5
318
100
AcDbEntity
  8
ZUWAKU
  6
CONTINUOUS
 62
      43
100
AcDbLine
 10
-261.375
 20
425.33172367
 30
0.0
 11
-262.38085355
 21
424.32587012
 31
0.0
  0
LINE
  5
319
100
AcDbEntity
  8
ZUWAKU
  6
CONTINUOUS
 62
      43
100
AcDbLine
 10
-249.99435663
 20
437.56089518
 30
0.0
 11
-255.91688169
 21
431.63837012
 31
0.0
  0
LINE
  5
31A
100
AcDbEntity
  8
ZUWAKU
  6
CONTINUOUS
 62
      43
100
AcDbLine
 10
-261.375
 20
426.1802518
 30
0.0
 11
-263.22938169
 21
424.32587012
 31
0.0
  0
LINE
  5
31B
100
AcDbEntity
  8
ZUWAKU
  6
CONTINUOUS
 62
      43
100
AcDbLine
 10
-251.12163459
 20
437.28214535
 30
0.0
 11
-256.76540982
 21
431.63837012
 31
0.0
  0
LINE
  5
31C
100
AcDbEntity
  8
ZUWAKU
  6
CONTINUOUS
 62
      43
100
AcDbLine
 10
-261.375
 20
427.02877994
 30
0.0
 11
-264.07790982
 21
424.32587012
 31
0.0
  0
LINE
  5
31D
100
AcDbEntity
  8
ZUWAKU
  6
CONTINUOUS
 62
      43
100
AcDbLine
 10
-252.27979226
 20
436.97251582
 30
0.0
 11
-257.61393796
 21
431.63837012
 31
0.0
  0
LINE
  5
31E
100
AcDbEntity
  8
ZUWAKU
  6
CONTINUOUS
 62
      43
100
AcDbLine
 10
-261.375
 20
427.87730808
 30
0.0
 11
-264.92643796
 21
424.32587012
 31
0.0
  0
LINE
  5
31F
100
AcDbEntity
  8
ZUWAKU
  6
CONTINUOUS
 62
      43
100
AcDbLine
 10
-253.47415675
 20
436.62667946
 30
0.0
 11
-258.4624661
 21
431.63837012
 31
0.0
  0
LINE
  5
320
100
AcDbEntity
  8
ZUWAKU
  6
CONTINUOUS
 62
      43
100
AcDbLine
 10
-261.375
 20
428.72583622
 30
0.0
 11
-265.7749661
 21
424.32587012
 31
0.0
  0
LINE
  5
321
100
AcDbEntity
  8
ZUWAKU
  6
CONTINUOUS
 62
      43
100
AcDbLine
 10
-254.71199672
 20
436.23736763
 30
0.0
 11
-259.31099424
 21
431.63837012
 31
0.0
  0
LINE
  5
322
100
AcDbEntity
  8
ZUWAKU
  6
CONTINUOUS
 62
      43
100
AcDbLine
 10
-261.375
 20
429.57436435
 30
0.0
 11
-266.62349424
 21
424.32587012
 31
0.0
  0
LINE
  5
323
100
AcDbEntity
  8
ZUWAKU
  6
CONTINUOUS
 62
      43
100
AcDbLine
 10
-256.00369446
 20
435.79419803
 30
0.0
 11
-260.15952237
 21
431.63837012
 31
0.0
  0
LINE
  5
324
100
AcDbEntity
  8
ZUWAKU
  6
CONTINUOUS
 62
      43
100
AcDbLine
 10
-261.375
 20
430.42289249
 30
0.0
 11
-267.47202237
 21
424.32587012
 31
0.0
  0
LINE
  5
325
100
AcDbEntity
  8
ZUWAKU
  6
CONTINUOUS
 62
      43
100
AcDbLine
 10
-257.36502933
 20
435.2813913
 30
0.0
 11
-261.00805051
 21
431.63837012
 31
0.0
  0
LINE
  5
326
100
AcDbEntity
  8
ZUWAKU
  6
CONTINUOUS
 62
      43
100
AcDbLine
 10
-261.375
 20
431.27142063
 30
0.0
 11
-268.32055051
 21
424.32587012
 31
0.0
  0
LINE
  5
327
100
AcDbEntity
  8
ZUWAKU
  6
CONTINUOUS
 62
      43
100
AcDbLine
 10
-258.82222262
 20
434.67272614
 30
0.0
 11
-268.86169004
 21
424.63325872
 31
0.0
  0
LINE
  5
328
100
AcDbEntity
  8
ZUWAKU
  6
CONTINUOUS
 62
      43
100
AcDbLine
 10
-260.42543332
 20
433.91804359
 30
0.0
 11
-268.71776554
 21
425.62571136
 31
0.0
  0
LINE
  5
329
100
AcDbEntity
  8
ZUWAKU
  6
CONTINUOUS
 62
      43
100
AcDbLine
 10
-262.29954749
 20
432.89245755
 30
0.0
 11
-268.30293756
 21
426.88906748
 31
0.0
  0
LINE
  5
32A
100
AcDbEntity
  8
ZUWAKU
  6
CONTINUOUS
 62
      43
100
AcDbLine
 10
-265.22084527
 20
430.81968791
 30
0.0
 11
-266.84092598
 21
429.1996072
 31
0.0
  0
LINE
  5
32B
100
AcDbEntity
  8
ZUWAKU
  6
CONTINUOUS
 62
      43
100
AcDbLine
 10
-233.47282666
 20
439.65744681
 30
0.0
 11
-241.49190335
 21
431.63837012
 31
0.0
  0
LINE
  5
32C
100
AcDbEntity
  8
ZUWAKU
  6
CONTINUOUS
 62
      43
100
AcDbLine
 10
-232.6012566
 20
439.68048873
 30
0.0
 11
-240.64337521
 21
431.63837012
 31
0.0
  0
LINE
  5
32D
100
AcDbEntity
  8
ZUWAKU
  6
CONTINUOUS
 62
      43
100
AcDbLine
 10
-231.73782257
 20
439.69539462
 30
0.0
 11
-239.79484707
 21
431.63837012
 31
0.0
  0
LINE
  5
32E
100
AcDbEntity
  8
ZUWAKU
  6
CONTINUOUS
 62
      43
100
AcDbLine
 10
-230.88227828
 20
439.70241078
 30
0.0
 11
-238.94631894
 21
431.63837012
 31
0.0
  0
LINE
  5
32F
100
AcDbEntity
  8
ZUWAKU
  6
CONTINUOUS
 62
      43
100
AcDbLine
 10
-230.03440096
 20
439.70175995
 30
0.0
 11
-238.0977908
 21
431.63837012
 31
0.0
  0
LINE
  5
330
100
AcDbEntity
  8
ZUWAKU
  6
CONTINUOUS
 62
      43
100
AcDbLine
 10
-229.19398901
 20
439.69364377
 30
0.0
 11
-237.24926266
 21
431.63837012
 31
0.0
  0
LINE
  5
331
100
AcDbEntity
  8
ZUWAKU
  6
CONTINUOUS
 62
      43
100
AcDbLine
 10
-228.36085989
 20
439.67824476
 30
0.0
 11
-236.40073452
 21
431.63837012
 31
0.0
  0
LINE
  5
332
100
AcDbEntity
  8
ZUWAKU
  6
CONTINUOUS
 62
      43
100
AcDbLine
 10
-227.53484842
 20
439.65572808
 30
0.0
 11
-235.55220639
 21
431.63837012
 31
0.0
  0
LINE
  5
333
100
AcDbEntity
  8
ZUWAKU
  6
CONTINUOUS
 62
      43
100
AcDbLine
 10
-226.71580525
 20
439.62624311
 30
0.0
 11
-234.70367825
 21
431.63837012
 31
0.0
  0
LINE
  5
334
100
AcDbEntity
  8
ZUWAKU
  6
CONTINUOUS
 62
      43
100
AcDbLine
 10
-225.90359554
 20
439.58992469
 30
0.0
 11
-233.85515011
 21
431.63837012
 31
0.0
  0
LINE
  5
335
100
AcDbEntity
  8
ZUWAKU
  6
CONTINUOUS
 62
      43
100
AcDbLine
 10
-225.09809783
 20
439.54689426
 30
0.0
 11
-233.00662197
 21
431.63837012
 31
0.0
  0
LINE
  5
336
100
AcDbEntity
  8
ZUWAKU
  6
CONTINUOUS
 62
      43
100
AcDbLine
 10
-224.29920306
 20
439.49726089
 30
0.0
 11
-232.15809384
 21
431.63837012
 31
0.0
  0
LINE
  5
337
100
AcDbEntity
  8
ZUWAKU
  6
CONTINUOUS
 62
      43
100
AcDbLine
 10
-223.50681372
 20
439.4411221
 30
0.0
 11
-231.3095657
 21
431.63837012
 31
0.0
  0
LINE
  5
338
100
AcDbEntity
  8
ZUWAKU
  6
CONTINUOUS
 62
      43
100
AcDbLine
 10
-222.7208431
 20
439.37856458
 30
0.0
 11
-230.46103756
 21
431.63837012
 31
0.0
  0
LINE
  5
339
100
AcDbEntity
  8
ZUWAKU
  6
CONTINUOUS
 62
      43
100
AcDbLine
 10
-221.94121468
 20
439.30966486
 30
0.0
 11
-229.61250943
 21
431.63837012
 31
0.0
  0
LINE
  5
33A
100
AcDbEntity
  8
ZUWAKU
  6
CONTINUOUS
 62
      43
100
AcDbLine
 10
-221.16786158
 20
439.23448983
 30
0.0
 11
-228.76398129
 21
431.63837012
 31
0.0
  0
LINE
  5
33B
100
AcDbEntity
  8
ZUWAKU
  6
CONTINUOUS
 62
      43
100
AcDbLine
 10
-220.40072607
 20
439.1530972
 30
0.0
 11
-227.91545315
 21
431.63837012
 31
0.0
  0
LINE
  5
33C
100
AcDbEntity
  8
ZUWAKU
  6
CONTINUOUS
 62
      43
100
AcDbLine
 10
-219.6397592
 20
439.06553593
 30
0.0
 11
-227.06692501
 21
431.63837012
 31
0.0
  0
LINE
  5
33D
100
AcDbEntity
  8
ZUWAKU
  6
CONTINUOUS
 62
      43
100
AcDbLine
 10
-218.88492046
 20
438.97184653
 30
0.0
 11
-226.21839688
 21
431.63837012
 31
0.0
  0
LINE
  5
33E
100
AcDbEntity
  8
ZUWAKU
  6
CONTINUOUS
 62
      43
100
AcDbLine
 10
-218.13617754
 20
438.87206132
 30
0.0
 11
-225.36986874
 21
431.63837012
 31
0.0
  0
LINE
  5
33F
100
AcDbEntity
  8
ZUWAKU
  6
CONTINUOUS
 62
      43
100
AcDbLine
 10
-217.39350608
 20
438.76620464
 30
0.0
 11
-224.5213406
 21
431.63837012
 31
0.0
  0
LINE
  5
340
100
AcDbEntity
  8
ZUWAKU
  6
CONTINUOUS
 62
      43
100
AcDbLine
 10
-216.65688956
 20
438.65429303
 30
0.0
 11
-223.67281246
 21
431.63837012
 31
0.0
  0
LINE
  5
341
100
AcDbEntity
  8
ZUWAKU
  6
CONTINUOUS
 62
      43
100
AcDbLine
 10
-215.92631913
 20
438.53633531
 30
0.0
 11
-222.82428433
 21
431.63837012
 31
0.0
  0
LINE
  5
342
100
AcDbEntity
  8
ZUWAKU
  6
CONTINUOUS
 62
      43
100
AcDbLine
 10
-215.20179364
 20
438.41233267
 30
0.0
 11
-221.97575619
 21
431.63837012
 31
0.0
  0
LINE
  5
343
100
AcDbEntity
  8
ZUWAKU
  6
CONTINUOUS
 62
      43
100
AcDbLine
 10
-214.48331955
 20
438.28227862
 30
0.0
 11
-221.12722805
 21
431.63837012
 31
0.0
  0
LINE
  5
344
100
AcDbEntity
  8
ZUWAKU
  6
CONTINUOUS
 62
      43
100
AcDbLine
 10
-213.77091102
 20
438.14615901
 30
0.0
 11
-220.27869991
 21
431.63837012
 31
0.0
  0
LINE
  5
345
100
AcDbEntity
  8
ZUWAKU
  6
CONTINUOUS
 62
      43
100
AcDbLine
 10
-213.06459
 20
438.00395189
 30
0.0
 11
-219.43017178
 21
431.63837012
 31
0.0
  0
LINE
  5
346
100
AcDbEntity
  8
ZUWAKU
  6
CONTINUOUS
 62
      43
100
AcDbLine
 10
-212.36438634
 20
437.85562741
 30
0.0
 11
-218.58164364
 21
431.63837012
 31
0.0
  0
LINE
  5
347
100
AcDbEntity
  8
ZUWAKU
  6
CONTINUOUS
 62
      43
100
AcDbLine
 10
-211.67033801
 20
437.70114761
 30
0.0
 11
-217.7331155
 21
431.63837012
 31
0.0
  0
LINE
  5
348
100
AcDbEntity
  8
ZUWAKU
  6
CONTINUOUS
 62
      43
100
AcDbLine
 10
-210.98249133
 20
437.54046616
 30
0.0
 11
-216.88458736
 21
431.63837012
 31
0.0
  0
LINE
  5
349
100
AcDbEntity
  8
ZUWAKU
  6
CONTINUOUS
 62
      43
100
AcDbLine
 10
-210.30090129
 20
437.37352806
 30
0.0
 11
-216.03605923
 21
431.63837012
 31
0.0
  0
LINE
  5
34A
100
AcDbEntity
  8
ZUWAKU
  6
CONTINUOUS
 62
      43
100
AcDbLine
 10
-209.62563193
 20
437.20026928
 30
0.0
 11
-215.18753109
 21
431.63837012
 31
0.0
  0
LINE
  5
34B
100
AcDbEntity
  8
ZUWAKU
  6
CONTINUOUS
 62
      43
100
AcDbLine
 10
-208.95675676
 20
437.02061631
 30
0.0
 11
-214.33900295
 21
431.63837012
 31
0.0
  0
LINE
  5
34C
100
AcDbEntity
  8
ZUWAKU
  6
CONTINUOUS
 62
      43
100
AcDbLine
 10
-208.2943593
 20
436.83448564
 30
0.0
 11
-213.49047481
 21
431.63837012
 31
0.0
  0
LINE
  5
34D
100
AcDbEntity
  8
ZUWAKU
  6
CONTINUOUS
 62
      43
100
AcDbLine
 10
-207.63853366
 20
436.64178314
 30
0.0
 11
-212.64194668
 21
431.63837012
 31
0.0
  0
LINE
  5
34E
100
AcDbEntity
  8
ZUWAKU
  6
CONTINUOUS
 62
      43
100
AcDbLine
 10
-206.98938527
 20
436.44240338
 30
0.0
 11
-211.79341854
 21
431.63837012
 31
0.0
  0
LINE
  5
34F
100
AcDbEntity
  8
ZUWAKU
  6
CONTINUOUS
 62
      43
100
AcDbLine
 10
-206.3470317
 20
436.23622882
 30
0.0
 11
-210.9448904
 21
431.63837012
 31
0.0
  0
LINE
  5
350
100
AcDbEntity
  8
ZUWAKU
  6
CONTINUOUS
 62
      43
100
AcDbLine
 10
-205.71160357
 20
436.02312881
 30
0.0
 11
-210.09636226
 21
431.63837012
 31
0.0
  0
LINE
  5
351
100
AcDbEntity
  8
ZUWAKU
  6
CONTINUOUS
 62
      43
100
AcDbLine
 10
-205.08324564
 20
435.8029586
 30
0.0
 11
-209.24783413
 21
431.63837012
 31
0.0
  0
LINE
  5
352
100
AcDbEntity
  8
ZUWAKU
  6
CONTINUOUS
 62
      43
100
AcDbLine
 10
-204.46211809
 20
435.57555802
 30
0.0
 11
-208.39930599
 21
431.63837012
 31
0.0
  0
LINE
  5
353
100
AcDbEntity
  8
ZUWAKU
  6
CONTINUOUS
 62
      43
100
AcDbLine
 10
-203.84839795
 20
435.34075002
 30
0.0
 11
-207.55077785
 21
431.63837012
 31
0.0
  0
LINE
  5
354
100
AcDbEntity
  8
ZUWAKU
  6
CONTINUOUS
 62
      43
100
AcDbLine
 10
-203.24228077
 20
435.09833906
 30
0.0
 11
-206.70224971
 21
431.63837012
 31
0.0
  0
LINE
  5
355
100
AcDbEntity
  8
ZUWAKU
  6
CONTINUOUS
 62
      43
100
AcDbLine
 10
-202.64398259
 20
434.8481091
 30
0.0
 11
-205.85372158
 21
431.63837012
 31
0.0
  0
LINE
  5
356
100
AcDbEntity
  8
ZUWAKU
  6
CONTINUOUS
 62
      43
100
AcDbLine
 10
-202.05374221
 20
434.58982135
 30
0.0
 11
-205.00519344
 21
431.63837012
 31
0.0
  0
LINE
  5
357
100
AcDbEntity
  8
ZUWAKU
  6
CONTINUOUS
 62
      43
100
AcDbLine
 10
-201.47182383
 20
434.32321159
 30
0.0
 11
-204.1566653
 21
431.63837012
 31
0.0
  0
LINE
  5
358
100
AcDbEntity
  8
ZUWAKU
  6
CONTINUOUS
 62
      43
100
AcDbLine
 10
-200.89852019
 20
434.04798709
 30
0.0
 11
-203.30813717
 21
431.63837012
 31
0.0
  0
LINE
  5
359
100
AcDbEntity
  8
ZUWAKU
  6
CONTINUOUS
 62
      43
100
AcDbLine
 10
-200.33415628
 20
433.76382286
 30
0.0
 11
-202.45960903
 21
431.63837012
 31
0.0
  0
LINE
  5
35A
100
AcDbEntity
  8
ZUWAKU
  6
CONTINUOUS
 62
      43
100
AcDbLine
 10
-199.77909371
 20
433.4703573
 30
0.0
 11
-201.61108089
 21
431.63837012
 31
0.0
  0
LINE
  5
35B
100
AcDbEntity
  8
ZUWAKU
  6
CONTINUOUS
 62
      43
100
AcDbLine
 10
-199.23373593
 20
433.16718694
 30
0.0
 11
-200.76255275
 21
431.63837012
 31
0.0
  0
LINE
  5
35C
100
AcDbEntity
  8
ZUWAKU
  6
CONTINUOUS
 62
      43
100
AcDbLine
 10
-198.69853459
 20
432.85386015
 30
0.0
 11
-199.91402462
 21
431.63837012
 31
0.0
  0
LINE
  5
35D
100
AcDbEntity
  8
ZUWAKU
  6
CONTINUOUS
 62
      43
100
AcDbLine
 10
-198.17399715
 20
432.52986944
 30
0.0
 11
-199.5
 21
431.2038666
 31
0.0
  0
LINE
  5
35E
100
AcDbEntity
  8
ZUWAKU
  6
CONTINUOUS
 62
      43
100
AcDbLine
 10
-197.66069628
 20
432.19464218
 30
0.0
 11
-199.5
 21
430.35533846
 31
0.0
  0
LINE
  5
35F
100
AcDbEntity
  8
ZUWAKU
  6
CONTINUOUS
 62
      43
100
AcDbLine
 10
-197.15928137
 20
431.84752895
 30
0.0
 11
-199.5
 21
429.50681032
 31
0.0
  0
LINE
  5
360
100
AcDbEntity
  8
ZUWAKU
  6
CONTINUOUS
 62
      43
100
AcDbLine
 10
-196.67049297
 20
431.48778921
 30
0.0
 11
-199.5
 21
428.65828218
 31
0.0
  0
LINE
  5
361
100
AcDbEntity
  8
ZUWAKU
  6
CONTINUOUS
 62
      43
100
AcDbLine
 10
-196.19518096
 20
431.11457309
 30
0.0
 11
-199.5
 21
427.80975405
 31
0.0
  0
LINE
  5
362
100
AcDbEntity
  8
ZUWAKU
  6
CONTINUOUS
 62
      43
100
AcDbLine
 10
-195.73432777
 20
430.72689814
 30
0.0
 11
-199.5
 21
426.96122591
 31
0.0
  0
LINE
  5
363
100
AcDbEntity
  8
ZUWAKU
  6
CONTINUOUS
 62
      43
100
AcDbLine
 10
-195.28907846
 20
430.32361931
 30
0.0
 11
-199.5
 21
426.11269777
 31
0.0
  0
LINE
  5
364
100
AcDbEntity
  8
ZUWAKU
  6
CONTINUOUS
 62
      43
100
AcDbLine
 10
-194.86078041
 20
429.90338923
 30
0.0
 11
-199.5
 21
425.26416963
 31
0.0
  0
LINE
  5
365
100
AcDbEntity
  8
ZUWAKU
  6
CONTINUOUS
 62
      43
100
AcDbLine
 10
-194.45103642
 20
429.46460507
 30
0.0
 11
-199.5
 21
424.4156415
 31
0.0
  0
LINE
  5
366
100
AcDbEntity
  8
ZUWAKU
  6
CONTINUOUS
 62
      43
100
AcDbLine
 10
-194.06177762
 20
429.00533574
 30
0.0
 11
-198.74124324
 21
424.32587012
 31
0.0
  0
LINE
  5
367
100
AcDbEntity
  8
ZUWAKU
  6
CONTINUOUS
 62
      43
100
AcDbLine
 10
-193.69536559
 20
428.52321963
 30
0.0
 11
-197.8927151
 21
424.32587012
 31
0.0
  0
LINE
  5
368
100
AcDbEntity
  8
ZUWAKU
  6
CONTINUOUS
 62
      43
100
AcDbLine
 10
-193.35474
 20
428.01531709
 30
0.0
 11
-197.04418697
 21
424.32587012
 31
0.0
  0
LINE
  5
369
100
AcDbEntity
  8
ZUWAKU
  6
CONTINUOUS
 62
      43
100
AcDbLine
 10
-193.04363883
 20
427.47789012
 30
0.0
 11
-196.19565883
 21
424.32587012
 31
0.0
  0
LINE
  5
36A
100
AcDbEntity
  8
ZUWAKU
  6
CONTINUOUS
 62
      43
100
AcDbLine
 10
-192.76694088
 20
426.90605993
 30
0.0
 11
-195.34713069
 21
424.32587012
 31
0.0
  0
LINE
  5
36B
100
AcDbEntity
  8
ZUWAKU
  6
CONTINUOUS
 62
      43
100
AcDbLine
 10
-192.53122541
 20
426.29324726
 30
0.0
 11
-194.49860255
 21
424.32587012
 31
0.0
  0
LINE
  5
36C
100
AcDbEntity
  8
ZUWAKU
  6
CONTINUOUS
 62
      43
100
AcDbLine
 10
-192.34574593
 20
425.63019861
 30
0.0
 11
-193.65007442
 21
424.32587012
 31
0.0
  0
LINE
  5
36D
100
AcDbEntity
  8
ZUWAKU
  6
CONTINUOUS
 62
      43
100
AcDbLine
 10
-192.2242701
 20
424.9031463
 30
0.0
 11
-192.80154628
 21
424.32587012
 31
0.0
  0
LINE
  5
36E
100
AcDbEntity
  8
ZUWAKU
  6
CONTINUOUS
 62
      43
100
AcDbLine
 10
-218.62168237
 20
417.01337012
 30
0.0
 11
-226.81425157
 21
408.82080092
 31
0.0
  0
LINE
  5
36F
100
AcDbEntity
  8
ZUWAKU
  6
CONTINUOUS
 62
      43
100
AcDbLine
 10
-219.47021051
 20
417.01337012
 30
0.0
 11
-227.6932203
 21
408.79036032
 31
0.0
  0
LINE
  5
370
100
AcDbEntity
  8
ZUWAKU
  6
CONTINUOUS
 62
      43
100
AcDbLine
 10
-220.31873865
 20
417.01337012
 30
0.0
 11
-228.56381412
 21
408.76829464
 31
0.0
  0
LINE
  5
371
100
AcDbEntity
  8
ZUWAKU
  6
CONTINUOUS
 62
      43
100
AcDbLine
 10
-221.16726678
 20
417.01337012
 30
0.0
 11
-229.42630237
 21
408.75433453
 31
0.0
  0
LINE
  5
372
100
AcDbEntity
  8
ZUWAKU
  6
CONTINUOUS
 62
      43
100
AcDbLine
 10
-222.01579492
 20
417.01337012
 30
0.0
 11
-230.28092841
 21
408.74823663
 31
0.0
  0
LINE
  5
373
100
AcDbEntity
  8
ZUWAKU
  6
CONTINUOUS
 62
      43
100
AcDbLine
 10
-222.86432306
 20
417.01337012
 30
0.0
 11
-231.12791238
 21
408.7497808
 31
0.0
  0
LINE
  5
374
100
AcDbEntity
  8
ZUWAKU
  6
CONTINUOUS
 62
      43
100
AcDbLine
 10
-223.71285119
 20
417.01337012
 30
0.0
 11
-231.96745355
 21
408.75876776
 31
0.0
  0
LINE
  5
375
100
AcDbEntity
  8
ZUWAKU
  6
CONTINUOUS
 62
      43
100
AcDbLine
 10
-224.56137933
 20
417.01337012
 30
0.0
 11
-232.7997323
 21
408.77501715
 31
0.0
  0
LINE
  5
376
100
AcDbEntity
  8
ZUWAKU
  6
CONTINUOUS
 62
      43
100
AcDbLine
 10
-225.40990747
 20
417.01337012
 30
0.0
 11
-233.62491186
 21
408.79836573
 31
0.0
  0
LINE
  5
377
100
AcDbEntity
  8
ZUWAKU
  6
CONTINUOUS
 62
      43
100
AcDbLine
 10
-226.25843561
 20
417.01337012
 30
0.0
 11
-234.44313981
 21
408.82866592
 31
0.0
  0
LINE
  5
378
100
AcDbEntity
  8
ZUWAKU
  6
CONTINUOUS
 62
      43
100
AcDbLine
 10
-227.10696374
 20
417.01337012
 30
0.0
 11
-235.25454935
 21
408.86578451
 31
0.0
  0
LINE
  5
379
100
AcDbEntity
  8
ZUWAKU
  6
CONTINUOUS
 62
      43
100
AcDbLine
 10
-227.95549188
 20
417.01337012
 30
0.0
 11
-236.05926042
 21
408.90960158
 31
0.0
  0
LINE
  5
37A
100
AcDbEntity
  8
ZUWAKU
  6
CONTINUOUS
 62
      43
100
AcDbLine
 10
-228.80402002
 20
417.01337012
 30
0.0
 11
-236.85738068
 21
408.96000946
 31
0.0
  0
LINE
  5
37B
100
AcDbEntity
  8
ZUWAKU
  6
CONTINUOUS
 62
      43
100
AcDbLine
 10
-229.65254816
 20
417.01337012
 30
0.0
 11
-237.64900632
 21
409.01691196
 31
0.0
  0
LINE
  5
37C
100
AcDbEntity
  8
ZUWAKU
  6
CONTINUOUS
 62
      43
100
AcDbLine
 10
-230.50107629
 20
417.01337012
 30
0.0
 11
-238.4342228
 21
409.08022361
 31
0.0
  0
LINE
  5
37D
100
AcDbEntity
  8
ZUWAKU
  6
CONTINUOUS
 62
      43
100
AcDbLine
 10
-231.34960443
 20
417.01337012
 30
0.0
 11
-239.21310549
 21
409.14986906
 31
0.0
  0
LINE
  5
37E
100
AcDbEntity
  8
ZUWAKU
  6
CONTINUOUS
 62
      43
100
AcDbLine
 10
-232.19813257
 20
417.01337012
 30
0.0
 11
-239.98572016
 21
409.22578253
 31
0.0
  0
LINE
  5
37F
100
AcDbEntity
  8
ZUWAKU
  6
CONTINUOUS
 62
      43
100
AcDbLine
 10
-233.04666071
 20
417.01337012
 30
0.0
 11
-240.75212348
 21
409.30790734
 31
0.0
  0
LINE
  5
380
100
AcDbEntity
  8
ZUWAKU
  6
CONTINUOUS
 62
      43
100
AcDbLine
 10
-233.89518884
 20
417.01337012
 30
0.0
 11
-241.5123634
 21
409.39619557
 31
0.0
  0
LINE
  5
381
100
AcDbEntity
  8
ZUWAKU
  6
CONTINUOUS
 62
      43
100
AcDbLine
 10
-234.74371698
 20
417.01337012
 30
0.0
 11
-242.26647942
 21
409.49060768
 31
0.0
  0
LINE
  5
382
100
AcDbEntity
  8
ZUWAKU
  6
CONTINUOUS
 62
      43
100
AcDbLine
 10
-235.59224512
 20
417.01337012
 30
0.0
 11
-243.01450292
 21
409.59111232
 31
0.0
  0
LINE
  5
383
100
AcDbEntity
  8
ZUWAKU
  6
CONTINUOUS
 62
      43
100
AcDbLine
 10
-236.44077326
 20
417.01337012
 30
0.0
 11
-243.75645731
 21
409.69768606
 31
0.0
  0
LINE
  5
384
100
AcDbEntity
  8
ZUWAKU
  6
CONTINUOUS
 62
      43
100
AcDbLine
 10
-237.28930139
 20
417.01337012
 30
0.0
 11
-244.49235823
 21
409.81031329
 31
0.0
  0
LINE
  5
385
100
AcDbEntity
  8
ZUWAKU
  6
CONTINUOUS
 62
      43
100
AcDbLine
 10
-238.13782953
 20
417.01337012
 30
0.0
 11
-245.22221357
 21
409.92898608
 31
0.0
  0
LINE
  5
386
100
AcDbEntity
  8
ZUWAKU
  6
CONTINUOUS
 62
      43
100
AcDbLine
 10
-238.98635767
 20
417.01337012
 30
0.0
 11
-245.94602362
 21
410.05370417
 31
0.0
  0
LINE
  5
387
100
AcDbEntity
  8
ZUWAKU
  6
CONTINUOUS
 62
      43
100
AcDbLine
 10
-239.83488581
 20
417.01337012
 30
0.0
 11
-246.66378099
 21
410.18447493
 31
0.0
  0
LINE
  5
388
100
AcDbEntity
  8
ZUWAKU
  6
CONTINUOUS
 62
      43
100
AcDbLine
 10
-240.68341394
 20
417.01337012
 30
0.0
 11
-247.37547061
 21
410.32131345
 31
0.0
  0
LINE
  5
389
100
AcDbEntity
  8
ZUWAKU
  6
CONTINUOUS
 62
      43
100
AcDbLine
 10
-241.53194208
 20
417.01337012
 30
0.0
 11
-248.08106961
 21
410.46424259
 31
0.0
  0
LINE
  5
38A
100
AcDbEntity
  8
ZUWAKU
  6
CONTINUOUS
 62
      43
100
AcDbLine
 10
-242.38047022
 20
417.01337012
 30
0.0
 11
-248.78054718
 21
410.61329315
 31
0.0
  0
LINE
  5
38B
100
AcDbEntity
  8
ZUWAKU
  6
CONTINUOUS
 62
      43
100
AcDbLine
 10
-243.22899836
 20
417.01337012
 30
0.0
 11
-249.47386439
 21
410.76850408
 31
0.0
  0
LINE
  5
38C
100
AcDbEntity
  8
ZUWAKU
  6
CONTINUOUS
 62
      43
100
AcDbLine
 10
-244.07752649
 20
417.01337012
 30
0.0
 11
-250.1609739
 21
410.92992271
 31
0.0
  0
LINE
  5
38D
100
AcDbEntity
  8
ZUWAKU
  6
CONTINUOUS
 62
      43
100
AcDbLine
 10
-244.92605463
 20
417.01337012
 30
0.0
 11
-250.84181967
 21
411.09760508
 31
0.0
  0
LINE
  5
38E
100
AcDbEntity
  8
ZUWAKU
  6
CONTINUOUS
 62
      43
100
AcDbLine
 10
-245.77458277
 20
417.01337012
 30
0.0
 11
-251.51633657
 21
411.27161632
 31
0.0
  0
LINE
  5
38F
100
AcDbEntity
  8
ZUWAKU
  6
CONTINUOUS
 62
      43
100
AcDbLine
 10
-246.62311091
 20
417.01337012
 30
0.0
 11
-252.18444993
 21
411.4520311
 31
0.0
  0
LINE
  5
390
100
AcDbEntity
  8
ZUWAKU
  6
CONTINUOUS
 62
      43
100
AcDbLine
 10
-247.47163904
 20
417.01337012
 30
0.0
 11
-252.84607501
 21
411.63893415
 31
0.0
  0
LINE
  5
391
100
AcDbEntity
  8
ZUWAKU
  6
CONTINUOUS
 62
      43
100
AcDbLine
 10
-248.32016718
 20
417.01337012
 30
0.0
 11
-253.5011164
 21
411.83242089
 31
0.0
  0
LINE
  5
392
100
AcDbEntity
  8
ZUWAKU
  6
CONTINUOUS
 62
      43
100
AcDbLine
 10
-249.16869532
 20
417.01337012
 30
0.0
 11
-254.14946728
 21
412.03259816
 31
0.0
  0
LINE
  5
393
100
AcDbEntity
  8
ZUWAKU
  6
CONTINUOUS
 62
      43
100
AcDbLine
 10
-250.01722346
 20
417.01337012
 30
0.0
 11
-254.79100859
 21
412.23958498
 31
0.0
  0
LINE
  5
394
100
AcDbEntity
  8
ZUWAKU
  6
CONTINUOUS
 62
      43
100
AcDbLine
 10
-250.86575159
 20
417.01337012
 30
0.0
 11
-255.4256081
 21
412.45351361
 31
0.0
  0
LINE
  5
395
100
AcDbEntity
  8
ZUWAKU
  6
CONTINUOUS
 62
      43
100
AcDbLine
 10
-251.71427973
 20
417.01337012
 30
0.0
 11
-256.05311928
 21
412.67453057
 31
0.0
  0
LINE
  5
396
100
AcDbEntity
  8
ZUWAKU
  6
CONTINUOUS
 62
      43
100
AcDbLine
 10
-252.56280787
 20
417.01337012
 30
0.0
 11
-256.67338005
 21
412.90279794
 31
0.0
  0
LINE
  5
397
100
AcDbEntity
  8
ZUWAKU
  6
CONTINUOUS
 62
      43
100
AcDbLine
 10
-253.411336
 20
417.01337012
 30
0.0
 11
-257.28621128
 21
413.13849485
 31
0.0
  0
LINE
  5
398
100
AcDbEntity
  8
ZUWAKU
  6
CONTINUOUS
 62
      43
100
AcDbLine
 10
-254.25986414
 20
417.01337012
 30
0.0
 11
-257.89141509
 21
413.38181917
 31
0.0
  0
LINE
  5
399
100
AcDbEntity
  8
ZUWAKU
  6
CONTINUOUS
 62
      43
100
AcDbLine
 10
-255.10839228
 20
417.01337012
 30
0.0
 11
-258.48877289
 21
413.63298951
 31
0.0
  0
LINE
  5
39A
100
AcDbEntity
  8
ZUWAKU
  6
CONTINUOUS
 62
      43
100
AcDbLine
 10
-255.95692042
 20
417.01337012
 30
0.0
 11
-259.07804301
 21
413.89224752
 31
0.0
  0
LINE
  5
39B
100
AcDbEntity
  8
ZUWAKU
  6
CONTINUOUS
 62
      43
100
AcDbLine
 10
-256.80544855
 20
417.01337012
 30
0.0
 11
-259.65895806
 21
414.15986061
 31
0.0
  0
LINE
  5
39C
100
AcDbEntity
  8
ZUWAKU
  6
CONTINUOUS
 62
      43
100
AcDbLine
 10
-257.65397669
 20
417.01337012
 30
0.0
 11
-260.23122167
 21
414.43612514
 31
0.0
  0
LINE
  5
39D
100
AcDbEntity
  8
ZUWAKU
  6
CONTINUOUS
 62
      43
100
AcDbLine
 10
-258.50250483
 20
417.01337012
 30
0.0
 11
-260.79450478
 21
414.72137017
 31
0.0
  0
LINE
  5
39E
100
AcDbEntity
  8
ZUWAKU
  6
CONTINUOUS
 62
      43
100
AcDbLine
 10
-259.35103297
 20
417.01337012
 30
0.0
 11
-261.34844111
 21
415.01596198
 31
0.0
  0
LINE
  5
39F
100
AcDbEntity
  8
ZUWAKU
  6
CONTINUOUS
 62
      43
100
AcDbLine
 10
-260.1995611
 20
417.01337012
 30
0.0
 11
-261.89262186
 21
415.32030936
 31
0.0
  0
LINE
  5
3A0
100
AcDbEntity
  8
ZUWAKU
  6
CONTINUOUS
 62
      43
100
AcDbLine
 10
-261.04808924
 20
417.01337012
 30
0.0
 11
-262.42658922
 21
415.63487014
 31
0.0
  0
LINE
  5
3A1
100
AcDbEntity
  8
ZUWAKU
  6
CONTINUOUS
 62
      43
100
AcDbLine
 10
-261.375
 20
417.5349875
 30
0.0
 11
-262.94982852
 21
415.96015898
 31
0.0
  0
LINE
  5
3A2
100
AcDbEntity
  8
ZUWAKU
  6
CONTINUOUS
 62
      43
100
AcDbLine
 10
-261.375
 20
418.38351564
 30
0.0
 11
-263.46175868
 21
416.29675695
 31
0.0
  0
LINE
  5
3A3
100
AcDbEntity
  8
ZUWAKU
  6
CONTINUOUS
 62
      43
100
AcDbLine
 10
-261.375
 20
419.23204377
 30
0.0
 11
-263.96172034
 21
416.64532344
 31
0.0
  0
LINE
  5
3A4
100
AcDbEntity
  8
ZUWAKU
  6
CONTINUOUS
 62
      43
100
AcDbLine
 10
-261.375
 20
420.08057191
 30
0.0
 11
-264.44896104
 21
417.00661087
 31
0.0
  0
LINE
  5
3A5
100
AcDbEntity
  8
ZUWAKU
  6
CONTINUOUS
 62
      43
100
AcDbLine
 10
-261.375
 20
420.92910005
 30
0.0
 11
-264.92261654
 21
417.3814835
 31
0.0
  0
LINE
  5
3A6
100
AcDbEntity
  8
ZUWAKU
  6
CONTINUOUS
 62
      43
100
AcDbLine
 10
-261.375
 20
421.77762818
 30
0.0
 11
-265.38168692
 21
417.77094127
 31
0.0
  0
LINE
  5
3A7
100
AcDbEntity
  8
ZUWAKU
  6
CONTINUOUS
 62
      43
100
AcDbLine
 10
-261.375
 20
422.62615632
 30
0.0
 11
-265.82500544
 21
418.17615088
 31
0.0
  0
LINE
  5
3A8
100
AcDbEntity
  8
ZUWAKU
  6
CONTINUOUS
 62
      43
100
AcDbLine
 10
-261.375
 20
423.47468446
 30
0.0
 11
-266.25119761
 21
418.59848685
 31
0.0
  0
LINE
  5
3A9
100
AcDbEntity
  8
ZUWAKU
  6
CONTINUOUS
 62
      43
100
AcDbLine
 10
-261.37234248
 20
424.32587012
 30
0.0
 11
-266.65862605
 21
419.03958655
 31
0.0
  0
LINE
  5
3AA
100
AcDbEntity
  8
ZUWAKU
  6
CONTINUOUS
 62
      43
100
AcDbLine
 10
-262.22087062
 20
424.32587012
 30
0.0
 11
-267.04531473
 21
419.501426
 31
0.0
  0
LINE
  5
3AB
100
AcDbEntity
  8
ZUWAKU
  6
CONTINUOUS
 62
      43
100
AcDbLine
 10
-263.06939875
 20
424.32587012
 30
0.0
 11
-267.40884248
 21
419.98642639
 31
0.0
  0
LINE
  5
3AC
100
AcDbEntity
  8
ZUWAKU
  6
CONTINUOUS
 62
      43
100
AcDbLine
 10
-263.91792689
 20
424.32587012
 30
0.0
 11
-267.74618848
 21
420.49760853
 31
0.0
  0
LINE
  5
3AD
100
AcDbEntity
  8
ZUWAKU
  6
CONTINUOUS
 62
      43
100
AcDbLine
 10
-264.76645503
 20
424.32587012
 30
0.0
 11
-268.05350075
 21
421.0388244
 31
0.0
  0
LINE
  5
3AE
100
AcDbEntity
  8
ZUWAKU
  6
CONTINUOUS
 62
      43
100
AcDbLine
 10
-265.61498317
 20
424.32587012
 30
0.0
 11
-268.32573416
 21
421.61511913
 31
0.0
  0
LINE
  5
3AF
100
AcDbEntity
  8
ZUWAKU
  6
CONTINUOUS
 62
      43
100
AcDbLine
 10
-266.4635113
 20
424.32587012
 30
0.0
 11
-268.55605507
 21
422.23332635
 31
0.0
  0
LINE
  5
3B0
100
AcDbEntity
  8
ZUWAKU
  6
CONTINUOUS
 62
      43
100
AcDbLine
 10
-267.31203944
 20
424.32587012
 30
0.0
 11
-268.73479635
 21
422.90311321
 31
0.0
  0
LINE
  5
3B1
100
AcDbEntity
  8
ZUWAKU
  6
CONTINUOUS
 62
      43
100
AcDbLine
 10
-268.16056758
 20
424.32587012
 30
0.0
 11
-268.8474603
 21
423.63897739
 31
0.0
  0
LINE
  5
3B2
100
AcDbEntity
  8
ZUWAKU
  6
CONTINUOUS
 62
      43
100
AcDbLine
 10
-217.77315423
 20
417.01337012
 30
0.0
 11
-225.92660941
 21
408.85991494
 31
0.0
  0
LINE
  5
3B3
100
AcDbEntity
  8
ZUWAKU
  6
CONTINUOUS
 62
      43
100
AcDbLine
 10
-216.9246261
 20
417.01337012
 30
0.0
 11
-225.02996229
 21
408.90803392
 31
0.0
  0
LINE
  5
3B4
100
AcDbEntity
  8
ZUWAKU
  6
CONTINUOUS
 62
      43
100
AcDbLine
 10
-216.07609796
 20
417.01337012
 30
0.0
 11
-224.12394115
 21
408.96552693
 31
0.0
  0
LINE
  5
3B5
100
AcDbEntity
  8
ZUWAKU
  6
CONTINUOUS
 62
      43
100
AcDbLine
 10
-215.22756982
 20
417.01337012
 30
0.0
 11
-223.20813395
 21
409.03280599
 31
0.0
  0
LINE
  5
3B6
100
AcDbEntity
  8
ZUWAKU
  6
CONTINUOUS
 62
      43
100
AcDbLine
 10
-214.37904168
 20
417.01337012
 30
0.0
 11
-222.28207916
 21
409.11033264
 31
0.0
  0
LINE
  5
3B7
100
AcDbEntity
  8
ZUWAKU
  6
CONTINUOUS
 62
      43
100
AcDbLine
 10
-213.53051355
 20
417.01337012
 30
0.0
 11
-221.34525781
 21
409.19862586
 31
0.0
  0
LINE
  5
3B8
100
AcDbEntity
  8
ZUWAKU
  6
CONTINUOUS
 62
      43
100
AcDbLine
 10
-212.68198541
 20
417.01337012
 30
0.0
 11
-220.39708371
 21
409.29827182
 31
0.0
  0
LINE
  5
3B9
100
AcDbEntity
  8
ZUWAKU
  6
CONTINUOUS
 62
      43
100
AcDbLine
 10
-211.83345727
 20
417.01337012
 30
0.0
 11
-219.43689149
 21
409.4099359
 31
0.0
  0
LINE
  5
3BA
100
AcDbEntity
  8
ZUWAKU
  6
CONTINUOUS
 62
      43
100
AcDbLine
 10
-210.98492913
 20
417.01337012
 30
0.0
 11
-218.46392152
 21
409.53437774
 31
0.0
  0
LINE
  5
3BB
100
AcDbEntity
  8
ZUWAKU
  6
CONTINUOUS
 62
      43
100
AcDbLine
 10
-210.136401
 20
417.01337012
 30
0.0
 11
-217.47730087
 21
409.67247025
 31
0.0
  0
LINE
  5
3BC
100
AcDbEntity
  8
ZUWAKU
  6
CONTINUOUS
 62
      43
100
AcDbLine
 10
-209.28787286
 20
417.01337012
 30
0.0
 11
-216.476019
 21
409.82522398
 31
0.0
  0
LINE
  5
3BD
100
AcDbEntity
  8
ZUWAKU
  6
CONTINUOUS
 62
      43
100
AcDbLine
 10
-208.43934472
 20
417.01337012
 30
0.0
 11
-215.45889608
 21
409.99381876
 31
0.0
  0
LINE
  5
3BE
100
AcDbEntity
  8
ZUWAKU
  6
CONTINUOUS
 62
      43
100
AcDbLine
 10
-207.59081658
 20
417.01337012
 30
0.0
 11
-214.42454114
 21
410.17964556
 31
0.0
  0
LINE
  5
3BF
100
AcDbEntity
  8
ZUWAKU
  6
CONTINUOUS
 62
      43
100
AcDbLine
 10
-199.42978845
 20
424.32587012
 30
0.0
 11
-199.5
 21
424.25565857
 31
0.0
  0
LINE
  5
3C0
100
AcDbEntity
  8
ZUWAKU
  6
CONTINUOUS
 62
      43
100
AcDbLine
 10
-206.74228845
 20
417.01337012
 30
0.0
 11
-213.37129578
 21
410.38436279
 31
0.0
  0
LINE
  5
3C1
100
AcDbEntity
  8
ZUWAKU
  6
CONTINUOUS
 62
      43
100
AcDbLine
 10
-198.58126031
 20
424.32587012
 30
0.0
 11
-199.5
 21
423.40713043
 31
0.0
  0
LINE
  5
3C2
100
AcDbEntity
  8
ZUWAKU
  6
CONTINUOUS
 62
      43
100
AcDbLine
 10
-205.89376031
 20
417.01337012
 30
0.0
 11
-212.29715663
 21
410.6099738
 31
0.0
  0
LINE
  5
3C3
100
AcDbEntity
  8
ZUWAKU
  6
CONTINUOUS
 62
      43
100
AcDbLine
 10
-197.73273217
 20
424.32587012
 30
0.0
 11
-199.5
 21
422.55860229
 31
0.0
  0
LINE
  5
3C4
100
AcDbEntity
  8
ZUWAKU
  6
CONTINUOUS
 62
      43
100
AcDbLine
 10
-205.04523217
 20
417.01337012
 30
0.0
 11
-211.19966614
 21
410.85893615
 31
0.0
  0
LINE
  5
3C5
100
AcDbEntity
  8
ZUWAKU
  6
CONTINUOUS
 62
      43
100
AcDbLine
 10
-196.88420403
 20
424.32587012
 30
0.0
 11
-199.5
 21
421.71007415
 31
0.0
  0
LINE
  5
3C6
100
AcDbEntity
  8
ZUWAKU
  6
CONTINUOUS
 62
      43
100
AcDbLine
 10
-204.19670403
 20
417.01337012
 30
0.0
 11
-210.07575382
 21
411.13432034
 31
0.0
  0
LINE
  5
3C7
100
AcDbEntity
  8
ZUWAKU
  6
CONTINUOUS
 62
      43
100
AcDbLine
 10
-196.0356759
 20
424.32587012
 30
0.0
 11
-199.5
 21
420.86154602
 31
0.0
  0
LINE
  5
3C8
100
AcDbEntity
  8
ZUWAKU
  6
CONTINUOUS
 62
      43
100
AcDbLine
 10
-203.3481759
 20
417.01337012
 30
0.0
 11
-208.92149768
 21
411.44004834
 31
0.0
  0
LINE
  5
3C9
100
AcDbEntity
  8
ZUWAKU
  6
CONTINUOUS
 62
      43
100
AcDbLine
 10
-195.18714776
 20
424.32587012
 30
0.0
 11
-199.5
 21
420.01301788
 31
0.0
  0
LINE
  5
3CA
100
AcDbEntity
  8
ZUWAKU
  6
CONTINUOUS
 62
      43
100
AcDbLine
 10
-202.49964776
 20
417.01337012
 30
0.0
 11
-207.73175006
 21
411.78126782
 31
0.0
  0
LINE
  5
3CB
100
AcDbEntity
  8
ZUWAKU
  6
CONTINUOUS
 62
      43
100
AcDbLine
 10
-194.33861962
 20
424.32587012
 30
0.0
 11
-199.5
 21
419.16448974
 31
0.0
  0
LINE
  5
3CC
100
AcDbEntity
  8
ZUWAKU
  6
CONTINUOUS
 62
      43
100
AcDbLine
 10
-201.65111962
 20
417.01337012
 30
0.0
 11
-206.4995197
 21
412.16497004
 31
0.0
  0
LINE
  5
3CD
100
AcDbEntity
  8
ZUWAKU
  6
CONTINUOUS
 62
      43
100
AcDbLine
 10
-193.49009148
 20
424.32587012
 30
0.0
 11
-199.5
 21
418.3159616
 31
0.0
  0
LINE
  5
3CE
100
AcDbEntity
  8
ZUWAKU
  6
CONTINUOUS
 62
      43
100
AcDbLine
 10
-200.80259148
 20
417.01337012
 30
0.0
 11
-205.21488144
 21
412.60108017
 31
0.0
  0
LINE
  5
3CF
100
AcDbEntity
  8
ZUWAKU
  6
CONTINUOUS
 62
      43
100
AcDbLine
 10
-192.64156335
 20
424.32587012
 30
0.0
 11
-199.5
 21
417.46743347
 31
0.0
  0
LINE
  5
3D0
100
AcDbEntity
  8
ZUWAKU
  6
CONTINUOUS
 62
      43
100
AcDbLine
 10
-199.95406335
 20
417.01337012
 30
0.0
 11
-203.86287801
 21
413.10455545
 31
0.0
  0
LINE
  5
3D1
100
AcDbEntity
  8
ZUWAKU
  6
CONTINUOUS
 62
      43
100
AcDbLine
 10
-192.19476827
 20
423.92413706
 30
0.0
 11
-202.41896472
 21
413.69994061
 31
0.0
  0
LINE
  5
3D2
100
AcDbEntity
  8
ZUWAKU
  6
CONTINUOUS
 62
      43
100
AcDbLine
 10
-192.3172891
 20
422.95308809
 30
0.0
 11
-200.83715769
 21
414.4332195
 31
0.0
  0
LINE
  5
3D3
100
AcDbEntity
  8
ZUWAKU
  6
CONTINUOUS
 62
      43
100
AcDbLine
 10
-192.68735171
 20
421.73449735
 30
0.0
 11
-199.00780889
 21
415.41404016
 31
0.0
  0
LINE
  5
3D4
100
AcDbEntity
  8
ZUWAKU
  6
CONTINUOUS
 62
      43
100
AcDbLine
 10
-193.83202816
 20
419.74129276
 30
0.0
 11
-196.40384625
 21
417.16947467
 31
0.0
  0
LINE
  5
3D5
100
AcDbEntity
  8
ZUWAKU
  6
CONTINUOUS
 62
       3
100
AcDbLine
 10
93.75
 20
432.95087012
 30
0.0
 11
283.125
 21
432.95087012
 31
0.0
  0
LINE
  5
3D6
100
AcDbEntity
  8
ZUWAKU
  6
CONTINUOUS
 62
       3
100
AcDbLine
 10
93.75
 20
432.95087012
 30
0.0
 11
93.75
 21
403.23245871
 31
0.0
  0
LINE
  5
3D7
100
AcDbEntity
  8
ZUWAKU
  6
CONTINUOUS
 62
       3
100
AcDbLine
 10
283.125
 20
432.95087012
 30
0.0
 11
283.125
 21
403.23245871
 31
0.0
  0
LINE
  5
3D8
100
AcDbEntity
  8
ZUWAKU
  6
CONTINUOUS
 62
       3
100
AcDbLine
 10
-252.375
 20
-379.11162988
 30
0.0
 11
-252.375
 21
-259.11162988
 31
0.0
  0
LINE
  5
3D9
100
AcDbEntity
  8
ZUWAKU
  6
CONTINUOUS
 62
       3
100
AcDbLine
 10
-112.6875
 20
-379.11162988
 30
0.0
 11
-112.6875
 21
-259.11162988
 31
0.0
  0
LINE
  5
3DA
100
AcDbEntity
  8
ZUWAKU
  6
CONTINUOUS
 62
       3
100
AcDbLine
 10
46.6875
 20
-379.11162988
 30
0.0
 11
46.6875
 21
-259.11162988
 31
0.0
  0
LINE
  5
3DB
100
AcDbEntity
  8
ZUWAKU
  6
CONTINUOUS
 62
       3
100
AcDbLine
 10
80.0625
 20
-379.11162988
 30
0.0
 11
80.0625
 21
-259.11162988
 31
0.0
  0
LINE
  5
3DC
100
AcDbEntity
  8
ZUWAKU
  6
CONTINUOUS
 62
       3
100
AcDbLine
 10
93.0
 20
-420.36162988
 30
0.0
 11
93.0
 21
-384.17412988
 31
0.0
  0
LINE
  5
3DD
100
AcDbEntity
  8
ZUWAKU
  6
CONTINUOUS
 62
       3
100
AcDbLine
 10
78.0
 20
-420.36162988
 30
0.0
 11
78.0
 21
-384.17412988
 31
0.0
  0
LINE
  5
3DE
100
AcDbEntity
  8
ZUWAKU
  6
CONTINUOUS
 62
       3
100
AcDbLine
 10
-109.6875
 20
-420.36162988
 30
0.0
 11
-109.6875
 21
-384.17412988
 31
0.0
  0
LINE
  5
3DF
100
AcDbEntity
  8
ZUWAKU
  6
CONTINUOUS
 62
       3
100
AcDbLine
 10
-124.6875
 20
-420.36162988
 30
0.0
 11
-124.6875
 21
-384.17412988
 31
0.0
  0
LINE
  5
3E0
100
AcDbEntity
  8
ZUWAKU
  6
CONTINUOUS
 62
       3
100
AcDbLine
 10
-273.1875
 20
-364.11162988
 30
0.0
 11
280.125
 21
-364.11162988
 31
0.0
  0
LINE
  5
3E1
100
AcDbEntity
  8
ZUWAKU
  6
CONTINUOUS
 62
       3
100
AcDbLine
 10
-273.1875
 20
-349.11162988
 30
0.0
 11
280.125
 21
-349.11162988
 31
0.0
  0
LINE
  5
3E2
100
AcDbEntity
  8
ZUWAKU
  6
CONTINUOUS
 62
       3
100
AcDbLine
 10
-273.1875
 20
-334.11162988
 30
0.0
 11
280.125
 21
-334.11162988
 31
0.0
  0
LINE
  5
3E3
100
AcDbEntity
  8
ZUWAKU
  6
CONTINUOUS
 62
       3
100
AcDbLine
 10
-273.1875
 20
-319.11162988
 30
0.0
 11
280.125
 21
-319.11162988
 31
0.0
  0
LINE
  5
3E4
100
AcDbEntity
  8
ZUWAKU
  6
CONTINUOUS
 62
       3
100
AcDbLine
 10
-273.1875
 20
-304.11162988
 30
0.0
 11
280.125
 21
-304.11162988
 31
0.0
  0
LINE
  5
3E5
100
AcDbEntity
  8
ZUWAKU
  6
CONTINUOUS
 62
       3
100
AcDbLine
 10
-273.1875
 20
-289.11162988
 30
0.0
 11
280.125
 21
-289.11162988
 31
0.0
  0
LINE
  5
3E6
100
AcDbEntity
  8
ZUWAKU
  6
CONTINUOUS
 62
       3
100
AcDbLine
 10
-273.1875
 20
-274.11162988
 30
0.0
 11
280.125
 21
-274.11162988
 31
0.0
  0
TEXT
  5
3E7
100
AcDbEntity
  8
ZUWAKU
 62
       4
100
AcDbText
 10
-117.18898405
 20
-386.7477071
 30
0.0
 40
7.497
  1
品 名
 41
0.8
  7
FDASTYLE1
100
AcDbText
  0
TEXT
  5
3E8
100
AcDbEntity
  8
ZUWAKU
 62
       4
100
AcDbText
 10
85.31773107
 20
-386.80049651
 30
0.0
 40
7.497
  1
品　番
 41
0.8
  7
FDASTYLE1
100
AcDbText
  0
TEXT
  5
3E9
100
AcDbEntity
  8
ZUWAKU
 62
       4
100
AcDbText
 10
-268.05223899
 20
-362.49173009
 30
0.0
 40
12.0
  1
1
 41
0.8
 72
       5
 11
-258.45223899
 21
-362.49173009
 31
0.0
100
AcDbText
  0
TEXT
  5
3EA
100
AcDbEntity
  8
ZUWAKU
 62
       4
100
AcDbText
 10
-268.05223899
 20
-347.49173009
 30
0.0
 40
12.0
  1
2
 41
0.8
 72
       5
 11
-258.45223899
 21
-347.49173009
 31
0.0
100
AcDbText
  0
TEXT
  5
3EB
100
AcDbEntity
  8
ZUWAKU
 62
       4
100
AcDbText
 10
-268.05223899
 20
-332.49173009
 30
0.0
 40
12.0
  1
3
 41
0.8
 72
       5
 11
-258.45223899
 21
-332.49173009
 31
0.0
100
AcDbText
  0
TEXT
  5
3EC
100
AcDbEntity
  8
ZUWAKU
 62
       4
100
AcDbText
 10
-268.05223899
 20
-317.49173009
 30
0.0
 40
12.0
  1
4
 41
0.8
 72
       5
 11
-258.45223899
 21
-317.49173009
 31
0.0
100
AcDbText
  0
TEXT
  5
3ED
100
AcDbEntity
  8
ZUWAKU
 62
       4
100
AcDbText
 10
-268.05223899
 20
-302.49173009
 30
0.0
 40
12.0
  1
5
 41
0.8
 72
       5
 11
-258.45223899
 21
-302.49173009
 31
0.0
100
AcDbText
  0
TEXT
  5
3EE
100
AcDbEntity
  8
ZUWAKU
 62
       4
100
AcDbText
 10
-268.05223899
 20
-287.49173009
 30
0.0
 40
12.0
  1
6
 41
0.8
 72
       5
 11
-258.45223899
 21
-287.49173009
 31
0.0
100
AcDbText
  0
TEXT
  5
3EF
100
AcDbEntity
  8
ZUWAKU
 62
       4
100
AcDbText
 10
-268.05223899
 20
-272.49173009
 30
0.0
 40
12.0
  1
7
 41
0.8
 72
       5
 11
-258.45223899
 21
-272.49173009
 31
0.0
100
AcDbText
  0
TEXT
  5
3F0
100
AcDbEntity
  8
ZUWAKU
 62
       4
100
AcDbText
 10
155.6163036
 20
-377.43252915
 30
0.0
 40
12.0
  1
摘要・仕上
 41
0.7143
 72
       5
 11
203.6163036
 21
-377.43252915
 31
0.0
100
AcDbText
  0
TEXT
  5
3F1
100
AcDbEntity
  8
ZUWAKU
 62
       4
100
AcDbText
 10
48.70938388
 20
-377.43252915
 30
0.0
 40
12.0
  1
個　数
 41
0.75
 72
       5
 11
77.50938388
 21
-377.43252915
 31
0.0
100
AcDbText
  0
TEXT
  5
3F2
100
AcDbEntity
  8
ZUWAKU
 62
       4
100
AcDbText
 10
-52.07834402
 20
-377.43252915
 30
0.0
 40
12.0
  1
材　　質
 41
0.6667
 72
       5
 11
-13.67834402
 21
-377.43252915
 31
0.0
100
AcDbText
  0
TEXT
  5
3F3
100
AcDbEntity
  8
ZUWAKU
 62
       4
100
AcDbText
 10
-206.6306033
 20
-377.43252915
 30
0.0
 40
12.0
  1
部　品　名
 41
0.7143
 72
       5
 11
-158.6306033
 21
-377.43252915
 31
0.0
100
AcDbText
  0
TEXT
  5
3F4
100
AcDbEntity
  8
ZUWAKU
 62
       4
100
AcDbText
 10
-272.75694315
 20
-377.43252915
 30
0.0
 40
12.0
  1
部番
 41
0.6667
 72
       5
 11
-253.55694315
 21
-377.43252915
 31
0.0
100
AcDbText
  0
TEXT
  5
3F5
100
AcDbEntity
  8
ZUWAKU
 62
       4
100
AcDbText
 10
223.25592536
 20
-436.8794885
 30
0.0
 40
12.0
  1
080228
 41
0.8
 72
       5
 11
280.85592536
 21
-436.8794885
 31
0.0
100
AcDbText
  0
POINT
  5
3F6
100
AcDbEntity
  8
ZUWAKU
  6
CONTINUOUS
 62
       9
100
AcDbPoint
 10
188.4375
 20
418.09166442
 30
0.0
  0
POINT
  5
3F7
100
AcDbEntity
  8
ZUWAKU
  6
CONTINUOUS
 62
       9
100
AcDbPoint
 10
-44.70828488
 20
418.09166442
 30
0.0
  0
POINT
  5
3F8
100
AcDbEntity
  8
ZUWAKU
  6
CONTINUOUS
 62
       9
100
AcDbPoint
 10
186.5625
 20
-402.26787988
 30
0.0
  0
POINT
  5
3F9
100
AcDbEntity
  8
ZUWAKU
  6
CONTINUOUS
 62
       9
100
AcDbPoint
 10
-15.84375
 20
-402.26787988
 30
0.0
  0
POINT
  5
3FA
100
AcDbEntity
  8
ZUWAKU
  6
CONTINUOUS
 62
       9
100
AcDbPoint
 10
63.375
 20
-356.61162988
 30
0.0
  0
POINT
  5
3FB
100
AcDbEntity
  8
ZUWAKU
  6
CONTINUOUS
 62
       9
100
AcDbPoint
 10
-249.375
 20
-356.61162988
 30
0.0
  0
POINT
  5
3FC
100
AcDbEntity
  8
ZUWAKU
  6
CONTINUOUS
 62
       9
100
AcDbPoint
 10
-109.6875
 20
-356.61162988
 30
0.0
  0
POINT
  5
3FD
100
AcDbEntity
  8
ZUWAKU
  6
CONTINUOUS
 62
       9
100
AcDbPoint
 10
83.0625
 20
-356.61162988
 30
0.0
  0
LINE
  5
3FE
100
AcDbEntity
  8
ZUWAKU
  6
CONTINUOUS
 62
       9
100
AcDbLine
 10
-315.0
 20
463.5
 30
0.0
 11
-315.0
 21
448.5
 31
0.0
  0
LINE
  5
3FF
100
AcDbEntity
  8
ZUWAKU
  6
CONTINUOUS
 62
       9
100
AcDbLine
 10
-315.0
 20
448.5
 30
0.0
 11
-330.0
 21
448.5
 31
0.0
  0
LINE
  5
400
100
AcDbEntity
  8
ZUWAKU
  6
CONTINUOUS
 62
       9
100
AcDbLine
 10
315.0
 20
448.5
 30
0.0
 11
330.0
 21
448.5
 31
0.0
  0
LINE
  5
401
100
AcDbEntity
  8
ZUWAKU
  6
CONTINUOUS
 62
       9
100
AcDbLine
 10
315.0
 20
448.5
 30
0.0
 11
315.0
 21
463.5
 31
0.0
  0
LINE
  5
402
100
AcDbEntity
  8
ZUWAKU
  6
CONTINUOUS
 62
       9
100
AcDbLine
 10
315.0
 20
-457.5
 30
0.0
 11
315.0
 21
-442.5
 31
0.0
  0
LINE
  5
403
100
AcDbEntity
  8
ZUWAKU
  6
CONTINUOUS
 62
       9
100
AcDbLine
 10
315.0
 20
-442.5
 30
0.0
 11
330.0
 21
-442.5
 31
0.0
  0
LINE
  5
404
100
AcDbEntity
  8
ZUWAKU
  6
CONTINUOUS
 62
       9
100
AcDbLine
 10
-330.06936928
 20
-442.5
 30
0.0
 11
-315.0
 21
-442.5
 31
0.0
  0
LINE
  5
405
100
AcDbEntity
  8
ZUWAKU
  6
CONTINUOUS
 62
       9
100
AcDbLine
 10
-315.0
 20
-442.60353195
 30
0.0
 11
-315.0
 21
-457.4998396
 31
0.0
  0
POINT
  5
406
100
AcDbEntity
  8
ZUWAKU
  6
CONTINUOUS
 62
       9
100
AcDbPoint
 10
63.375
 20
-341.61162988
 30
0.0
  0
POINT
  5
407
100
AcDbEntity
  8
ZUWAKU
  6
CONTINUOUS
 62
       9
100
AcDbPoint
 10
-249.375
 20
-341.61162988
 30
0.0
  0
POINT
  5
408
100
AcDbEntity
  8
ZUWAKU
  6
CONTINUOUS
 62
       9
100
AcDbPoint
 10
-109.6875
 20
-341.61162988
 30
0.0
  0
POINT
  5
409
100
AcDbEntity
  8
ZUWAKU
  6
CONTINUOUS
 62
       9
100
AcDbPoint
 10
83.0625
 20
-341.61162988
 30
0.0
  0
POINT
  5
40A
100
AcDbEntity
  8
ZUWAKU
  6
CONTINUOUS
 62
       9
100
AcDbPoint
 10
63.375
 20
-326.61162988
 30
0.0
  0
POINT
  5
40B
100
AcDbEntity
  8
ZUWAKU
  6
CONTINUOUS
 62
       9
100
AcDbPoint
 10
-249.375
 20
-326.61162988
 30
0.0
  0
POINT
  5
40C
100
AcDbEntity
  8
ZUWAKU
  6
CONTINUOUS
 62
       9
100
AcDbPoint
 10
-109.6875
 20
-326.61162988
 30
0.0
  0
POINT
  5
40D
100
AcDbEntity
  8
ZUWAKU
  6
CONTINUOUS
 62
       9
100
AcDbPoint
 10
83.0625
 20
-326.61162988
 30
0.0
  0
POINT
  5
40E
100
AcDbEntity
  8
ZUWAKU
  6
CONTINUOUS
 62
       9
100
AcDbPoint
 10
63.375
 20
-311.61162988
 30
0.0
  0
POINT
  5
40F
100
AcDbEntity
  8
ZUWAKU
  6
CONTINUOUS
 62
       9
100
AcDbPoint
 10
-249.375
 20
-311.61162988
 30
0.0
  0
POINT
  5
410
100
AcDbEntity
  8
ZUWAKU
  6
CONTINUOUS
 62
       9
100
AcDbPoint
 10
-109.6875
 20
-311.61162988
 30
0.0
  0
POINT
  5
411
100
AcDbEntity
  8
ZUWAKU
  6
CONTINUOUS
 62
       9
100
AcDbPoint
 10
83.0625
 20
-311.61162988
 30
0.0
  0
POINT
  5
412
100
AcDbEntity
  8
ZUWAKU
  6
CONTINUOUS
 62
       9
100
AcDbPoint
 10
63.375
 20
-296.61162988
 30
0.0
  0
POINT
  5
413
100
AcDbEntity
  8
ZUWAKU
  6
CONTINUOUS
 62
       9
100
AcDbPoint
 10
-249.375
 20
-296.61162988
 30
0.0
  0
POINT
  5
414
100
AcDbEntity
  8
ZUWAKU
  6
CONTINUOUS
 62
       9
100
AcDbPoint
 10
-109.6875
 20
-296.61162988
 30
0.0
  0
POINT
  5
415
100
AcDbEntity
  8
ZUWAKU
  6
CONTINUOUS
 62
       9
100
AcDbPoint
 10
83.0625
 20
-296.61162988
 30
0.0
  0
POINT
  5
416
100
AcDbEntity
  8
ZUWAKU
  6
CONTINUOUS
 62
       9
100
AcDbPoint
 10
63.375
 20
-281.61162988
 30
0.0
  0
POINT
  5
417
100
AcDbEntity
  8
ZUWAKU
  6
CONTINUOUS
 62
       9
100
AcDbPoint
 10
-249.375
 20
-281.61162988
 30
0.0
  0
POINT
  5
418
100
AcDbEntity
  8
ZUWAKU
  6
CONTINUOUS
 62
       9
100
AcDbPoint
 10
-109.6875
 20
-281.61162988
 30
0.0
  0
POINT
  5
419
100
AcDbEntity
  8
ZUWAKU
  6
CONTINUOUS
 62
       9
100
AcDbPoint
 10
83.0625
 20
-281.61162988
 30
0.0
  0
POINT
  5
41A
100
AcDbEntity
  8
ZUWAKU
  6
CONTINUOUS
 62
       9
100
AcDbPoint
 10
63.375
 20
-266.61162988
 30
0.0
  0
POINT
  5
41B
100
AcDbEntity
  8
ZUWAKU
  6
CONTINUOUS
 62
       9
100
AcDbPoint
 10
-249.375
 20
-266.61162988
 30
0.0
  0
POINT
  5
41C
100
AcDbEntity
  8
ZUWAKU
  6
CONTINUOUS
 62
       9
100
AcDbPoint
 10
-109.6875
 20
-266.61162988
 30
0.0
  0
POINT
  5
41D
100
AcDbEntity
  8
ZUWAKU
  6
CONTINUOUS
 62
       9
100
AcDbPoint
 10
83.0625
 20
-266.61162988
 30
0.0
  0
TEXT
  5
41E
100
AcDbEntity
  8
LAYER0240
 62
       4
100
AcDbText
 10
-249.375
 20
-362.61162988
 30
0.0
 40
12.0
  1
壁付止水栓
 41
0.7143
 72
       5
 11
-201.375
 21
-362.61162988
 31
0.0
100
AcDbText
  0
TEXT
  5
41F
100
AcDbEntity
  8
LAYER0240
 62
       4
100
AcDbText
 10
-109.6875
 20
-362.61162988
 30
0.0
 40
12.0
  1
ZDC
 41
0.8
 72
       5
 11
-80.8875
 21
-362.61162988
 31
0.0
100
AcDbText
  0
TEXT
  5
420
100
AcDbEntity
  8
LAYER0240
 62
       4
100
AcDbText
 10
58.575
 20
-362.61162988
 30
0.0
 40
12.0
  1
1
 41
0.8
 72
       5
 11
68.175
 21
-362.61162988
 31
0.0
100
AcDbText
  0
TEXT
  5
421
100
AcDbEntity
  8
LAYER0240
 62
       4
100
AcDbText
 10
-59.94375
 20
-411.26787988
 30
0.0
 40
18.0
  1
アングル止水栓
 41
0.5
 72
       5
 11
28.25625
 21
-411.26787988
 31
0.0
100
AcDbText
  0
TEXT
  5
422
100
AcDbEntity
  8
LAYER0240
 62
       4
100
AcDbText
 10
150.5625
 20
-411.26787988
 30
0.0
 40
18.0
  1
FCP-C
 41
0.8
 72
       5
 11
222.5625
 21
-411.26787988
 31
0.0
100
AcDbText
  0
TEXT
  5
423
100
AcDbEntity
  8
LAYER0240
 62
       4
100
AcDbText
 10
-249.375
 20
-347.61162988
 30
0.0
 40
12.0
  1
ワン座
 41
0.75
 72
       5
 11
-220.575
 21
-347.61162988
 31
0.0
100
AcDbText
  0
TEXT
  5
424
100
AcDbEntity
  8
LAYER0240
 62
       4
100
AcDbText
 10
58.575
 20
-347.61162988
 30
0.0
 40
12.0
  1
1
 41
0.8
 72
       5
 11
68.175
 21
-347.61162988
 31
0.0
100
AcDbText
  0
TEXT
  5
425
100
AcDbEntity
  8
LAYER0240
 62
       4
100
AcDbText
 10
-249.375
 20
-332.61162988
 30
0.0
 40
12.0
  1
取扱/施工説明書
 41
0.7273
 72
       5
 11
-172.575
 21
-332.61162988
 31
0.0
100
AcDbText
  0
TEXT
  5
426
100
AcDbEntity
  8
LAYER0240
 62
       4
100
AcDbText
 10
58.575
 20
-332.61162988
 30
0.0
 40
12.0
  1
1
 41
0.8
 72
       5
 11
68.175
 21
-332.61162988
 31
0.0
100
AcDbText
  0
TEXT
  5
427
100
AcDbEntity
  8
LAYER0240
 62
       4
100
AcDbText
 10
-88.80828488
 20
409.09166442
 30
0.0
 40
18.0
  1
アングル止水栓
 41
0.5
 72
       5
 11
-0.60828488
 21
409.09166442
 31
0.0
100
AcDbText
  0
TEXT
  5
428
100
AcDbEntity
  8
LAYER0240
 62
       4
100
AcDbText
 10
152.4375
 20
409.09166442
 30
0.0
 40
18.0
  1
FCP-C
 41
0.8
 72
       5
 11
224.4375
 21
409.09166442
 31
0.0
100
AcDbText
  0
TEXT
  5
429
100
AcDbEntity
  8
LAYER0240
 62
       4
100
AcDbText
 10
-249.375
 20
-317.61162988
 30
0.0
 40
12.0
  1
六角レンチ
 41
0.7143
 72
       5
 11
-201.375
 21
-317.61162988
 31
0.0
100
AcDbText
  0
TEXT
  5
42A
100
AcDbEntity
  8
LAYER0240
 62
       4
100
AcDbText
 10
-109.6875
 20
-347.61162988
 30
0.0
 40
12.0
  1
ZDC
 41
0.8
 72
       5
 11
-80.8875
 21
-347.61162988
 31
0.0
100
AcDbText
  0
TEXT
  5
42B
100
AcDbEntity
  8
LAYER0240
 62
       4
100
AcDbText
 10
58.575
 20
-317.61162988
 30
0.0
 40
12.0
  1
1
 41
0.8
 72
       5
 11
68.175
 21
-317.61162988
 31
0.0
100
AcDbText
  0
POINT
  5
42C
100
AcDbEntity
  8
LAYER0241
  6
DIVIDE
 62
       6
100
AcDbPoint
 10
413.82411254
 20
-510.91108101
 30
0.0
  0
ARC
  5
42D
100
AcDbEntity
  8
LAYER0001
  6
CONTINUOUS
 62
       7
100
AcDbCircle
 10
-81.88199016
 20
0.0
 30
0.0
 40
18.0
100
AcDbArc
 50
311.8103149
 51
408.1896851
  0
CIRCLE
  5
42E
100
AcDbEntity
  8
LAYER0001
  6
CONTINUOUS
 62
       7
100
AcDbCircle
 10
-86.88199016
 20
152.75
 30
0.0
 40
9.338
  0
LINE
  5
42F
100
AcDbEntity
  8
LAYER0001
  6
CONTINUOUS
 62
       7
100
AcDbLine
 10
-78.13887872
 20
244.65844116
 30
0.0
 11
-77.79943473
 21
230.65844116
 31
0.0
  0
LINE
  5
430
100
AcDbEntity
  8
LAYER0001
  6
CONTINUOUS
 62
       7
100
AcDbLine
 10
-76.58199016
 20
228.54976531
 30
0.0
 11
-77.79943473
 21
230.65844116
 31
0.0
  0
LINE
  5
431
100
AcDbEntity
  8
LAYER0001
  6
CONTINUOUS
 62
       7
100
AcDbLine
 10
-95.96454559
 20
230.65844116
 30
0.0
 11
-97.18199016
 21
228.54976531
 31
0.0
  0
LINE
  5
432
100
AcDbEntity
  8
LAYER0001
  6
CONTINUOUS
 62
       7
100
AcDbLine
 10
-95.96454559
 20
230.65844116
 30
0.0
 11
-95.62510161
 21
244.65844116
 31
0.0
  0
LINE
  5
433
100
AcDbEntity
  8
LAYER0001
  6
CONTINUOUS
 62
       7
100
AcDbLine
 10
145.1944852
 20
9.08255543
 30
0.0
 11
159.1944852
 21
8.74311145
 31
0.0
  0
LINE
  5
434
100
AcDbEntity
  8
LAYER0001
  6
CONTINUOUS
 62
       7
100
AcDbLine
 10
145.1944852
 20
9.08255543
 30
0.0
 11
143.08580935
 21
10.3
 31
0.0
  0
LINE
  5
435
100
AcDbEntity
  8
LAYER0001
  6
CONTINUOUS
 62
       7
100
AcDbLine
 10
143.08580935
 20
-10.3
 30
0.0
 11
145.1944852
 21
-9.08255543
 31
0.0
  0
LINE
  5
436
100
AcDbEntity
  8
LAYER0001
  6
CONTINUOUS
 62
       7
100
AcDbLine
 10
159.1944852
 20
-8.74311145
 30
0.0
 11
145.1944852
 21
-9.08255543
 31
0.0
  0
LINE
  5
437
100
AcDbEntity
  8
LAYER0001
  6
CENTER
 62
       7
100
AcDbLine
 10
-125.42689547
 20
0.0
 30
0.0
 11
-47.63922176
 21
0.0
 31
0.0
  0
LINE
  5
438
100
AcDbEntity
  8
LAYER0001
  6
CENTER
 62
       7
100
AcDbLine
 10
-86.88199016
 20
-41.80803104
 30
0.0
 11
-86.88199016
 21
43.58458284
 31
0.0
  0
LINE
  5
439
100
AcDbEntity
  8
LAYER0001
  6
CENTER
 62
       7
100
AcDbLine
 10
29.28604404
 20
-21.84896669
 30
0.0
 11
29.28604404
 21
39.30032578
 31
0.0
  0
LINE
  5
43A
100
AcDbEntity
  8
LAYER0001
  6
CENTER
 62
       7
100
AcDbLine
 10
67.28604404
 20
41.38870915
 30
0.0
 11
67.28604404
 21
-21.84896669
 31
0.0
  0
LINE
  5
43B
100
AcDbEntity
  8
LAYER0001
  6
CENTER
 62
       7
100
AcDbLine
 10
-86.88199016
 20
90.97746927
 30
0.0
 11
-86.88199016
 21
253.7171953
 31
0.0
  0
LINE
  5
43C
100
AcDbEntity
  8
LAYER0001
  6
CENTER
 62
       7
100
AcDbLine
 10
-69.38199016
 20
152.75
 30
0.0
 11
-104.38199016
 21
152.75
 31
0.0
  0
LINE
  5
43D
100
AcDbEntity
  8
LAYER0001
  6
CENTER
 62
       7
100
AcDbLine
 10
-77.93398244
 20
114.75
 30
0.0
 11
-96.1439844
 21
114.75
 31
0.0
  0
LINE
  5
43E
100
AcDbEntity
  8
LAYER0001
  6
CENTER
 62
       7
100
AcDbLine
 10
162.1944852
 20
0.0
 30
0.0
 11
15.78604404
 21
0.0
 31
0.0
  0
CIRCLE
  5
43F
100
AcDbEntity
  8
0
  6
CONTINUOUS
 62
       3
100
AcDbCircle
 10
67.0424913
 20
0.0
 30
0.0
 40
1.3125
  0
LINE
  5
440
100
AcDbEntity
  8
LAYER0001
  6
CONTINUOUS
 62
       3
100
AcDbLine
 10
25.98604404
 20
31.5
 30
0.0
 11
25.78604404
 21
31.3
 31
0.0
  0
LINE
  5
441
100
AcDbEntity
  8
LAYER0001
  6
CONTINUOUS
 62
       3
100
AcDbLine
 10
25.78604404
 20
31.3
 30
0.0
 11
25.78604404
 21
14.5
 31
0.0
  0
LINE
  5
442
100
AcDbEntity
  8
LAYER0001
  6
CONTINUOUS
 62
       3
100
AcDbLine
 10
25.98604404
 20
31.5
 30
0.0
 11
32.58604404
 21
31.5
 31
0.0
  0
LINE
  5
443
100
AcDbEntity
  8
LAYER0001
  6
CONTINUOUS
 62
       3
100
AcDbLine
 10
32.78604404
 20
31.3
 30
0.0
 11
32.58604404
 21
31.5
 31
0.0
  0
LINE
  5
444
100
AcDbEntity
  8
LAYER0001
  6
CONTINUOUS
 62
       3
100
AcDbLine
 10
32.78604404
 20
14.5
 30
0.0
 11
32.78604404
 21
31.3
 31
0.0
  0
LINE
  5
445
100
AcDbEntity
  8
LAYER0001
  6
CONTINUOUS
 62
       3
100
AcDbLine
 10
102.27568107
 20
8.05
 30
0.0
 11
102.27568107
 21
6.42
 31
0.0
  0
LINE
  5
446
100
AcDbEntity
  8
LAYER0001
  6
CONTINUOUS
 62
       3
100
AcDbLine
 10
102.27568107
 20
-6.42
 30
0.0
 11
102.27568107
 21
-8.05
 31
0.0
  0
LINE
  5
447
100
AcDbEntity
  8
LAYER0001
  6
CONTINUOUS
 62
       3
100
AcDbLine
 10
93.28604404
 20
-9.05
 30
0.0
 11
93.28604404
 21
-14.47
 31
0.0
  0
LINE
  5
448
100
AcDbEntity
  8
LAYER0001
  6
CONTINUOUS
 62
       3
100
AcDbLine
 10
93.28604404
 20
0.0
 30
0.0
 11
93.28604404
 21
-5.42
 31
0.0
  0
LINE
  5
449
100
AcDbEntity
  8
LAYER0001
  6
CONTINUOUS
 62
       3
100
AcDbLine
 10
93.28604404
 20
14.47
 30
0.0
 11
93.28604404
 21
9.05
 31
0.0
  0
LINE
  5
44A
100
AcDbEntity
  8
LAYER0001
  6
CONTINUOUS
 62
       3
100
AcDbLine
 10
93.28604404
 20
5.42
 30
0.0
 11
93.28604404
 21
0.0
 31
0.0
  0
LINE
  5
44B
100
AcDbEntity
  8
LAYER0001
  6
CONTINUOUS
 62
       3
100
AcDbLine
 10
102.27568107
 20
-6.42
 30
0.0
 11
93.28604404
 21
-6.42
 31
0.0
  0
LINE
  5
44C
100
AcDbEntity
  8
LAYER0001
  6
CONTINUOUS
 62
       3
100
AcDbLine
 10
93.28604404
 20
-8.05
 30
0.0
 11
102.27568107
 21
-8.05
 31
0.0
  0
LINE
  5
44D
100
AcDbEntity
  8
LAYER0001
  6
CONTINUOUS
 62
       3
100
AcDbLine
 10
102.27568107
 20
8.05
 30
0.0
 11
93.28604404
 21
8.05
 31
0.0
  0
LINE
  5
44E
100
AcDbEntity
  8
LAYER0001
  6
CONTINUOUS
 62
       3
100
AcDbLine
 10
93.28604404
 20
6.42
 30
0.0
 11
102.27568107
 21
6.42
 31
0.0
  0
LINE
  5
44F
100
AcDbEntity
  8
LAYER0001
  6
CONTINUOUS
 62
       3
100
AcDbLine
 10
-99.88199016
 20
132.75
 30
0.0
 11
-99.88199016
 21
133.25
 31
0.0
  0
LINE
  5
450
100
AcDbEntity
  8
LAYER0001
  6
CONTINUOUS
 62
       3
100
AcDbLine
 10
-97.94412694
 20
178.75
 30
0.0
 11
-88.81985338
 21
178.75
 31
0.0
  0
LINE
  5
451
100
AcDbEntity
  8
LAYER0001
  6
CONTINUOUS
 62
       3
100
AcDbLine
 10
-75.81985338
 20
178.75
 30
0.0
 11
-84.94412694
 21
178.75
 31
0.0
  0
LINE
  5
452
100
AcDbEntity
  8
LAYER0001
  6
CONTINUOUS
 62
       3
100
AcDbLine
 10
-99.88199016
 20
188.60566243
 30
0.0
 11
-99.63199016
 21
188.75
 31
0.0
  0
LINE
  5
453
100
AcDbEntity
  8
LAYER0001
  6
CONTINUOUS
 62
       3
100
AcDbLine
 10
-72.38199016
 20
133.25
 30
0.0
 11
-72.38199016
 21
176.15192379
 31
0.0
  0
LINE
  5
454
100
AcDbEntity
  8
LAYER0001
  6
CONTINUOUS
 62
       3
100
AcDbLine
 10
-99.88199016
 20
187.73963703
 30
0.0
 11
-99.88199016
 21
179.28589838
 31
0.0
  0
LINE
  5
455
100
AcDbEntity
  8
LAYER0001
  6
CONTINUOUS
 62
       3
100
AcDbLine
 10
-98.94412694
 20
178.75
 30
0.0
 11
-98.94412694
 21
187.73963703
 31
0.0
  0
LINE
  5
456
100
AcDbEntity
  8
LAYER0001
  6
CONTINUOUS
 62
       3
100
AcDbLine
 10
-87.81985338
 20
187.73963703
 30
0.0
 11
-87.81985338
 21
178.75
 31
0.0
  0
LINE
  5
457
100
AcDbEntity
  8
LAYER0001
  6
CONTINUOUS
 62
       3
100
AcDbLine
 10
-85.94412694
 20
178.75
 30
0.0
 11
-85.94412694
 21
187.73963703
 31
0.0
  0
LINE
  5
458
100
AcDbEntity
  8
LAYER0001
  6
CONTINUOUS
 62
       3
100
AcDbLine
 10
-74.81985338
 20
187.73963703
 30
0.0
 11
-74.81985338
 21
178.75
 31
0.0
  0
LINE
  5
459
100
AcDbEntity
  8
LAYER0001
  6
CONTINUOUS
 62
       3
100
AcDbLine
 10
-73.88199016
 20
179.28589838
 30
0.0
 11
-73.88199016
 21
187.73963703
 31
0.0
  0
LINE
  5
45A
100
AcDbEntity
  8
LAYER0001
  6
CONTINUOUS
 62
       3
100
AcDbLine
 10
-101.38199016
 20
133.25
 30
0.0
 11
-101.38199016
 21
176.15192379
 31
0.0
  0
LINE
  5
45B
100
AcDbEntity
  8
LAYER0001
  6
CONTINUOUS
 62
       3
100
AcDbLine
 10
-101.38199016
 20
176.15192379
 30
0.0
 11
-100.14993935
 21
178.28589838
 31
0.0
  0
LINE
  5
45C
100
AcDbEntity
  8
LAYER0001
  6
CONTINUOUS
 62
       3
100
AcDbLine
 10
-72.38199016
 20
176.15192379
 30
0.0
 11
-73.61404097
 21
178.28589838
 31
0.0
  0
LINE
  5
45D
100
AcDbEntity
  8
LAYER0001
  6
CONTINUOUS
 62
       3
100
AcDbLine
 10
-85.94412694
 20
187.73963703
 30
0.0
 11
-87.81985338
 21
187.73963703
 31
0.0
  0
LINE
  5
45E
100
AcDbEntity
  8
LAYER0001
  6
CONTINUOUS
 62
       3
100
AcDbLine
 10
-73.88199016
 20
187.73963703
 30
0.0
 11
-74.81985338
 21
187.73963703
 31
0.0
  0
LINE
  5
45F
100
AcDbEntity
  8
LAYER0001
  6
CONTINUOUS
 62
       3
100
AcDbLine
 10
-99.88199016
 20
187.73963703
 30
0.0
 11
-98.94412694
 21
187.73963703
 31
0.0
  0
LINE
  5
460
100
AcDbEntity
  8
LAYER0001
  6
CONTINUOUS
 62
       3
100
AcDbLine
 10
-99.88199016
 20
187.73963703
 30
0.0
 11
-99.88199016
 21
188.60566243
 31
0.0
  0
LINE
  5
461
100
AcDbEntity
  8
LAYER0001
  6
CONTINUOUS
 62
       3
100
AcDbLine
 10
-73.88199016
 20
188.60566243
 30
0.0
 11
-73.88199016
 21
187.73963703
 31
0.0
  0
LINE
  5
462
100
AcDbEntity
  8
LAYER0001
  6
CONTINUOUS
 62
       3
100
AcDbLine
 10
-99.63199016
 20
188.75
 30
0.0
 11
-74.13199016
 21
188.75
 31
0.0
  0
LINE
  5
463
100
AcDbEntity
  8
LAYER0001
  6
CONTINUOUS
 62
       3
100
AcDbLine
 10
-74.13199016
 20
188.75
 30
0.0
 11
-73.88199016
 21
188.60566243
 31
0.0
  0
LINE
  5
464
100
AcDbEntity
  8
LAYER0001
  6
CONTINUOUS
 62
       3
100
AcDbLine
 10
-72.38199016
 20
133.25
 30
0.0
 11
-73.88199016
 21
133.25
 31
0.0
  0
LINE
  5
465
100
AcDbEntity
  8
LAYER0001
  6
CONTINUOUS
 62
       3
100
AcDbLine
 10
-73.88199016
 20
133.25
 30
0.0
 11
-73.88199016
 21
132.75
 31
0.0
  0
LINE
  5
466
100
AcDbEntity
  8
LAYER0001
  6
CONTINUOUS
 62
       3
100
AcDbLine
 10
-73.88199016
 20
133.25
 30
0.0
 11
-99.88199016
 21
133.25
 31
0.0
  0
LINE
  5
467
100
AcDbEntity
  8
LAYER0001
  6
CONTINUOUS
 62
       3
100
AcDbLine
 10
-99.88199016
 20
133.25
 30
0.0
 11
-101.38199016
 21
133.25
 31
0.0
  0
LINE
  5
468
100
AcDbEntity
  8
LAYER0001
  6
CONTINUOUS
 62
       3
100
AcDbLine
 10
-80.55743484
 20
151.25
 30
0.0
 11
-93.20654548
 21
151.25
 31
0.0
  0
LINE
  5
469
100
AcDbEntity
  8
LAYER0001
  6
CONTINUOUS
 62
       3
100
AcDbLine
 10
52.78604404
 20
23.0
 30
0.0
 11
81.78604404
 21
23.0
 31
0.0
  0
LINE
  5
46A
100
AcDbEntity
  8
LAYER0001
  6
CONTINUOUS
 62
       3
100
AcDbLine
 10
81.78604404
 20
23.0
 30
0.0
 11
81.78604404
 21
16.5
 31
0.0
  0
LINE
  5
46B
100
AcDbEntity
  8
LAYER0001
  6
CONTINUOUS
 62
       3
100
AcDbLine
 10
83.78604404
 20
14.5
 30
0.0
 11
102.27568107
 21
14.5
 31
0.0
  0
LINE
  5
46C
100
AcDbEntity
  8
LAYER0001
  6
CONTINUOUS
 62
       3
100
AcDbLine
 10
102.27568107
 20
14.5
 30
0.0
 11
103.28604404
 21
12.75
 31
0.0
  0
LINE
  5
46D
100
AcDbEntity
  8
LAYER0001
  6
CONTINUOUS
 62
       3
100
AcDbLine
 10
102.27568107
 20
-14.5
 30
0.0
 11
103.28604404
 21
-12.75
 31
0.0
  0
LINE
  5
46E
100
AcDbEntity
  8
LAYER0001
  6
CONTINUOUS
 62
       3
100
AcDbLine
 10
47.78604404
 20
-14.5
 30
0.0
 11
47.78604404
 21
0.0
 31
0.0
  0
LINE
  5
46F
100
AcDbEntity
  8
LAYER0001
  6
CONTINUOUS
 62
       3
100
AcDbLine
 10
47.78604404
 20
0.0
 30
0.0
 11
47.78604404
 21
14.5
 31
0.0
  0
LINE
  5
470
100
AcDbEntity
  8
LAYER0001
  6
CONTINUOUS
 62
       3
100
AcDbLine
 10
47.78604404
 20
14.5
 30
0.0
 11
50.78604404
 21
14.5
 31
0.0
  0
LINE
  5
471
100
AcDbEntity
  8
LAYER0001
  6
CONTINUOUS
 62
       3
100
AcDbLine
 10
52.78604404
 20
16.5
 30
0.0
 11
52.78604404
 21
23.0
 31
0.0
  0
LINE
  5
472
100
AcDbEntity
  8
LAYER0001
  6
CONTINUOUS
 62
       3
100
AcDbLine
 10
57.94804404
 20
35.0
 30
0.0
 11
76.62404404
 21
35.0
 31
0.0
  0
LINE
  5
473
100
AcDbEntity
  8
LAYER0001
  6
CONTINUOUS
 62
       3
100
AcDbLine
 10
57.94804404
 20
35.0
 30
0.0
 11
56.78604404
 21
33.838
 31
0.0
  0
LINE
  5
474
100
AcDbEntity
  8
LAYER0001
  6
CONTINUOUS
 62
       3
100
AcDbLine
 10
77.78604404
 20
33.838
 30
0.0
 11
77.78604404
 21
26.0
 31
0.0
  0
LINE
  5
475
100
AcDbEntity
  8
LAYER0001
  6
CONTINUOUS
 62
       3
100
AcDbLine
 10
76.62404404
 20
35.0
 30
0.0
 11
77.78604404
 21
33.838
 31
0.0
  0
LINE
  5
476
100
AcDbEntity
  8
LAYER0001
  6
CONTINUOUS
 62
       3
100
AcDbLine
 10
76.62404404
 20
26.0
 30
0.0
 11
77.78604404
 21
26.0
 31
0.0
  0
LINE
  5
477
100
AcDbEntity
  8
LAYER0001
  6
CONTINUOUS
 62
       3
100
AcDbLine
 10
47.78604404
 20
-13.0
 30
0.0
 11
47.28604404
 21
-13.0
 31
0.0
  0
LINE
  5
478
100
AcDbEntity
  8
LAYER0001
  6
CONTINUOUS
 62
       3
100
AcDbLine
 10
103.28604404
 20
-12.75
 30
0.0
 11
103.28604404
 21
12.75
 31
0.0
  0
LINE
  5
479
100
AcDbEntity
  8
LAYER0001
  6
CONTINUOUS
 62
       3
100
AcDbLine
 10
47.78604404
 20
-14.5
 30
0.0
 11
102.27568107
 21
-14.5
 31
0.0
  0
LINE
  5
47A
100
AcDbEntity
  8
LAYER0001
  6
CONTINUOUS
 62
       3
100
AcDbLine
 10
56.78604404
 20
33.838
 30
0.0
 11
56.78604404
 21
26.0
 31
0.0
  0
LINE
  5
47B
100
AcDbEntity
  8
LAYER0001
  6
CONTINUOUS
 62
       3
100
AcDbLine
 10
56.78604404
 20
26.0
 30
0.0
 11
56.78604404
 21
23.98735696
 31
0.0
  0
LINE
  5
47C
100
AcDbEntity
  8
LAYER0001
  6
CONTINUOUS
 62
       3
100
AcDbLine
 10
56.78604404
 20
26.0
 30
0.0
 11
57.94804404
 21
26.0
 31
0.0
  0
LINE
  5
47D
100
AcDbEntity
  8
LAYER0001
  6
CONTINUOUS
 62
       3
100
AcDbLine
 10
56.78604404
 20
23.98735696
 30
0.0
 11
56.78604404
 21
23.0
 31
0.0
  0
LINE
  5
47E
100
AcDbEntity
  8
LAYER0001
  6
CONTINUOUS
 62
       3
100
AcDbLine
 10
77.78604404
 20
26.0
 30
0.0
 11
77.78604404
 21
23.98735696
 31
0.0
  0
LINE
  5
47F
100
AcDbEntity
  8
LAYER0001
  6
CONTINUOUS
 62
       3
100
AcDbLine
 10
77.78604404
 20
23.98735696
 30
0.0
 11
77.78604404
 21
23.0
 31
0.0
  0
LINE
  5
480
100
AcDbEntity
  8
LAYER0001
  6
CONTINUOUS
 62
       3
100
AcDbLine
 10
-101.38199016
 20
-0.00000618
 30
0.0
 11
-101.38199016
 21
23.0
 31
0.0
  0
LINE
  5
481
100
AcDbEntity
  8
LAYER0001
  6
CONTINUOUS
 62
       3
100
AcDbLine
 10
-101.38199016
 20
23.0
 30
0.0
 11
-90.38199016
 21
23.0
 31
0.0
  0
LINE
  5
482
100
AcDbEntity
  8
LAYER0001
  6
CONTINUOUS
 62
       3
100
AcDbLine
 10
-72.38199016
 20
23.0
 30
0.0
 11
-72.38199016
 21
-0.00000618
 31
0.0
  0
LINE
  5
483
100
AcDbEntity
  8
LAYER0001
  6
CONTINUOUS
 62
       3
100
AcDbLine
 10
-77.54399016
 20
33.838
 30
0.0
 11
-96.21999016
 21
33.838
 31
0.0
  0
LINE
  5
484
100
AcDbEntity
  8
LAYER0001
  6
CONTINUOUS
 62
       3
100
AcDbLine
 10
-96.21999016
 20
26.0
 30
0.0
 11
-90.38199016
 21
26.0
 31
0.0
  0
LINE
  5
485
100
AcDbEntity
  8
LAYER0001
  6
CONTINUOUS
 62
       3
100
AcDbLine
 10
-96.21999016
 20
35.0
 30
0.0
 11
-77.54399016
 21
35.0
 31
0.0
  0
LINE
  5
486
100
AcDbEntity
  8
LAYER0001
  6
CONTINUOUS
 62
       3
100
AcDbLine
 10
-97.38199016
 20
33.838
 30
0.0
 11
-96.21999016
 21
33.838
 31
0.0
  0
LINE
  5
487
100
AcDbEntity
  8
LAYER0001
  6
CONTINUOUS
 62
       3
100
AcDbLine
 10
-96.21999016
 20
35.0
 30
0.0
 11
-97.38199016
 21
33.838
 31
0.0
  0
LINE
  5
488
100
AcDbEntity
  8
LAYER0001
  6
CONTINUOUS
 62
       3
100
AcDbLine
 10
-76.38199016
 20
33.838
 30
0.0
 11
-77.54399016
 21
33.838
 31
0.0
  0
LINE
  5
489
100
AcDbEntity
  8
LAYER0001
  6
CONTINUOUS
 62
       3
100
AcDbLine
 10
-76.38199016
 20
33.838
 30
0.0
 11
-76.38199016
 21
26.0
 31
0.0
  0
LINE
  5
48A
100
AcDbEntity
  8
LAYER0001
  6
CONTINUOUS
 62
       3
100
AcDbLine
 10
-77.54399016
 20
35.0
 30
0.0
 11
-76.38199016
 21
33.838
 31
0.0
  0
LINE
  5
48B
100
AcDbEntity
  8
LAYER0001
  6
CONTINUOUS
 62
       3
100
AcDbLine
 10
-77.54399016
 20
26.0
 30
0.0
 11
-76.38199016
 21
26.0
 31
0.0
  0
LINE
  5
48C
100
AcDbEntity
  8
LAYER0001
  6
CONTINUOUS
 62
       3
100
AcDbLine
 10
-97.38199016
 20
33.838
 30
0.0
 11
-97.38199016
 21
26.0
 31
0.0
  0
LINE
  5
48D
100
AcDbEntity
  8
LAYER0001
  6
CONTINUOUS
 62
       3
100
AcDbLine
 10
-97.38199016
 20
26.0
 30
0.0
 11
-97.38199016
 21
23.98735696
 31
0.0
  0
LINE
  5
48E
100
AcDbEntity
  8
LAYER0001
  6
CONTINUOUS
 62
       3
100
AcDbLine
 10
-97.38199016
 20
26.0
 30
0.0
 11
-96.21999016
 21
26.0
 31
0.0
  0
LINE
  5
48F
100
AcDbEntity
  8
LAYER0001
  6
CONTINUOUS
 62
       3
100
AcDbLine
 10
-97.38199016
 20
23.98735696
 30
0.0
 11
-97.38199016
 21
23.0
 31
0.0
  0
LINE
  5
490
100
AcDbEntity
  8
LAYER0001
  6
CONTINUOUS
 62
       3
100
AcDbLine
 10
-76.38199016
 20
26.0
 30
0.0
 11
-76.38199016
 21
23.98735696
 31
0.0
  0
LINE
  5
491
100
AcDbEntity
  8
LAYER0001
  6
CONTINUOUS
 62
       3
100
AcDbLine
 10
-76.38199016
 20
23.98735696
 30
0.0
 11
-76.38199016
 21
23.0
 31
0.0
  0
LINE
  5
492
100
AcDbEntity
  8
LAYER0001
  6
CONTINUOUS
 62
       3
100
AcDbLine
 10
-83.38199016
 20
23.0
 30
0.0
 11
-72.38199016
 21
23.0
 31
0.0
  0
LINE
  5
493
100
AcDbEntity
  8
LAYER0001
  6
CONTINUOUS
 62
       3
100
AcDbLine
 10
-83.38199016
 20
26.0
 30
0.0
 11
-77.54399016
 21
26.0
 31
0.0
  0
LINE
  5
494
100
AcDbEntity
  8
LAYER0001
  6
CONTINUOUS
 62
       3
100
AcDbLine
 10
47.28604404
 20
13.0
 30
0.0
 11
47.78604404
 21
13.0
 31
0.0
  0
LINE
  5
495
100
AcDbEntity
  8
LAYER0001
  6
CONTINUOUS
 62
       3
100
AcDbLine
 10
57.94804404
 20
26.0
 30
0.0
 11
76.62404404
 21
26.0
 31
0.0
  0
ARC
  5
496
100
AcDbEntity
  8
LAYER0001
  6
CONTINUOUS
 62
       3
100
AcDbCircle
 10
76.7045707
 20
13.15328812
 30
0.0
 40
26.07537603
100
AcDbArc
 50
348.71362629
 51
361.05692884
  0
ARC
  5
497
100
AcDbEntity
  8
LAYER0001
  6
CONTINUOUS
 62
       3
100
AcDbCircle
 10
71.33086521
 20
-13.63427039
 30
0.0
 40
31.44464509
100
AcDbArc
 50
0.0
 51
10.22944486
  0
ARC
  5
498
100
AcDbEntity
  8
LAYER0001
  6
CONTINUOUS
 62
       3
100
AcDbCircle
 10
61.29511325
 20
0.0
 30
0.0
 40
41.48039704
100
AcDbArc
 50
351.09643236
 51
368.90356764
  0
ARC
  5
499
100
AcDbEntity
  8
LAYER0001
  6
CONTINUOUS
 62
       3
100
AcDbCircle
 10
99.91910581
 20
0.0
 30
0.0
 40
9.23113798
100
AcDbArc
 50
180.0
 51
224.06485876
  0
ARC
  5
49A
100
AcDbEntity
  8
LAYER0001
  6
CONTINUOUS
 62
       3
100
AcDbCircle
 10
99.91910581
 20
-14.47
 30
0.0
 40
9.23113798
100
AcDbArc
 50
135.93514124
 51
180.0
  0
ARC
  5
49B
100
AcDbEntity
  8
LAYER0001
  6
CONTINUOUS
 62
       3
100
AcDbCircle
 10
99.91910581
 20
14.47
 30
0.0
 40
9.23113798
100
AcDbArc
 50
180.0
 51
224.06485876
  0
ARC
  5
49C
100
AcDbEntity
  8
LAYER0001
  6
CONTINUOUS
 62
       3
100
AcDbCircle
 10
99.91910581
 20
0.0
 30
0.0
 40
9.23113798
100
AcDbArc
 50
135.93514124
 51
180.0
  0
ARC
  5
49D
100
AcDbEntity
  8
LAYER0001
  6
CONTINUOUS
 62
       3
100
AcDbCircle
 10
-86.88199016
 20
152.75
 30
0.0
 40
6.5
100
AcDbArc
 50
346.6576362
 51
553.3423638
  0
ARC
  5
49E
100
AcDbEntity
  8
LAYER0001
  6
CONTINUOUS
 62
       3
100
AcDbCircle
 10
-86.88199016
 20
152.75
 30
0.0
 40
6.5
100
AcDbArc
 50
193.3423638
 51
346.6576362
  0
ARC
  5
49F
100
AcDbEntity
  8
LAYER0001
  6
CONTINUOUS
 62
       3
100
AcDbCircle
 10
-93.38199016
 20
157.05227149
 30
0.0
 40
31.18736554
100
AcDbArc
 50
79.72657577
 51
100.27342423
  0
ARC
  5
4A0
100
AcDbEntity
  8
LAYER0001
  6
CONTINUOUS
 62
       3
100
AcDbCircle
 10
-80.38199016
 20
157.05227149
 30
0.0
 40
31.18736554
100
AcDbArc
 50
79.72657577
 51
100.27342423
  0
ARC
  5
4A1
100
AcDbEntity
  8
LAYER0001
  6
CONTINUOUS
 62
       3
100
AcDbCircle
 10
-80.38199016
 20
183.40486067
 30
0.0
 40
7.25293688
100
AcDbArc
 50
219.92540773
 51
320.07459227
  0
ARC
  5
4A2
100
AcDbEntity
  8
LAYER0001
  6
CONTINUOUS
 62
       3
100
AcDbCircle
 10
-93.38199016
 20
183.40486067
 30
0.0
 40
7.25293688
100
AcDbArc
 50
219.92540773
 51
320.07459227
  0
CIRCLE
  5
4A3
100
AcDbEntity
  8
LAYER0001
  6
CONTINUOUS
 62
       3
100
AcDbCircle
 10
-86.88199016
 20
152.75
 30
0.0
 40
14.5
  0
CIRCLE
  5
4A4
100
AcDbEntity
  8
LAYER0001
  6
CONTINUOUS
 62
       3
100
AcDbCircle
 10
-86.88199016
 20
152.75
 30
0.0
 40
10.5
  0
CIRCLE
  5
4A5
100
AcDbEntity
  8
LAYER0001
  6
CONTINUOUS
 62
       3
100
AcDbCircle
 10
-86.88199016
 20
152.75
 30
0.0
 40
7.0
  0
ARC
  5
4A6
100
AcDbEntity
  8
LAYER0001
  6
CONTINUOUS
 62
       3
100
AcDbCircle
 10
-101.88199016
 20
179.28589838
 30
0.0
 40
2.0
100
AcDbArc
 50
330.0
 51
360.0
  0
ARC
  5
4A7
100
AcDbEntity
  8
LAYER0001
  6
CONTINUOUS
 62
       3
100
AcDbCircle
 10
-71.88199016
 20
179.28589838
 30
0.0
 40
2.0
100
AcDbArc
 50
180.0
 51
210.0
  0
ARC
  5
4A8
100
AcDbEntity
  8
LAYER0001
  6
CONTINUOUS
 62
       3
100
AcDbCircle
 10
83.78604404
 20
16.5
 30
0.0
 40
2.0
100
AcDbArc
 50
180.0
 51
270.0
  0
ARC
  5
4A9
100
AcDbEntity
  8
LAYER0001
  6
CONTINUOUS
 62
       3
100
AcDbCircle
 10
50.78604404
 20
16.5
 30
0.0
 40
2.0
100
AcDbArc
 50
270.0
 51
360.0
  0
LINE
  5
4AA
100
AcDbEntity
  8
LAYER0001
  6
CONTINUOUS
 62
       3
100
AcDbLine
 10
-73.88199016
 20
179.28589838
 30
0.0
 11
-73.88199016
 21
178.75
 31
0.0
  0
LINE
  5
4AB
100
AcDbEntity
  8
LAYER0001
  6
CONTINUOUS
 62
       3
100
AcDbLine
 10
-73.61404097
 20
178.28589838
 30
0.0
 11
-73.88199016
 21
178.75
 31
0.0
  0
LINE
  5
4AC
100
AcDbEntity
  8
LAYER0001
  6
CONTINUOUS
 62
       3
100
AcDbLine
 10
-99.88199016
 20
178.75
 30
0.0
 11
-100.14993935
 21
178.28589838
 31
0.0
  0
LINE
  5
4AD
100
AcDbEntity
  8
LAYER0001
  6
CONTINUOUS
 62
       3
100
AcDbLine
 10
-99.88199016
 20
178.75
 30
0.0
 11
-99.88199016
 21
179.28589838
 31
0.0
  0
LINE
  5
4AE
100
AcDbEntity
  8
LAYER0001
  6
CONTINUOUS
 62
       3
100
AcDbLine
 10
57.94804404
 20
26.0
 30
0.0
 11
57.94804404
 21
33.838
 31
0.0
  0
LINE
  5
4AF
100
AcDbEntity
  8
LAYER0001
  6
CONTINUOUS
 62
       3
100
AcDbLine
 10
57.94804404
 20
33.838
 30
0.0
 11
57.94804404
 21
35.0
 31
0.0
  0
LINE
  5
4B0
100
AcDbEntity
  8
LAYER0001
  6
CONTINUOUS
 62
       3
100
AcDbLine
 10
57.94804404
 20
33.838
 30
0.0
 11
57.94804404
 21
35.0
 31
0.0
  0
LINE
  5
4B1
100
AcDbEntity
  8
LAYER0001
  6
CONTINUOUS
 62
       3
100
AcDbLine
 10
76.62404404
 20
35.0
 30
0.0
 11
76.62404404
 21
26.0
 31
0.0
  0
LINE
  5
4B2
100
AcDbEntity
  8
LAYER0001
  6
CONTINUOUS
 62
       3
100
AcDbLine
 10
76.62404404
 20
26.0
 30
0.0
 11
77.78604404
 21
23.98735696
 31
0.0
  0
LINE
  5
4B3
100
AcDbEntity
  8
LAYER0001
  6
CONTINUOUS
 62
       3
100
AcDbLine
 10
56.78604404
 20
23.98735696
 30
0.0
 11
57.94804404
 21
26.0
 31
0.0
  0
LINE
  5
4B4
100
AcDbEntity
  8
LAYER0001
  6
CONTINUOUS
 62
       3
100
AcDbLine
 10
-96.21999016
 20
26.0
 30
0.0
 11
-96.21999016
 21
33.838
 31
0.0
  0
LINE
  5
4B5
100
AcDbEntity
  8
LAYER0001
  6
CONTINUOUS
 62
       3
100
AcDbLine
 10
-96.21999016
 20
33.838
 30
0.0
 11
-96.21999016
 21
35.0
 31
0.0
  0
LINE
  5
4B6
100
AcDbEntity
  8
LAYER0001
  6
CONTINUOUS
 62
       3
100
AcDbLine
 10
-96.21999016
 20
33.838
 30
0.0
 11
-96.21999016
 21
35.0
 31
0.0
  0
LINE
  5
4B7
100
AcDbEntity
  8
LAYER0001
  6
CONTINUOUS
 62
       3
100
AcDbLine
 10
-77.54399016
 20
35.0
 30
0.0
 11
-77.54399016
 21
33.838
 31
0.0
  0
LINE
  5
4B8
100
AcDbEntity
  8
LAYER0001
  6
CONTINUOUS
 62
       3
100
AcDbLine
 10
-77.54399016
 20
33.838
 30
0.0
 11
-77.54399016
 21
26.0
 31
0.0
  0
LINE
  5
4B9
100
AcDbEntity
  8
LAYER0001
  6
CONTINUOUS
 62
       3
100
AcDbLine
 10
-77.54399016
 20
26.0
 30
0.0
 11
-76.38199016
 21
23.98735696
 31
0.0
  0
LINE
  5
4BA
100
AcDbEntity
  8
LAYER0001
  6
CONTINUOUS
 62
       3
100
AcDbLine
 10
-97.38199016
 20
23.98735696
 30
0.0
 11
-96.21999016
 21
26.0
 31
0.0
  0
LINE
  5
4BB
100
AcDbEntity
  8
LAYER0001
  6
CONTINUOUS
 62
       3
100
AcDbLine
 10
-97.48199016
 20
208.69277573
 30
0.0
 11
-97.18199016
 21
208.69277573
 31
0.0
  0
LINE
  5
4BC
100
AcDbEntity
  8
LAYER0001
  6
CONTINUOUS
 62
       3
100
AcDbLine
 10
-116.88199016
 20
223.69277573
 30
0.0
 11
-86.88199016
 21
223.69277573
 31
0.0
  0
LINE
  5
4BD
100
AcDbEntity
  8
LAYER0001
  6
CONTINUOUS
 62
       3
100
AcDbLine
 10
-116.88199016
 20
210.69277573
 30
0.0
 11
-116.88199016
 21
223.69277573
 31
0.0
  0
LINE
  5
4BE
100
AcDbEntity
  8
LAYER0001
  6
CONTINUOUS
 62
       3
100
AcDbLine
 10
-99.08615864
 20
208.69277573
 30
0.0
 11
-97.48199016
 21
208.69277573
 31
0.0
  0
LINE
  5
4BF
100
AcDbEntity
  8
LAYER0001
  6
CONTINUOUS
 62
       3
100
AcDbLine
 10
-114.88199016
 20
208.69277573
 30
0.0
 11
-86.88199016
 21
208.69277573
 31
0.0
  0
LINE
  5
4C0
100
AcDbEntity
  8
LAYER0001
  6
CONTINUOUS
 62
       3
100
AcDbLine
 10
-86.88199016
 20
208.69277573
 30
0.0
 11
-58.88199016
 21
208.69277573
 31
0.0
  0
LINE
  5
4C1
100
AcDbEntity
  8
LAYER0001
  6
CONTINUOUS
 62
       3
100
AcDbLine
 10
-76.28199016
 20
208.69277573
 30
0.0
 11
-74.67782169
 21
208.69277573
 31
0.0
  0
LINE
  5
4C2
100
AcDbEntity
  8
LAYER0001
  6
CONTINUOUS
 62
       3
100
AcDbLine
 10
-56.88199016
 20
223.69277573
 30
0.0
 11
-56.88199016
 21
210.69277573
 31
0.0
  0
LINE
  5
4C3
100
AcDbEntity
  8
LAYER0001
  6
CONTINUOUS
 62
       3
100
AcDbLine
 10
-86.88199016
 20
223.69277573
 30
0.0
 11
-56.88199016
 21
223.69277573
 31
0.0
  0
LINE
  5
4C4
100
AcDbEntity
  8
LAYER0001
  6
CONTINUOUS
 62
       3
100
AcDbLine
 10
-76.58199016
 20
208.69277573
 30
0.0
 11
-76.28199016
 21
208.69277573
 31
0.0
  0
ARC
  5
4C5
100
AcDbEntity
  8
LAYER0001
  6
CONTINUOUS
 62
       3
100
AcDbCircle
 10
-86.88199016
 20
0.0
 30
0.0
 40
30.0
100
AcDbArc
 50
110.48731511
 51
360.0
  0
ARC
  5
4C6
100
AcDbEntity
  8
LAYER0001
  6
CONTINUOUS
 62
       3
100
AcDbCircle
 10
-86.88199016
 20
0.0
 30
0.0
 40
30.0
100
AcDbArc
 50
0.0
 51
69.51268489
  0
ARC
  5
4C7
100
AcDbEntity
  8
LAYER0001
  6
CONTINUOUS
 62
       3
100
AcDbCircle
 10
-114.88199016
 20
210.69277573
 30
0.0
 40
2.0
100
AcDbArc
 50
180.0
 51
270.0
  0
ARC
  5
4C8
100
AcDbEntity
  8
LAYER0001
  6
CONTINUOUS
 62
       3
100
AcDbCircle
 10
-58.88199016
 20
210.69277573
 30
0.0
 40
2.0
100
AcDbArc
 50
270.0
 51
360.0
  0
LINE
  5
4C9
100
AcDbEntity
  8
LAYER0001
  6
CONTINUOUS
 62
       3
100
AcDbLine
 10
-97.18199016
 20
223.69277573
 30
0.0
 11
-97.18199016
 21
228.54976531
 31
0.0
  0
LINE
  5
4CA
100
AcDbEntity
  8
LAYER0001
  6
CONTINUOUS
 62
       3
100
AcDbLine
 10
-97.18199016
 20
188.75
 30
0.0
 11
-97.18199016
 21
208.69277573
 31
0.0
  0
LINE
  5
4CB
100
AcDbEntity
  8
LAYER0001
  6
CONTINUOUS
 62
       3
100
AcDbLine
 10
-95.96454559
 20
230.65844116
 30
0.0
 11
-77.79943473
 21
230.65844116
 31
0.0
  0
LINE
  5
4CC
100
AcDbEntity
  8
LAYER0001
  6
CONTINUOUS
 62
       3
100
AcDbLine
 10
-95.68881683
 20
243.49813923
 30
0.0
 11
-78.0751635
 21
243.49813923
 31
0.0
  0
LINE
  5
4CD
100
AcDbEntity
  8
LAYER0001
  6
CONTINUOUS
 62
       3
100
AcDbLine
 10
-76.58199016
 20
208.69277573
 30
0.0
 11
-76.58199016
 21
188.75
 31
0.0
  0
LINE
  5
4CE
100
AcDbEntity
  8
LAYER0001
  6
CONTINUOUS
 62
       3
100
AcDbLine
 10
-76.58199016
 20
228.54976531
 30
0.0
 11
-76.58199016
 21
223.69277573
 31
0.0
  0
LINE
  5
4CF
100
AcDbEntity
  8
LAYER0001
  6
CONTINUOUS
 62
       3
100
AcDbLine
 10
-78.13887872
 20
244.65844116
 30
0.0
 11
-78.63199016
 21
244.65844116
 31
0.0
  0
LINE
  5
4D0
100
AcDbEntity
  8
LAYER0001
  6
CONTINUOUS
 62
       3
100
AcDbLine
 10
-76.9123814
 20
243.49813923
 30
0.0
 11
-76.63703884
 21
230.65844116
 31
0.0
  0
LINE
  5
4D1
100
AcDbEntity
  8
LAYER0001
  6
CONTINUOUS
 62
       3
100
AcDbLine
 10
-76.63703884
 20
230.65844116
 30
0.0
 11
-77.79943473
 21
230.65844116
 31
0.0
  0
LINE
  5
4D2
100
AcDbEntity
  8
LAYER0001
  6
CONTINUOUS
 62
       3
100
AcDbLine
 10
-78.0751635
 20
243.49813923
 30
0.0
 11
-76.9123814
 21
243.49813923
 31
0.0
  0
LINE
  5
4D3
100
AcDbEntity
  8
LAYER0001
  6
CONTINUOUS
 62
       3
100
AcDbLine
 10
-78.63199016
 20
244.65844116
 30
0.0
 11
-95.13199016
 21
244.65844116
 31
0.0
  0
LINE
  5
4D4
100
AcDbEntity
  8
LAYER0001
  6
CONTINUOUS
 62
       3
100
AcDbLine
 10
-78.13887872
 20
244.65844116
 30
0.0
 11
-76.9123814
 21
243.49813923
 31
0.0
  0
LINE
  5
4D5
100
AcDbEntity
  8
LAYER0001
  6
CONTINUOUS
 62
       3
100
AcDbLine
 10
-76.63703884
 20
230.65844116
 30
0.0
 11
-76.58199016
 21
228.54976531
 31
0.0
  0
LINE
  5
4D6
100
AcDbEntity
  8
LAYER0001
  6
CONTINUOUS
 62
       3
100
AcDbLine
 10
-97.18199016
 20
228.54976531
 30
0.0
 11
-97.12694148
 21
230.65844116
 31
0.0
  0
LINE
  5
4D7
100
AcDbEntity
  8
LAYER0001
  6
CONTINUOUS
 62
       3
100
AcDbLine
 10
-96.85159892
 20
243.49813923
 30
0.0
 11
-95.62510161
 21
244.65844116
 31
0.0
  0
LINE
  5
4D8
100
AcDbEntity
  8
LAYER0001
  6
CONTINUOUS
 62
       3
100
AcDbLine
 10
-96.85159892
 20
243.49813923
 30
0.0
 11
-95.68881683
 21
243.49813923
 31
0.0
  0
LINE
  5
4D9
100
AcDbEntity
  8
LAYER0001
  6
CONTINUOUS
 62
       3
100
AcDbLine
 10
-95.96454559
 20
230.65844116
 30
0.0
 11
-97.12694148
 21
230.65844116
 31
0.0
  0
LINE
  5
4DA
100
AcDbEntity
  8
LAYER0001
  6
CONTINUOUS
 62
       3
100
AcDbLine
 10
-97.12694148
 20
230.65844116
 30
0.0
 11
-96.85159892
 21
243.49813923
 31
0.0
  0
LINE
  5
4DB
100
AcDbEntity
  8
LAYER0001
  6
CONTINUOUS
 62
       3
100
AcDbLine
 10
-95.13199016
 20
244.65844116
 30
0.0
 11
-95.62510161
 21
244.65844116
 31
0.0
  0
LINE
  5
4DC
100
AcDbEntity
  8
LAYER0001
  6
CONTINUOUS
 62
       3
100
AcDbLine
 10
-72.38199016
 20
132.75
 30
0.0
 11
-101.38199016
 21
132.75
 31
0.0
  0
LINE
  5
4DD
100
AcDbEntity
  8
LAYER0001
  6
CONTINUOUS
 62
       3
100
AcDbLine
 10
-101.38199016
 20
105.15
 30
0.0
 11
-101.38199016
 21
109.85
 31
0.0
  0
LINE
  5
4DE
100
AcDbEntity
  8
LAYER0001
  6
CONTINUOUS
 62
       3
100
AcDbLine
 10
-101.38199016
 20
109.85
 30
0.0
 11
-101.38199016
 21
115.25
 31
0.0
  0
LINE
  5
4DF
100
AcDbEntity
  8
LAYER0001
  6
CONTINUOUS
 62
       3
100
AcDbLine
 10
-101.38199016
 20
115.25
 30
0.0
 11
-101.38199016
 21
132.75
 31
0.0
  0
LINE
  5
4E0
100
AcDbEntity
  8
LAYER0001
  6
CONTINUOUS
 62
       3
100
AcDbLine
 10
-73.28199016
 20
104.25
 30
0.0
 11
-100.48199016
 21
104.25
 31
0.0
  0
LINE
  5
4E1
100
AcDbEntity
  8
LAYER0001
  6
CONTINUOUS
 62
       3
100
AcDbLine
 10
-72.38199016
 20
132.75
 30
0.0
 11
-72.38199016
 21
115.25
 31
0.0
  0
LINE
  5
4E2
100
AcDbEntity
  8
LAYER0001
  6
CONTINUOUS
 62
       3
100
AcDbLine
 10
-72.38199016
 20
115.25
 30
0.0
 11
-72.38199016
 21
109.85
 31
0.0
  0
LINE
  5
4E3
100
AcDbEntity
  8
LAYER0001
  6
CONTINUOUS
 62
       3
100
AcDbLine
 10
-72.38199016
 20
109.85
 30
0.0
 11
-72.38199016
 21
105.15
 31
0.0
  0
LINE
  5
4E4
100
AcDbEntity
  8
LAYER0001
  6
CONTINUOUS
 62
       3
100
AcDbLine
 10
18.78604404
 20
-13.6
 30
0.0
 11
18.78604404
 21
13.6
 31
0.0
  0
LINE
  5
4E5
100
AcDbEntity
  8
LAYER0001
  6
CONTINUOUS
 62
       3
100
AcDbLine
 10
24.38604404
 20
-14.5
 30
0.0
 11
19.68604404
 21
-14.5
 31
0.0
  0
LINE
  5
4E6
100
AcDbEntity
  8
LAYER0001
  6
CONTINUOUS
 62
       3
100
AcDbLine
 10
29.78604404
 20
-14.5
 30
0.0
 11
24.38604404
 21
-14.5
 31
0.0
  0
LINE
  5
4E7
100
AcDbEntity
  8
LAYER0001
  6
CONTINUOUS
 62
       3
100
AcDbLine
 10
47.28604404
 20
14.5
 30
0.0
 11
47.28604404
 21
-14.5
 31
0.0
  0
LINE
  5
4E8
100
AcDbEntity
  8
LAYER0001
  6
CONTINUOUS
 62
       3
100
AcDbLine
 10
19.68604404
 20
14.5
 30
0.0
 11
47.28604404
 21
14.5
 31
0.0
  0
LINE
  5
4E9
100
AcDbEntity
  8
LAYER0001
  6
CONTINUOUS
 62
       3
100
AcDbLine
 10
47.28604404
 20
-14.5
 30
0.0
 11
29.78604404
 21
-14.5
 31
0.0
  0
CIRCLE
  5
4EA
100
AcDbEntity
  8
LAYER0001
  6
CONTINUOUS
 62
       3
100
AcDbCircle
 10
-86.88199016
 20
0.0
 30
0.0
 40
14.5
  0
ARC
  5
4EB
100
AcDbEntity
  8
LAYER0001
  6
CONTINUOUS
 62
       3
100
AcDbCircle
 10
-100.48199016
 20
105.15
 30
0.0
 40
0.9
100
AcDbArc
 50
180.0
 51
270.0
  0
ARC
  5
4EC
100
AcDbEntity
  8
LAYER0001
  6
CONTINUOUS
 62
       3
100
AcDbCircle
 10
-73.28199016
 20
105.15
 30
0.0
 40
0.9
100
AcDbArc
 50
270.0
 51
360.0
  0
ARC
  5
4ED
100
AcDbEntity
  8
LAYER0001
  6
CONTINUOUS
 62
       3
100
AcDbCircle
 10
19.68604404
 20
13.6
 30
0.0
 40
0.9
100
AcDbArc
 50
90.0
 51
180.0
  0
ARC
  5
4EE
100
AcDbEntity
  8
LAYER0001
  6
CONTINUOUS
 62
       3
100
AcDbCircle
 10
19.68604404
 20
-13.6
 30
0.0
 40
0.9
100
AcDbArc
 50
180.0
 51
270.0
  0
LINE
  5
4EF
100
AcDbEntity
  8
LAYER0001
  6
CONTINUOUS
 62
       3
100
AcDbLine
 10
-83.38199016
 20
31.7
 30
0.0
 11
-83.58199016
 21
31.5
 31
0.0
  0
LINE
  5
4F0
100
AcDbEntity
  8
LAYER0001
  6
CONTINUOUS
 62
       3
100
AcDbLine
 10
-90.38199016
 20
31.7
 30
0.0
 11
-90.18199016
 21
31.5
 31
0.0
  0
LINE
  5
4F1
100
AcDbEntity
  8
LAYER0001
  6
CONTINUOUS
 62
       3
100
AcDbLine
 10
-83.38199016
 20
31.7
 30
0.0
 11
-83.38199016
 21
33.0
 31
0.0
  0
LINE
  5
4F2
100
AcDbEntity
  8
LAYER0001
  6
CONTINUOUS
 62
       3
100
AcDbLine
 10
-90.38199016
 20
31.7
 30
0.0
 11
-90.38199016
 21
33.0
 31
0.0
  0
LINE
  5
4F3
100
AcDbEntity
  8
LAYER0001
  6
CONTINUOUS
 62
       3
100
AcDbLine
 10
-89.88199016
 20
33.5
 30
0.0
 11
-83.88199016
 21
33.5
 31
0.0
  0
LINE
  5
4F4
100
AcDbEntity
  8
LAYER0001
  6
CONTINUOUS
 62
       3
100
AcDbLine
 10
-90.18199016
 20
31.5
 30
0.0
 11
-83.58199016
 21
31.5
 31
0.0
  0
LINE
  5
4F5
100
AcDbEntity
  8
LAYER0001
  6
CONTINUOUS
 62
       3
100
AcDbLine
 10
31.93604404
 20
31.5
 30
0.0
 11
32.58604404
 21
31.5
 31
0.0
  0
LINE
  5
4F6
100
AcDbEntity
  8
LAYER0001
  6
CONTINUOUS
 62
       3
100
AcDbLine
 10
25.98604404
 20
31.5
 30
0.0
 11
26.63604404
 21
31.5
 31
0.0
  0
LINE
  5
4F7
100
AcDbEntity
  8
LAYER0001
  6
CONTINUOUS
 62
       3
100
AcDbLine
 10
26.28604404
 20
33.5
 30
0.0
 11
32.28604404
 21
33.5
 31
0.0
  0
LINE
  5
4F8
100
AcDbEntity
  8
LAYER0001
  6
CONTINUOUS
 62
       3
100
AcDbLine
 10
25.78604404
 20
31.7
 30
0.0
 11
25.78604404
 21
33.0
 31
0.0
  0
LINE
  5
4F9
100
AcDbEntity
  8
LAYER0001
  6
CONTINUOUS
 62
       3
100
AcDbLine
 10
32.78604404
 20
31.7
 30
0.0
 11
32.78604404
 21
33.0
 31
0.0
  0
LINE
  5
4FA
100
AcDbEntity
  8
LAYER0001
  6
CONTINUOUS
 62
       3
100
AcDbLine
 10
25.78604404
 20
31.7
 30
0.0
 11
25.98604404
 21
31.5
 31
0.0
  0
LINE
  5
4FB
100
AcDbEntity
  8
LAYER0001
  6
CONTINUOUS
 62
       3
100
AcDbLine
 10
32.78604404
 20
31.7
 30
0.0
 11
32.58604404
 21
31.5
 31
0.0
  0
CIRCLE
  5
4FC
100
AcDbEntity
  8
LAYER0001
  6
CONTINUOUS
 62
       3
100
AcDbCircle
 10
-86.88199016
 20
114.75
 30
0.0
 40
3.5
  0
ARC
  5
4FD
100
AcDbEntity
  8
LAYER0001
  6
CONTINUOUS
 62
       3
100
AcDbCircle
 10
-89.88199016
 20
33.0
 30
0.0
 40
0.5
100
AcDbArc
 50
90.0
 51
180.0
  0
ARC
  5
4FE
100
AcDbEntity
  8
LAYER0001
  6
CONTINUOUS
 62
       3
100
AcDbCircle
 10
-83.88199016
 20
33.0
 30
0.0
 40
0.5
100
AcDbArc
 50
0.0
 51
90.0
  0
ARC
  5
4FF
100
AcDbEntity
  8
LAYER0001
  6
CONTINUOUS
 62
       3
100
AcDbCircle
 10
32.28604404
 20
33.0
 30
0.0
 40
0.5
100
AcDbArc
 50
0.0
 51
90.0
  0
ARC
  5
500
100
AcDbEntity
  8
LAYER0001
  6
CONTINUOUS
 62
       3
100
AcDbCircle
 10
26.28604404
 20
33.0
 30
0.0
 40
0.5
100
AcDbArc
 50
90.0
 51
180.0
  0
LINE
  5
501
100
AcDbEntity
  8
LAYER0001
  6
CONTINUOUS
 62
       3
100
AcDbLine
 10
-83.38199016
 20
14.07124728
 30
0.0
 11
-83.38199016
 21
31.3
 31
0.0
  0
LINE
  5
502
100
AcDbEntity
  8
LAYER0001
  6
CONTINUOUS
 62
       3
100
AcDbLine
 10
-90.18199016
 20
31.5
 30
0.0
 11
-83.58199016
 21
31.5
 31
0.0
  0
LINE
  5
503
100
AcDbEntity
  8
LAYER0001
  6
CONTINUOUS
 62
       3
100
AcDbLine
 10
-83.38199016
 20
31.3
 30
0.0
 11
-83.58199016
 21
31.5
 31
0.0
  0
LINE
  5
504
100
AcDbEntity
  8
LAYER0001
  6
CONTINUOUS
 62
       3
100
AcDbLine
 10
-90.18199016
 20
31.5
 30
0.0
 11
-90.38199016
 21
31.3
 31
0.0
  0
LINE
  5
505
100
AcDbEntity
  8
LAYER0001
  6
CONTINUOUS
 62
       3
100
AcDbLine
 10
-90.38199016
 20
31.3
 30
0.0
 11
-90.38199016
 21
14.07124728
 31
0.0
  0
LINE
  5
506
100
AcDbEntity
  8
LAYER0001
  6
CONTINUOUS
 62
       3
100
AcDbLine
 10
123.22881977
 20
-10.3
 30
0.0
 11
123.22881977
 21
-10.6
 31
0.0
  0
LINE
  5
507
100
AcDbEntity
  8
LAYER0001
  6
CONTINUOUS
 62
       3
100
AcDbLine
 10
138.22881977
 20
0.0
 30
0.0
 11
138.22881977
 21
-30.0
 31
0.0
  0
LINE
  5
508
100
AcDbEntity
  8
LAYER0001
  6
CONTINUOUS
 62
       3
100
AcDbLine
 10
138.22881977
 20
-30.0
 30
0.0
 11
125.22881977
 21
-30.0
 31
0.0
  0
LINE
  5
509
100
AcDbEntity
  8
LAYER0001
  6
CONTINUOUS
 62
       3
100
AcDbLine
 10
123.22881977
 20
-10.6
 30
0.0
 11
123.22881977
 21
-12.20416848
 31
0.0
  0
LINE
  5
50A
100
AcDbEntity
  8
LAYER0001
  6
CONTINUOUS
 62
       3
100
AcDbLine
 10
123.22881977
 20
0.0
 30
0.0
 11
123.22881977
 21
-28.0
 31
0.0
  0
LINE
  5
50B
100
AcDbEntity
  8
LAYER0001
  6
CONTINUOUS
 62
       3
100
AcDbLine
 10
123.22881977
 20
28.0
 30
0.0
 11
123.22881977
 21
0.0
 31
0.0
  0
LINE
  5
50C
100
AcDbEntity
  8
LAYER0001
  6
CONTINUOUS
 62
       3
100
AcDbLine
 10
123.22881977
 20
12.20416848
 30
0.0
 11
123.22881977
 21
10.6
 31
0.0
  0
LINE
  5
50D
100
AcDbEntity
  8
LAYER0001
  6
CONTINUOUS
 62
       3
100
AcDbLine
 10
125.22881977
 20
30.0
 30
0.0
 11
138.22881977
 21
30.0
 31
0.0
  0
LINE
  5
50E
100
AcDbEntity
  8
LAYER0001
  6
CONTINUOUS
 62
       3
100
AcDbLine
 10
138.22881977
 20
30.0
 30
0.0
 11
138.22881977
 21
0.0
 31
0.0
  0
LINE
  5
50F
100
AcDbEntity
  8
LAYER0001
  6
CONTINUOUS
 62
       3
100
AcDbLine
 10
123.22881977
 20
10.6
 30
0.0
 11
123.22881977
 21
10.3
 31
0.0
  0
ARC
  5
510
100
AcDbEntity
  8
LAYER0001
  6
CONTINUOUS
 62
       3
100
AcDbCircle
 10
125.22881977
 20
-28.0
 30
0.0
 40
2.0
100
AcDbArc
 50
180.0
 51
270.0
  0
ARC
  5
511
100
AcDbEntity
  8
LAYER0001
  6
CONTINUOUS
 62
       3
100
AcDbCircle
 10
125.22881977
 20
28.0
 30
0.0
 40
2.0
100
AcDbArc
 50
90.0
 51
180.0
  0
LINE
  5
512
100
AcDbEntity
  8
LAYER0001
  6
CONTINUOUS
 62
       3
100
AcDbLine
 10
159.1944852
 20
8.25
 30
0.0
 11
159.1944852
 21
8.74311145
 31
0.0
  0
LINE
  5
513
100
AcDbEntity
  8
LAYER0001
  6
CONTINUOUS
 62
       3
100
AcDbLine
 10
145.1944852
 20
10.24495132
 30
0.0
 11
158.03418327
 21
9.96960876
 31
0.0
  0
LINE
  5
514
100
AcDbEntity
  8
LAYER0001
  6
CONTINUOUS
 62
       3
100
AcDbLine
 10
145.1944852
 20
9.08255543
 30
0.0
 11
145.1944852
 21
10.24495132
 31
0.0
  0
LINE
  5
515
100
AcDbEntity
  8
LAYER0001
  6
CONTINUOUS
 62
       3
100
AcDbLine
 10
158.03418327
 20
9.96960876
 30
0.0
 11
158.03418327
 21
8.80682666
 31
0.0
  0
LINE
  5
516
100
AcDbEntity
  8
LAYER0001
  6
CONTINUOUS
 62
       3
100
AcDbLine
 10
158.03418327
 20
9.96960876
 30
0.0
 11
159.1944852
 21
8.74311145
 31
0.0
  0
LINE
  5
517
100
AcDbEntity
  8
LAYER0001
  6
CONTINUOUS
 62
       3
100
AcDbLine
 10
143.08580935
 20
10.3
 30
0.0
 11
145.1944852
 21
10.24495132
 31
0.0
  0
LINE
  5
518
100
AcDbEntity
  8
LAYER0001
  6
CONTINUOUS
 62
       3
100
AcDbLine
 10
145.1944852
 20
-10.24495132
 30
0.0
 11
143.08580935
 21
-10.3
 31
0.0
  0
LINE
  5
519
100
AcDbEntity
  8
LAYER0001
  6
CONTINUOUS
 62
       3
100
AcDbLine
 10
159.1944852
 20
-8.74311145
 30
0.0
 11
158.03418327
 21
-9.96960876
 31
0.0
  0
LINE
  5
51A
100
AcDbEntity
  8
LAYER0001
  6
CONTINUOUS
 62
       3
100
AcDbLine
 10
159.1944852
 20
-8.25
 30
0.0
 11
159.1944852
 21
8.25
 31
0.0
  0
LINE
  5
51B
100
AcDbEntity
  8
LAYER0001
  6
CONTINUOUS
 62
       3
100
AcDbLine
 10
158.03418327
 20
-8.80682666
 30
0.0
 11
158.03418327
 21
-9.96960876
 31
0.0
  0
LINE
  5
51C
100
AcDbEntity
  8
LAYER0001
  6
CONTINUOUS
 62
       3
100
AcDbLine
 10
145.1944852
 20
-10.24495132
 30
0.0
 11
145.1944852
 21
-9.08255543
 31
0.0
  0
LINE
  5
51D
100
AcDbEntity
  8
LAYER0001
  6
CONTINUOUS
 62
       3
100
AcDbLine
 10
158.03418327
 20
-9.96960876
 30
0.0
 11
145.1944852
 21
-10.24495132
 31
0.0
  0
LINE
  5
51E
100
AcDbEntity
  8
LAYER0001
  6
CONTINUOUS
 62
       3
100
AcDbLine
 10
159.1944852
 20
-8.74311145
 30
0.0
 11
159.1944852
 21
-8.25
 31
0.0
  0
LINE
  5
51F
100
AcDbEntity
  8
LAYER0001
  6
CONTINUOUS
 62
       3
100
AcDbLine
 10
143.08580935
 20
-10.3
 30
0.0
 11
138.22881977
 21
-10.3
 31
0.0
  0
LINE
  5
520
100
AcDbEntity
  8
LAYER0001
  6
CONTINUOUS
 62
       3
100
AcDbLine
 10
123.22881977
 20
-10.3
 30
0.0
 11
103.28604404
 21
-10.3
 31
0.0
  0
LINE
  5
521
100
AcDbEntity
  8
LAYER0001
  6
CONTINUOUS
 62
       3
100
AcDbLine
 10
158.03418327
 20
8.80682666
 30
0.0
 11
158.03418327
 21
-8.80682666
 31
0.0
  0
LINE
  5
522
100
AcDbEntity
  8
LAYER0001
  6
CONTINUOUS
 62
       3
100
AcDbLine
 10
145.1944852
 20
9.08255543
 30
0.0
 11
145.1944852
 21
-9.08255543
 31
0.0
  0
LINE
  5
523
100
AcDbEntity
  8
LAYER0001
  6
CONTINUOUS
 62
       3
100
AcDbLine
 10
103.28604404
 20
10.3
 30
0.0
 11
123.22881977
 21
10.3
 31
0.0
  0
LINE
  5
524
100
AcDbEntity
  8
LAYER0001
  6
CONTINUOUS
 62
       3
100
AcDbLine
 10
138.22881977
 20
10.3
 30
0.0
 11
143.08580935
 21
10.3
 31
0.0
  0
LINE
  5
525
100
AcDbEntity
  8
0
  6
CONTINUOUS
 62
       9
100
AcDbLine
 10
-54.32921066
 20
18.32658797
 30
0.0
 11
-45.77013575
 21
18.32658797
 31
0.0
  0
LINE
  5
526
100
AcDbEntity
  8
0
  6
CONTINUOUS
 62
       9
100
AcDbLine
 10
-54.32921066
 20
-32.5250001
 30
0.0
 11
-45.77013575
 21
-32.5250001
 31
0.0
  0
INSERT
  5
527
100
AcDbEntity
  8
0
  6
CONTINUOUS
100
AcDbBlockReference
  2
GROUP_1
 10
0.0
 20
0.0
 30
0.0
  0
INSERT
  5
528
100
AcDbEntity
  8
0
  6
CONTINUOUS
100
AcDbBlockReference
  2
GROUP_2
 10
0.0
 20
0.0
 30
0.0
  0
INSERT
  5
529
100
AcDbEntity
  8
0
  6
CONTINUOUS
100
AcDbBlockReference
  2
GROUP_3
 10
0.0
 20
0.0
 30
0.0
  0
INSERT
  5
52A
100
AcDbEntity
  8
0
  6
CONTINUOUS
100
AcDbBlockReference
  2
GROUP_4
 10
0.0
 20
0.0
 30
0.0
  0
INSERT
  5
52B
100
AcDbEntity
  8
0
  6
CONTINUOUS
100
AcDbBlockReference
  2
DA_IMAGEDIMGROUP_1
 10
0.0
 20
0.0
 30
0.0
  0
INSERT
  5
52C
100
AcDbEntity
  8
0
  6
CONTINUOUS
100
AcDbBlockReference
  2
DA_IMAGEDIMGROUP_2
 10
0.0
 20
0.0
 30
0.0
  0
INSERT
  5
52D
100
AcDbEntity
  8
0
  6
CONTINUOUS
100
AcDbBlockReference
  2
GROUP_5
 10
0.0
 20
0.0
 30
0.0
  0
INSERT
  5
52E
100
AcDbEntity
  8
0
  6
CONTINUOUS
100
AcDbBlockReference
  2
DA_IMAGEDIMGROUP_3
 10
0.0
 20
0.0
 30
0.0
  0
INSERT
  5
52F
100
AcDbEntity
  8
0
  6
CONTINUOUS
100
AcDbBlockReference
  2
DA_IMAGEDIMGROUP_4
 10
0.0
 20
0.0
 30
0.0
  0
INSERT
  5
530
100
AcDbEntity
  8
0
  6
CONTINUOUS
100
AcDbBlockReference
  2
GROUP_6
 10
0.0
 20
0.0
 30
0.0
  0
INSERT
  5
531
100
AcDbEntity
  8
0
  6
CONTINUOUS
100
AcDbBlockReference
  2
DA_IMAGEDIMGROUP_5
 10
0.0
 20
0.0
 30
0.0
  0
INSERT
  5
532
100
AcDbEntity
  8
0
  6
CONTINUOUS
100
AcDbBlockReference
  2
DA_IMAGEDIMGROUP_6
 10
0.0
 20
0.0
 30
0.0
  0
INSERT
  5
533
100
AcDbEntity
  8
0
  6
CONTINUOUS
100
AcDbBlockReference
  2
GROUP_7
 10
0.0
 20
0.0
 30
0.0
  0
INSERT
  5
534
100
AcDbEntity
  8
0
  6
CONTINUOUS
100
AcDbBlockReference
  2
GROUP_8
 10
0.0
 20
0.0
 30
0.0
  0
INSERT
  5
535
100
AcDbEntity
  8
0
  6
CONTINUOUS
100
AcDbBlockReference
  2
GROUP_9
 10
0.0
 20
0.0
 30
0.0
  0
INSERT
  5
536
100
AcDbEntity
  8
0
  6
CONTINUOUS
100
AcDbBlockReference
  2
GROUP_10
 10
0.0
 20
0.0
 30
0.0
  0
INSERT
  5
537
100
AcDbEntity
  8
0
  6
CONTINUOUS
100
AcDbBlockReference
  2
GROUP_11
 10
0.0
 20
0.0
 30
0.0
  0
INSERT
  5
538
100
AcDbEntity
  8
0
  6
CONTINUOUS
100
AcDbBlockReference
  2
GROUP_12
 10
0.0
 20
0.0
 30
0.0
  0
ENDSEC
  0
SECTION
  2
OBJECTS
  0
DICTIONARY
  5
19
100
AcDbDictionary
  3
ACAD_GROUP
350
1A
  3
ACAD_MLINESTYLE
350
1B
  0
DICTIONARY
  5
1A
102
{ACAD_REACTORS
330
19
102
}
100
AcDbDictionary
  0
DICTIONARY
  5
1B
102
{ACAD_REACTORS
330
19
102
}
100
AcDbDictionary
  3
STANDARD
350
1C
  0
MLINESTYLE
  5
1C
102
{ACAD_REACTORS
330
1B
102
}
100
AcDbMlineStyle
  2
STANDARD
 70
       0
  3

 62
       0
 51
90.0
 52
90.0
 71
       2
 49
0.5
 62
     256
  6
BYLAYER
 49
-0.5
 62
     256
  6
BYLAYER
  0
ENDSEC
  0
EOF
