  0
SECTION
  2
HEADER
  9
$ACADVER
  1
AC1009
  9
$INSBASE
 10
0.0
 20
0.0
 30
0.0
  9
$EXTMIN
 10
0.238058
 20
0.4482100000000001
 30
0.0
  9
$EXTMAX
 10
210.24000000000001
 20
297.44999999999987
 30
0.0
  9
$LIMMIN
 10
0.0
 20
0.0
  9
$LIMMAX
 10
12.0
 20
9.0
  9
$ORTHOMODE
 70
     0
  9
$REGENMODE
 70
     1
  9
$FILLMODE
 70
     1
  9
$QTEXTMODE
 70
     0
  9
$MIRRTEXT
 70
     1
  9
$DRAGMODE
 70
     2
  9
$LTSCALE
 40
1.0
  9
$OSMODE
 70
    37
  9
$ATTMODE
 70
     1
  9
$TEXTSIZE
 40
0.0
  9
$TRACEWID
 40
0.05
  9
$TEXTSTYLE
  7
STANDARD
  9
$CLAYER
  8
0
  9
$CELTYPE
  6
CONTINUOUS
  9
$CECOLOR
 62
   256
  9
$DIMSCALE
 40
1.0
  9
$DIMASZ
 40
0.18
  9
$DIMEXO
 40
0.0625
  9
$DIMDLI
 40
0.38
  9
$DIMRND
 40
0.0
  9
$DIMDLE
 40
0.0
  9
$DIMEXE
 40
0.18
  9
$DIMTP
 40
0.0
  9
$DIMTM
 40
0.0
  9
$DIMTXT
 40
0.18
  9
$DIMCEN
 40
0.09
  9
$DIMTSZ
 40
0.0
  9
$DIMTOL
 70
     0
  9
$DIMLIM
 70
     0
  9
$DIMTIH
 70
     1
  9
$DIMTOH
 70
     1
  9
$DIMSE1
 70
     0
  9
$DIMSE2
 70
     0
  9
$DIMTAD
 70
     0
  9
$DIMZIN
 70
     0
  9
$DIMBLK
  1

  9
$DIMASO
 70
     1
  9
$DIMSHO
 70
     1
  9
$DIMPOST
  1

  9
$DIMAPOST
  1

  9
$DIMALT
 70
     0
  9
$DIMALTD
 70
     2
  9
$DIMALTF
 40
25.399999999999999
  9
$DIMLFAC
 40
1.0
  9
$DIMTOFL
 70
     0
  9
$DIMTVP
 40
0.0
  9
$DIMTIX
 70
     0
  9
$DIMSOXD
 70
     0
  9
$DIMSAH
 70
     0
  9
$DIMBLK1
  1

  9
$DIMBLK2
  1

  9
$DIMSTYLE
  2
STANDARD
  9
$DIMCLRD
 70
     0
  9
$DIMCLRE
 70
     0
  9
$DIMCLRT
 70
     0
  9
$DIMTFAC
 40
1.0
  9
$DIMGAP
 40
0.09
  9
$LUNITS
 70
     2
  9
$LUPREC
 70
     4
  9
$SKETCHINC
 40
0.1
  9
$FILLETRAD
 40
0.0
  9
$AUNITS
 70
     0
  9
$AUPREC
 70
     0
  9
$MENU
  1
.
  9
$ELEVATION
 40
0.0
  9
$PELEVATION
 40
0.0
  9
$THICKNESS
 40
0.0
  9
$LIMCHECK
 70
     0
  9
$BLIPMODE
 70
     0
  9
$CHAMFERA
 40
0.0
  9
$CHAMFERB
 40
0.0
  9
$SKPOLY
 70
     0
  9
$TDCREATE
 40
2444972.375
  9
$TDUPDATE
 40
2453897.2757687611
  9
$TDINDWG
 40
0.000016088
  9
$TDUSRTIMER
 40
0.000016088
  9
$USRTIMER
 70
     1
  9
$ANGBASE
 50
0.0
  9
$ANGDIR
 70
     0
  9
$PDMODE
 70
     0
  9
$PDSIZE
 40
0.0
  9
$PLINEWID
 40
0.0
  9
$COORDS
 70
     1
  9
$SPLFRAME
 70
     0
  9
$SPLINETYPE
 70
     6
  9
$SPLINESEGS
 70
     8
  9
$ATTDIA
 70
     0
  9
$ATTREQ
 70
     1
  9
$HANDLING
 70
     1
  9
$HANDSEED
  5
213
  9
$SURFTAB1
 70
     6
  9
$SURFTAB2
 70
     6
  9
$SURFTYPE
 70
     6
  9
$SURFU
 70
     6
  9
$SURFV
 70
     6
  9
$UCSNAME
  2

  9
$UCSORG
 10
0.0
 20
0.0
 30
0.0
  9
$UCSXDIR
 10
1.0
 20
0.0
 30
0.0
  9
$UCSYDIR
 10
0.0
 20
1.0
 30
0.0
  9
$PUCSNAME
  2

  9
$PUCSORG
 10
0.0
 20
0.0
 30
0.0
  9
$PUCSXDIR
 10
1.0
 20
0.0
 30
0.0
  9
$PUCSYDIR
 10
0.0
 20
1.0
 30
0.0
  9
$USERI1
 70
     0
  9
$USERI2
 70
     0
  9
$USERI3
 70
     0
  9
$USERI4
 70
     0
  9
$USERI5
 70
     0
  9
$USERR1
 40
0.0
  9
$USERR2
 40
0.0
  9
$USERR3
 40
0.0
  9
$USERR4
 40
0.0
  9
$USERR5
 40
0.0
  9
$WORLDVIEW
 70
     1
  9
$SHADEDGE
 70
     3
  9
$SHADEDIF
 70
    70
  9
$TILEMODE
 70
     1
  9
$MAXACTVP
 70
    48
  9
$PLIMCHECK
 70
     0
  9
$PEXTMIN
 10
1.0000000000000000E+020
 20
1.0000000000000000E+020
 30
1.0000000000000000E+020
  9
$PEXTMAX
 10
-1.0000000000000000E+020
 20
-1.0000000000000000E+020
 30
-1.0000000000000000E+020
  9
$PLIMMIN
 10
0.0
 20
0.0
  9
$PLIMMAX
 10
12.0
 20
9.0
  9
$UNITMODE
 70
     0
  9
$VISRETAIN
 70
     1
  9
$PLINEGEN
 70
     0
  9
$PSLTSCALE
 70
     1
  0
ENDSEC
  0
SECTION
  2
TABLES
  0
TABLE
  2
VPORT
 70
     2
  0
VPORT
  2
*ACTIVE
 70
     0
 10
0.0
 20
0.0
 11
1.0
 21
1.0
 12
164.79476332825271
 22
148.72499999999991
 13
0.0
 23
0.0
 14
1.0
 24
1.0
 15
0.0
 25
0.0
 16
0.0
 26
0.0
 36
1.0
 17
0.0
 27
0.0
 37
0.0
 40
300.26498422712922
 41
2.1842105263157889
 42
50.0
 43
0.0
 44
0.0
 50
0.0
 51
0.0
 71
     0
 72
   100
 73
     1
 74
     1
 75
     0
 76
     0
 77
     0
 78
     0
  0
ENDTAB
  0
TABLE
  2
LTYPE
 70
     4
  0
LTYPE
  2
CONTINUOUS
 70
     0
  3
Solid line
 72
    65
 73
     0
 40
0.0
  0
LTYPE
  2
AIGENLINE001
 70
     0
  3
generate AI->DXF Converter
 72
    65
 73
     4
 40
5.8561449999999988
 49
3.5278
 49
-0.776115
 49
0.776115
 49
-0.776115
  0
LTYPE
  2
AIGENLINE002
 70
     0
  3
generate AI->DXF Converter
 72
    65
 73
     2
 40
1.5522299999999991
 49
0.776115
 49
-0.776115
  0
LTYPE
  2
AIGENLINE003
 70
     0
  3
generate AI->DXF Converter
 72
    65
 73
     6
 40
7.4083750000000004
 49
3.5278
 49
-0.776115
 49
0.776115
 49
-0.776115
 49
0.776115
 49
-0.776115
  0
ENDTAB
  0
TABLE
  2
LAYER
 70
     2
  0
LAYER
  2
0
 70
     0
 62
     7
  6
CONTINUOUS
  0
LAYER
  2
_________2
 70
     0
 62
     7
  6
CONTINUOUS
  0
ENDTAB
  0
TABLE
  2
STYLE
 70
     1
  0
STYLE
  2
STANDARD
 70
     0
 40
0.0
 41
0.0
 50
0.0
 71
     0
 42
0.0
  3
TXT
  4
EXTFONT.SHX
  0
ENDTAB
  0
TABLE
  2
VIEW
 70
     0
  0
ENDTAB
  0
TABLE
  2
UCS
 70
     0
  0
ENDTAB
  0
TABLE
  2
APPID
 70
     1
  0
APPID
  2
ACAD
 70
     0
  0
ENDTAB
  0
TABLE
  2
DIMSTYLE
 70
     1
  0
DIMSTYLE
  2
STANDARD
 70
     0
  3

  4

  5

  6

  7

 40
1.0
 41
0.18
 42
0.0625
 43
0.38
 44
0.18
 45
0.0
 46
0.0
 47
0.0
 48
0.0
140
0.18
141
0.09
142
0.0
143
25.399999999999999
144
1.0
145
0.0
146
1.0
147
0.09
 71
     0
 72
     0
 73
     1
 74
     1
 75
     0
 76
     0
 77
     0
 78
     0
170
     0
171
     2
172
     0
173
     0
174
     0
175
     0
176
     0
177
     0
178
     0
  0
ENDTAB
  0
ENDSEC
  0
SECTION
  2
BLOCKS
  0
BLOCK
  8
0
  2
$MODEL_SPACE
 70
     0
 10
0.0
 20
0.0
 30
0.0
  3
$MODEL_SPACE
  1

  0
ENDBLK
  5
1A
  8
0
  0
BLOCK
 67
     1
  8
0
  2
$PAPER_SPACE
 70
     0
 10
0.0
 20
0.0
 30
0.0
  3
$PAPER_SPACE
  1

  0
ENDBLK
  5
17
 67
     1
  8
0
  0
ENDSEC
  0
SECTION
  2
ENTITIES
  0
TEXT
  5
24
  8
0
 62
     7
 10
28.900400000000001
 20
200.93828749999989
 30
0.0
 40
3.0923400000000001
  1
280
 50
90.0
 41
0.5
 72
     1
 11
28.900400000000001
 21
202.8709999999999
 31
0.0
  0
TEXT
  5
25
  8
0
 62
     7
 10
75.028099999999995
 20
218.01574500000001
 30
0.0
 40
3.0923400000000001
  1
67.5
 50
90.0
 41
0.5
 72
     1
 11
75.028099999999995
 21
220.33499999999989
 31
0.0
  0
TEXT
  5
26
  8
0
 62
     7
 10
75.028099999999995
 20
212.04452499999991
 30
0.0
 40
3.0923400000000001
  1
72
 50
90.0
 41
0.5
 72
     1
 11
75.028099999999995
 21
213.33299999999991
 31
0.0
  0
TEXT
  5
27
  8
0
 62
     7
 10
28.942399999999989
 20
220.9896775
 30
0.0
 40
3.0923400000000001
  1
110
 50
90.0
 41
0.5
 72
     1
 11
28.942399999999989
 21
222.40700000000001
 31
0.0
  0
TEXT
  5
28
  8
0
 62
     7
 10
51.736339999999991
 20
212.47300000000001
 30
0.0
 40
3.0923400000000001
  1
%%c45
 41
0.5
 72
     1
 11
53.797899999999991
 21
212.47300000000001
 31
0.0
  0
TEXT
  5
29
  8
0
 62
     7
 10
135.10476
 20
170.768
 30
0.0
 40
3.0923400000000001
  1
カウンター切込寸法
 41
0.5
 72
     1
 11
143.351
 21
170.768
 31
0.0
  0
TEXT
  5
2A
  8
0
 62
     7
 10
157.5456774999999
 20
99.144300000000015
 30
0.0
 40
3.0923400000000001
  1
110
 41
0.5
 72
     1
 11
158.96299999999991
 21
99.144300000000015
 31
0.0
  0
TEXT
  5
2B
  8
0
 62
     7
 10
141.28944000000001
 20
183.41200000000001
 30
0.0
 40
3.0923400000000001
  1
525
 41
0.5
 72
     1
 11
143.351
 21
183.41200000000001
 31
0.0
  0
TEXT
  5
2C
  8
0
 62
     7
 10
145.69820250000001
 20
243.45799999999991
 30
0.0
 40
3.0923400000000001
  1
107.5
 41
0.5
 72
     1
 11
148.404
 21
243.45799999999991
 31
0.0
  0
TEXT
  5
2D
  8
0
 62
     7
 10
120.9762699999999
 20
203.62
 30
0.0
 40
3.0923400000000001
  1
45%%d
 41
0.5
 72
     2
 11
124.584
 21
203.62
 31
0.0
  0
TEXT
  5
2E
  8
0
 62
     7
 10
120.9762699999999
 20
211.64399999999989
 30
0.0
 40
3.0923400000000001
  1
45%%d
 41
0.5
 72
     2
 11
124.584
 21
211.64399999999989
 31
0.0
  0
TEXT
  5
2F
  8
0
 62
     7
 10
128.26858376714381
 20
198.44958376714379
 30
0.0
 40
3.0923400000000001
  1
190
 50
45.0
 41
0.5
 72
     1
 11
129.45299999999989
 21
199.63399999999999
 31
0.0
  0
TEXT
  5
30
  8
0
 62
     7
 10
127.05006635509891
 20
220.27475236291411
 30
0.0
 40
3.0923400000000001
  1
190
 50
2.06128
 41
0.5
 72
     1
 11
128.7239999999999
 21
220.33499999999989
 31
0.0
  0
TEXT
  5
31
  8
0
 62
     7
 10
104.76600000000001
 20
242.20699999999999
 30
0.0
 40
3.0923400000000001
  1
t 24～30
 41
0.5
  0
TEXT
  5
32
  8
0
 62
     7
 10
101.366
 20
246.83699999999999
 30
0.0
 40
3.0923400000000001
  1
裏補強木（別途）4ケ所
 41
0.5
  0
TEXT
  5
33
  8
0
 62
     7
 10
135.20320249999989
 20
243.45799999999991
 30
0.0
 40
3.0923400000000001
  1
107.5
 41
0.5
 72
     1
 11
137.90899999999991
 21
243.45799999999991
 31
0.0
  0
TEXT
  5
34
  8
0
 62
     7
 10
61.700339999999997
 20
135.494
 30
0.0
 40
3.0923400000000001
  1
585
 41
0.5
 72
     1
 11
63.761899999999997
 21
135.494
 31
0.0
  0
TEXT
  5
35
  8
0
 62
     7
 10
61.30874
 20
172.7829999999999
 30
0.0
 40
3.0923400000000001
  1
585
 41
0.5
 72
     1
 11
63.3703
 21
172.7829999999999
 31
0.0
  0
TEXT
  5
36
  8
0
 62
     7
 10
61.437587499999992
 20
179.68199999999999
 30
0.0
 40
3.0923400000000001
  1
540
 41
0.5
 72
     1
 11
63.3703
 21
179.68199999999999
 31
0.0
  0
TEXT
  5
37
  8
0
 62
     7
 10
139.16221458740219
 20
215.4013231209471
 30
0.0
 40
3.0923400000000001
  1
R417.5
 50
77.907499999999999
 41
0.5
 72
     1
 11
139.91800000000001
 21
218.929
 31
0.0
  0
TEXT
  5
38
  8
0
 62
     7
 10
144.53176804632969
 20
232.42991087998399
 30
0.0
 40
3.0920499999999991
  1
R107.5
 50
287.58999999999992
 41
0.5
 72
     1
 11
145.58299999999991
 21
229.11399999999989
 31
0.0
  0
TEXT
  5
39
  8
0
 62
     7
 10
156.31382118022131
 20
213.17582118022131
 30
0.0
 40
3.0923400000000001
  1
R155
 50
45.0
 41
0.5
 72
     1
 11
158.136
 21
214.99799999999991
 31
0.0
  0
TEXT
  5
3A
  8
0
 62
     7
 10
148.749
 20
211.86752499999989
 30
0.0
 40
3.0923400000000001
  1
72
 50
90.0
 41
0.5
 72
     1
 11
148.749
 21
213.15599999999989
 31
0.0
  0
TEXT
  5
3B
  8
0
 62
     7
 10
148.77699999999999
 20
218.68737250000001
 30
0.0
 40
3.0923400000000001
  1
60
 50
90.0
 41
0.5
 72
     1
 11
148.77699999999999
 21
219.84699999999989
 31
0.0
  0
TEXT
  5
3C
  8
0
 62
     7
 10
111.282
 20
198.87813499999999
 30
0.0
 40
3.0923400000000001
  1
178
 50
90.0
 41
0.5
 72
     1
 11
111.282
 21
200.68199999999999
 31
0.0
  0
TEXT
  5
3D
  8
0
 62
     7
 10
111.3099999999999
 20
218.31466
 30
0.0
 40
3.0923400000000001
  1
239.5
 50
90.0
 41
0.5
 72
     1
 11
111.3099999999999
 21
221.4069999999999
 31
0.0
  0
TEXT
  5
3E
  8
0
 62
     7
 10
181.09200000000001
 20
205.46643999999989
 30
0.0
 40
3.0923400000000001
  1
333
 50
90.0
 41
0.5
 72
     1
 11
181.09200000000001
 21
207.52799999999991
 31
0.0
  0
TEXT
  5
3F
  8
0
 62
     7
 10
174.989
 20
204.3539825
 30
0.0
 40
3.0923400000000001
  1
310
 50
90.0
 41
0.5
 72
     1
 11
174.989
 21
206.029
 31
0.0
  0
TEXT
  5
40
  8
0
 62
     7
 10
103.366
 20
206.1522875
 30
0.0
 40
3.0923400000000001
  1
390
 50
90.0
 41
0.5
 72
     1
 11
103.366
 21
208.08500000000001
 31
0.0
  0
TEXT
  5
41
  8
0
 62
     7
 10
99.017499999999984
 20
114.0012875
 30
0.0
 40
3.0923400000000001
  1
205
 50
90.0
 41
0.5
 72
     1
 11
99.017499999999984
 21
115.934
 31
0.0
  0
TEXT
  5
42
  8
0
 62
     7
 10
98.057299999999998
 20
205.32344000000001
 30
0.0
 40
3.0923400000000001
  1
325
 50
90.0
 41
0.5
 72
     1
 11
98.057299999999998
 21
207.38499999999991
 31
0.0
  0
LINE
  5
43
  8
0
 62
     7
 10
147.18199999999999
 20
216.93299999999991
 30
0.0
 11
150.672
 21
216.93299999999991
 31
0.0
  0
LINE
  5
44
  8
0
 62
     7
 10
54.947400000000002
 20
216.93299999999991
 30
0.0
 11
28.568300000000001
 21
216.93299999999991
 31
0.0
  0
LINE
  5
45
  8
0
 62
     7
 10
149.46299999999991
 20
106.389
 30
0.0
 11
149.21999999999991
 21
106.389
 31
0.0
  0
LINE
  5
46
  8
0
 62
     7
 10
76.158600000000007
 20
216.93299999999991
 30
0.0
 11
76.158600000000007
 21
223.64500000000001
 31
0.0
  0
LINE
  5
47
  8
0
 62
     7
 10
75.573599999999999
 20
219.14400000000001
 30
0.0
 11
76.165899999999993
 21
216.93299999999991
 31
0.0
  0
LINE
  5
48
  8
0
 62
     7
 10
76.165899999999993
 20
216.93299999999991
 30
0.0
 11
76.758099999999999
 21
219.14400000000001
 31
0.0
  0
LINE
  5
49
  8
0
 62
     7
 10
76.758099999999999
 20
219.14400000000001
 30
0.0
 11
75.573599999999999
 21
219.14400000000001
 31
0.0
  0
LINE
  5
4A
  8
0
 62
     7
 10
76.750799999999998
 20
221.435
 30
0.0
 11
76.158600000000007
 21
223.64500000000001
 31
0.0
  0
LINE
  5
4B
  8
0
 62
     7
 10
76.158600000000007
 20
223.64500000000001
 30
0.0
 11
75.566199999999995
 21
221.435
 31
0.0
  0
LINE
  5
4C
  8
0
 62
     7
 10
75.566199999999995
 20
221.435
 30
0.0
 11
76.750799999999998
 21
221.435
 31
0.0
  0
LINE
  5
4D
  8
0
 62
     7
 10
76.158600000000007
 20
209.73299999999989
 30
0.0
 11
76.158600000000007
 21
216.93299999999991
 31
0.0
  0
LINE
  5
4E
  8
0
 62
     7
 10
75.573599999999999
 20
211.9439999999999
 30
0.0
 11
76.165899999999993
 21
209.73299999999989
 31
0.0
  0
LINE
  5
4F
  8
0
 62
     7
 10
76.165899999999993
 20
209.73299999999989
 30
0.0
 11
76.758099999999999
 21
211.9439999999999
 31
0.0
  0
LINE
  5
50
  8
0
 62
     7
 10
76.758099999999999
 20
211.9439999999999
 30
0.0
 11
75.573599999999999
 21
211.9439999999999
 31
0.0
  0
LINE
  5
51
  8
0
 62
     7
 10
29.63699999999999
 20
216.93299999999991
 30
0.0
 11
29.63699999999999
 21
227.93299999999991
 31
0.0
  0
LINE
  5
52
  8
0
 62
     7
 10
29.044799999999992
 20
191.108
 30
0.0
 11
29.63699999999999
 21
188.89699999999999
 31
0.0
  0
LINE
  5
53
  8
0
 62
     7
 10
29.63699999999999
 20
188.89699999999999
 30
0.0
 11
30.229199999999999
 21
191.108
 31
0.0
  0
LINE
  5
54
  8
0
 62
     7
 10
30.229199999999999
 20
191.108
 30
0.0
 11
29.044799999999992
 21
191.108
 31
0.0
  0
LINE
  5
55
  8
0
 62
     7
 10
29.044799999999992
 20
219.14400000000001
 30
0.0
 11
29.63699999999999
 21
216.93299999999991
 31
0.0
  0
LINE
  5
56
  8
0
 62
     7
 10
29.63699999999999
 20
216.93299999999991
 30
0.0
 11
30.229199999999999
 21
219.14400000000001
 31
0.0
  0
LINE
  5
57
  8
0
 62
     7
 10
30.229199999999999
 20
219.14400000000001
 30
0.0
 11
29.044799999999992
 21
219.14400000000001
 31
0.0
  0
LINE
  5
58
  8
0
 62
     7
 10
30.214700000000001
 20
214.7229999999999
 30
0.0
 11
29.622499999999999
 21
216.93299999999991
 31
0.0
  0
LINE
  5
59
  8
0
 62
     7
 10
29.622499999999999
 20
216.93299999999991
 30
0.0
 11
29.0303
 21
214.7229999999999
 31
0.0
  0
LINE
  5
5A
  8
0
 62
     7
 10
29.0303
 20
214.7229999999999
 30
0.0
 11
30.214700000000001
 21
214.7229999999999
 31
0.0
  0
LINE
  5
5B
  8
0
 62
     7
 10
30.229199999999999
 20
225.7229999999999
 30
0.0
 11
29.63699999999999
 21
227.93299999999991
 31
0.0
  0
LINE
  5
5C
  8
0
 62
     7
 10
29.63699999999999
 20
227.93299999999991
 30
0.0
 11
29.044799999999992
 21
225.7229999999999
 31
0.0
  0
LINE
  5
5D
  8
0
 62
     7
 10
29.044799999999992
 20
225.7229999999999
 30
0.0
 11
30.229199999999999
 21
225.7229999999999
 31
0.0
  0
LINE
  5
5E
  8
0
 62
     7
 10
29.63699999999999
 20
188.89699999999999
 30
0.0
 11
29.63699999999999
 21
216.93299999999991
 31
0.0
  0
LINE
  5
5F
  8
0
 62
     7
 10
44.209299999999999
 20
227.93299999999991
 30
0.0
 11
28.644100000000002
 21
227.93299999999991
 31
0.0
  0
LINE
  5
60
  8
0
 62
     7
 10
54.091799999999999
 20
188.89699999999999
 30
0.0
 11
28.731200000000001
 21
188.89699999999999
 31
0.0
  0
LINE
  5
61
  8
0
  6
AIGENLINE001
 62
     7
 10
94.295299999999983
 20
209.73299999999989
 30
0.0
 11
32.232999999999997
 21
209.73299999999989
 31
0.0
  0
LINE
  5
62
  8
0
 62
     7
 10
119.8739999999999
 20
228.56099999999989
 30
0.0
 11
119.577
 21
226.292
 31
0.0
  0
LINE
  5
63
  8
0
 62
     7
 10
119.577
 20
226.292
 30
0.0
 11
120.9679999999999
 21
228.10900000000001
 31
0.0
  0
LINE
  5
64
  8
0
 62
     7
 10
120.9679999999999
 20
228.10900000000001
 30
0.0
 11
119.8739999999999
 21
228.56099999999989
 31
0.0
  0
LINE
  5
65
  8
0
 62
     7
 10
127.54299999999991
 20
245.583
 30
0.0
 11
119.577
 21
226.292
 31
0.0
  0
LINE
  5
66
  8
0
  6
AIGENLINE002
 62
     7
 10
159.386
 20
109.776
 30
0.0
 11
156.71999999999991
 21
109.389
 31
0.0
  0
ARC
  5
67
  8
0
 62
     7
 10
132.69837899999999
 20
209.69274799999999
 30
0.0
 40
8.1767820000000011
 50
135.2818509999999
 51
179.717545
  0
ARC
  5
68
  8
0
 62
     7
 10
132.695649
 20
209.77222699999999
 30
0.0
 40
8.1740460000000006
 50
180.274598
 51
224.7225509999999
  0
LINE
  5
69
  8
0
  6
AIGENLINE003
 62
     7
 10
169.30500000000001
 20
221.39999999999989
 30
0.0
 11
169.30500000000001
 21
228.471
 31
0.0
  0
LINE
  5
6A
  8
0
  6
AIGENLINE003
 62
     7
 10
165.76900000000001
 20
224.93599999999989
 30
0.0
 11
172.84
 21
224.935
 31
0.0
  0
LINE
  5
6B
  8
0
  6
AIGENLINE003
 62
     7
 10
172.84
 20
224.935
 30
0.0
 11
169.30500000000001
 21
228.471
 31
0.0
  0
LINE
  5
6C
  8
0
  6
AIGENLINE003
 62
     7
 10
169.30500000000001
 20
228.471
 30
0.0
 11
165.76900000000001
 21
224.93599999999989
 31
0.0
  0
LINE
  5
6D
  8
0
  6
AIGENLINE003
 62
     7
 10
165.76900000000001
 20
224.93599999999989
 30
0.0
 11
169.30500000000001
 21
221.39999999999989
 31
0.0
  0
LINE
  5
6E
  8
0
  6
AIGENLINE003
 62
     7
 10
169.30500000000001
 20
221.39999999999989
 30
0.0
 11
172.84
 21
224.935
 31
0.0
  0
LINE
  5
6F
  8
0
  6
AIGENLINE001
 62
     7
 10
154.10099999999991
 20
209.73299999999989
 30
0.0
 11
171.68700000000001
 21
227.3179999999999
 31
0.0
  0
LINE
  5
70
  8
0
  6
AIGENLINE003
 62
     7
 10
165.768
 20
194.52999999999989
 30
0.0
 11
172.839
 21
194.52999999999989
 31
0.0
  0
LINE
  5
71
  8
0
  6
AIGENLINE003
 62
     7
 10
169.304
 20
198.06499999999991
 30
0.0
 11
169.304
 21
190.994
 31
0.0
  0
LINE
  5
72
  8
0
  6
AIGENLINE003
 62
     7
 10
169.304
 20
190.994
 30
0.0
 11
172.839
 21
194.52999999999989
 31
0.0
  0
LINE
  5
73
  8
0
  6
AIGENLINE003
 62
     7
 10
172.839
 20
194.52999999999989
 30
0.0
 11
169.304
 21
198.06499999999991
 31
0.0
  0
LINE
  5
74
  8
0
  6
AIGENLINE003
 62
     7
 10
169.304
 20
198.06499999999991
 30
0.0
 11
165.768
 21
194.52999999999989
 31
0.0
  0
LINE
  5
75
  8
0
  6
AIGENLINE003
 62
     7
 10
165.768
 20
194.52999999999989
 30
0.0
 11
169.304
 21
190.994
 31
0.0
  0
LINE
  5
76
  8
0
  6
AIGENLINE001
 62
     7
 10
154.10099999999991
 20
209.73299999999989
 30
0.0
 11
171.68599999999989
 21
192.148
 31
0.0
  0
LINE
  5
77
  8
0
  6
AIGENLINE003
 62
     7
 10
117.398
 20
221.39999999999989
 30
0.0
 11
117.398
 21
228.471
 31
0.0
  0
LINE
  5
78
  8
0
  6
AIGENLINE003
 62
     7
 10
120.93300000000001
 20
224.93599999999989
 30
0.0
 11
113.86199999999999
 21
224.935
 31
0.0
  0
LINE
  5
79
  8
0
  6
AIGENLINE003
 62
     7
 10
113.86199999999999
 20
224.935
 30
0.0
 11
117.398
 21
228.471
 31
0.0
  0
LINE
  5
7A
  8
0
  6
AIGENLINE003
 62
     7
 10
117.398
 20
228.471
 30
0.0
 11
120.93300000000001
 21
224.93599999999989
 31
0.0
  0
LINE
  5
7B
  8
0
  6
AIGENLINE003
 62
     7
 10
120.93300000000001
 20
224.93599999999989
 30
0.0
 11
117.398
 21
221.39999999999989
 31
0.0
  0
LINE
  5
7C
  8
0
  6
AIGENLINE003
 62
     7
 10
117.398
 20
221.39999999999989
 30
0.0
 11
113.86199999999999
 21
224.935
 31
0.0
  0
LINE
  5
7D
  8
0
 62
     7
 10
124.214
 20
194.37700000000001
 30
0.0
 11
123.06999999999989
 21
192.3949999999999
 31
0.0
  0
LINE
  5
7E
  8
0
 62
     7
 10
123.06999999999989
 20
192.3949999999999
 30
0.0
 11
125.05200000000001
 21
193.53899999999999
 31
0.0
  0
LINE
  5
7F
  8
0
 62
     7
 10
125.05200000000001
 20
193.53899999999999
 30
0.0
 11
124.214
 21
194.37700000000001
 31
0.0
  0
LINE
  5
80
  8
0
 62
     7
 10
135.36000000000001
 20
203.8479999999999
 30
0.0
 11
136.50499999999991
 21
205.83000000000001
 31
0.0
  0
LINE
  5
81
  8
0
 62
     7
 10
136.50499999999991
 20
205.83000000000001
 30
0.0
 11
134.52299999999991
 21
204.68599999999989
 31
0.0
  0
LINE
  5
82
  8
0
 62
     7
 10
134.52299999999991
 20
204.68599999999989
 30
0.0
 11
135.36000000000001
 21
203.8479999999999
 31
0.0
  0
LINE
  5
83
  8
0
 62
     7
 10
123.06999999999989
 20
192.3949999999999
 30
0.0
 11
136.50499999999991
 21
205.83000000000001
 31
0.0
  0
LINE
  5
84
  8
0
 62
     7
 10
123.2949999999999
 20
192.1699999999999
 30
0.0
 11
121.33499999999989
 21
194.12899999999999
 31
0.0
  0
LINE
  5
85
  8
0
 62
     7
 10
136.96799999999999
 20
205.36699999999999
 30
0.0
 11
133.12999999999991
 21
209.2049999999999
 31
0.0
  0
LINE
  5
86
  8
0
 62
     7
 10
133.47599999999991
 20
213.73400000000001
 30
0.0
 11
135.458
 21
212.59
 31
0.0
  0
LINE
  5
87
  8
0
 62
     7
 10
135.458
 20
212.59
 30
0.0
 11
134.3129999999999
 21
214.572
 31
0.0
  0
LINE
  5
88
  8
0
 62
     7
 10
134.3129999999999
 20
214.572
 30
0.0
 11
133.47599999999991
 21
213.73400000000001
 31
0.0
  0
LINE
  5
89
  8
0
 62
     7
 10
124.004
 20
224.88099999999989
 30
0.0
 11
122.02200000000001
 21
226.02500000000001
 31
0.0
  0
LINE
  5
8A
  8
0
 62
     7
 10
122.02200000000001
 20
226.02500000000001
 30
0.0
 11
123.167
 21
224.04299999999989
 31
0.0
  0
LINE
  5
8B
  8
0
 62
     7
 10
123.167
 20
224.04299999999989
 30
0.0
 11
124.004
 21
224.88099999999989
 31
0.0
  0
LINE
  5
8C
  8
0
 62
     7
 10
135.458
 20
212.59
 30
0.0
 11
122.02200000000001
 21
226.02500000000001
 31
0.0
  0
LINE
  5
8D
  8
0
  6
AIGENLINE001
 62
     7
 10
132.60099999999991
 20
209.73299999999989
 30
0.0
 11
115.01600000000001
 21
227.3179999999999
 31
0.0
  0
LINE
  5
8E
  8
0
  6
AIGENLINE003
 62
     7
 10
120.934
 20
194.52999999999989
 30
0.0
 11
113.863
 21
194.52999999999989
 31
0.0
  0
LINE
  5
8F
  8
0
  6
AIGENLINE003
 62
     7
 10
117.399
 20
198.06499999999991
 30
0.0
 11
117.399
 21
190.994
 31
0.0
  0
LINE
  5
90
  8
0
  6
AIGENLINE003
 62
     7
 10
117.399
 20
190.994
 30
0.0
 11
113.863
 21
194.52999999999989
 31
0.0
  0
LINE
  5
91
  8
0
  6
AIGENLINE003
 62
     7
 10
113.863
 20
194.52999999999989
 30
0.0
 11
117.399
 21
198.06499999999991
 31
0.0
  0
LINE
  5
92
  8
0
  6
AIGENLINE003
 62
     7
 10
117.399
 20
198.06499999999991
 30
0.0
 11
120.934
 21
194.52999999999989
 31
0.0
  0
LINE
  5
93
  8
0
  6
AIGENLINE003
 62
     7
 10
120.934
 20
194.52999999999989
 30
0.0
 11
117.399
 21
190.994
 31
0.0
  0
LINE
  5
94
  8
0
 62
     7
 10
149.886
 20
209.73299999999989
 30
0.0
 11
149.886
 21
216.93299999999991
 31
0.0
  0
LINE
  5
95
  8
0
 62
     7
 10
141.14099999999991
 20
241.83500000000001
 30
0.0
 11
143.351
 21
242.42699999999999
 31
0.0
  0
LINE
  5
96
  8
0
 62
     7
 10
143.351
 20
242.42699999999999
 30
0.0
 11
141.14099999999991
 21
243.01900000000001
 31
0.0
  0
LINE
  5
97
  8
0
 62
     7
 10
141.14099999999991
 20
243.01900000000001
 30
0.0
 11
141.14099999999991
 21
241.83500000000001
 31
0.0
  0
LINE
  5
98
  8
0
 62
     7
 10
151.89099999999991
 20
241.83500000000001
 30
0.0
 11
154.10099999999991
 21
242.42699999999999
 31
0.0
  0
LINE
  5
99
  8
0
 62
     7
 10
154.10099999999991
 20
242.42699999999999
 30
0.0
 11
151.89099999999991
 21
243.01900000000001
 31
0.0
  0
LINE
  5
9A
  8
0
 62
     7
 10
151.89099999999991
 20
243.01900000000001
 30
0.0
 11
151.89099999999991
 21
241.83500000000001
 31
0.0
  0
LINE
  5
9B
  8
0
 62
     7
 10
145.56200000000001
 20
243.005
 30
0.0
 11
143.351
 21
242.4129999999999
 31
0.0
  0
LINE
  5
9C
  8
0
 62
     7
 10
143.351
 20
242.4129999999999
 30
0.0
 11
145.56200000000001
 21
241.81999999999999
 31
0.0
  0
LINE
  5
9D
  8
0
 62
     7
 10
145.56200000000001
 20
241.81999999999999
 30
0.0
 11
145.56200000000001
 21
243.005
 31
0.0
  0
LINE
  5
9E
  8
0
 62
     7
 10
134.81200000000001
 20
243.005
 30
0.0
 11
132.60099999999991
 21
242.4129999999999
 31
0.0
  0
LINE
  5
9F
  8
0
 62
     7
 10
132.60099999999991
 20
242.4129999999999
 30
0.0
 11
134.81200000000001
 21
241.81999999999999
 31
0.0
  0
LINE
  5
A0
  8
0
 62
     7
 10
134.81200000000001
 20
241.81999999999999
 30
0.0
 11
134.81200000000001
 21
243.005
 31
0.0
  0
LINE
  5
A1
  8
0
 62
     7
 10
149.30799999999991
 20
211.9439999999999
 30
0.0
 11
149.90000000000001
 21
209.73299999999989
 31
0.0
  0
LINE
  5
A2
  8
0
 62
     7
 10
149.90000000000001
 20
209.73299999999989
 30
0.0
 11
150.49199999999999
 21
211.9439999999999
 31
0.0
  0
LINE
  5
A3
  8
0
 62
     7
 10
150.49199999999999
 20
211.9439999999999
 30
0.0
 11
149.30799999999991
 21
211.9439999999999
 31
0.0
  0
LINE
  5
A4
  8
0
 62
     7
 10
149.30099999999999
 20
219.14400000000001
 30
0.0
 11
149.893
 21
216.93299999999991
 31
0.0
  0
LINE
  5
A5
  8
0
 62
     7
 10
149.893
 20
216.93299999999991
 30
0.0
 11
150.48500000000001
 21
219.14400000000001
 31
0.0
  0
LINE
  5
A6
  8
0
 62
     7
 10
150.48500000000001
 20
219.14400000000001
 30
0.0
 11
149.30099999999999
 21
219.14400000000001
 31
0.0
  0
LINE
  5
A7
  8
0
 62
     7
 10
150.47799999999989
 20
214.7229999999999
 30
0.0
 11
149.886
 21
216.93299999999991
 31
0.0
  0
LINE
  5
A8
  8
0
 62
     7
 10
149.886
 20
216.93299999999991
 30
0.0
 11
149.29300000000001
 21
214.7229999999999
 31
0.0
  0
LINE
  5
A9
  8
0
 62
     7
 10
149.29300000000001
 20
214.7229999999999
 30
0.0
 11
150.47799999999989
 21
214.7229999999999
 31
0.0
  0
LINE
  5
AA
  8
0
 62
     7
 10
150.471
 20
220.72300000000001
 30
0.0
 11
149.87799999999999
 21
222.93299999999999
 31
0.0
  0
LINE
  5
AB
  8
0
 62
     7
 10
149.87799999999999
 20
222.93299999999999
 30
0.0
 11
149.286
 21
220.72300000000001
 31
0.0
  0
LINE
  5
AC
  8
0
 62
     7
 10
149.286
 20
220.72300000000001
 30
0.0
 11
150.471
 21
220.72300000000001
 31
0.0
  0
LINE
  5
AD
  8
0
 62
     7
 10
149.87799999999999
 20
216.93299999999991
 30
0.0
 11
149.87799999999999
 21
222.93299999999999
 31
0.0
  0
LINE
  5
AE
  8
0
 62
     7
 10
113.185
 20
209.73299999999989
 30
0.0
 11
110.95
 21
209.73299999999989
 31
0.0
  0
LINE
  5
AF
  8
0
 62
     7
 10
154.10099999999991
 20
242.4199999999999
 30
0.0
 11
132.60099999999991
 21
242.4199999999999
 31
0.0
  0
LINE
  5
B0
  8
0
 62
     7
 10
143.351
 20
243.035
 30
0.0
 11
143.351
 21
239.25
 31
0.0
  0
LINE
  5
B1
  8
0
 62
     7
 10
154.10099999999991
 20
243.15299999999991
 30
0.0
 11
154.10099999999991
 21
215.9909999999999
 31
0.0
  0
LINE
  5
B2
  8
0
 62
     7
 10
135.8839999999999
 20
213.01599999999999
 30
0.0
 11
133.03100000000001
 21
210.16200000000001
 31
0.0
  0
LINE
  5
B3
  8
0
 62
     7
 10
122.486
 20
226.488
 30
0.0
 11
121.30799999999989
 21
225.31099999999989
 31
0.0
  0
LINE
  5
B4
  8
0
 62
     7
 10
132.60099999999991
 20
243.15299999999991
 30
0.0
 11
132.60099999999991
 21
211.1699999999999
 31
0.0
  0
LINE
  5
B5
  8
0
 62
     7
 10
111.42700000000001
 20
194.143
 30
0.0
 11
112.01900000000001
 21
191.93299999999999
 31
0.0
  0
LINE
  5
B6
  8
0
 62
     7
 10
112.01900000000001
 20
191.93299999999999
 30
0.0
 11
112.611
 21
194.143
 31
0.0
  0
LINE
  5
B7
  8
0
 62
     7
 10
112.611
 20
194.143
 30
0.0
 11
111.42700000000001
 21
194.143
 31
0.0
  0
LINE
  5
B8
  8
0
 62
     7
 10
125.87899999999991
 20
206.07499999999999
 30
0.0
 11
126.88800000000001
 21
204.02000000000001
 31
0.0
  0
LINE
  5
B9
  8
0
 62
     7
 10
126.88800000000001
 20
204.02000000000001
 30
0.0
 11
124.98699999999999
 21
205.29499999999999
 31
0.0
  0
LINE
  5
BA
  8
0
 62
     7
 10
124.98699999999999
 20
205.29499999999999
 30
0.0
 11
125.87899999999991
 21
206.07499999999999
 31
0.0
  0
LINE
  5
BB
  8
0
 62
     7
 10
124.089
 20
207.48199999999991
 30
0.0
 11
124.5139999999999
 21
209.73099999999991
 31
0.0
  0
LINE
  5
BC
  8
0
 62
     7
 10
124.5139999999999
 20
209.73099999999991
 30
0.0
 11
125.2699999999999
 21
207.57099999999991
 31
0.0
  0
LINE
  5
BD
  8
0
 62
     7
 10
125.2699999999999
 20
207.57099999999991
 30
0.0
 11
124.089
 21
207.48199999999991
 31
0.0
  0
LINE
  5
BE
  8
0
 62
     7
 10
125.87899999999991
 20
213.39199999999991
 30
0.0
 11
126.88800000000001
 21
215.44599999999991
 31
0.0
  0
LINE
  5
BF
  8
0
 62
     7
 10
126.88800000000001
 20
215.44599999999991
 30
0.0
 11
124.98699999999999
 21
214.17099999999991
 31
0.0
  0
LINE
  5
C0
  8
0
 62
     7
 10
124.98699999999999
 20
214.17099999999991
 30
0.0
 11
125.87899999999991
 21
213.39199999999991
 31
0.0
  0
LINE
  5
C1
  8
0
 62
     7
 10
124.09
 20
211.9839999999999
 30
0.0
 11
124.5139999999999
 21
209.73500000000001
 31
0.0
  0
LINE
  5
C2
  8
0
 62
     7
 10
124.5139999999999
 20
209.73500000000001
 30
0.0
 11
125.2709999999999
 21
211.89500000000001
 31
0.0
  0
LINE
  5
C3
  8
0
 62
     7
 10
125.2709999999999
 20
211.89500000000001
 30
0.0
 11
124.09
 21
211.9839999999999
 31
0.0
  0
LINE
  5
C4
  8
0
 62
     7
 10
111.42700000000001
 20
211.9439999999999
 30
0.0
 11
112.01900000000001
 21
209.73299999999989
 31
0.0
  0
LINE
  5
C5
  8
0
 62
     7
 10
112.01900000000001
 20
209.73299999999989
 30
0.0
 11
112.611
 21
211.9439999999999
 31
0.0
  0
LINE
  5
C6
  8
0
 62
     7
 10
112.611
 20
211.9439999999999
 30
0.0
 11
111.42700000000001
 21
211.9439999999999
 31
0.0
  0
LINE
  5
C7
  8
0
 62
     7
 10
112.59699999999999
 20
207.52199999999999
 30
0.0
 11
112.0049999999999
 21
209.73299999999989
 31
0.0
  0
LINE
  5
C8
  8
0
 62
     7
 10
112.0049999999999
 20
209.73299999999989
 30
0.0
 11
111.41199999999991
 21
207.52199999999999
 31
0.0
  0
LINE
  5
C9
  8
0
 62
     7
 10
111.41199999999991
 20
207.52199999999999
 30
0.0
 11
112.59699999999999
 21
207.52199999999999
 31
0.0
  0
LINE
  5
CA
  8
0
 62
     7
 10
112.59699999999999
 20
231.47200000000001
 30
0.0
 11
112.0049999999999
 21
233.68299999999991
 31
0.0
  0
LINE
  5
CB
  8
0
 62
     7
 10
112.0049999999999
 20
233.68299999999991
 30
0.0
 11
111.41199999999991
 21
231.47200000000001
 31
0.0
  0
LINE
  5
CC
  8
0
 62
     7
 10
111.41199999999991
 20
231.47200000000001
 30
0.0
 11
112.59699999999999
 21
231.47200000000001
 31
0.0
  0
LINE
  5
CD
  8
0
 62
     7
 10
112.012
 20
191.93299999999999
 30
0.0
 11
112.012
 21
233.68299999999991
 31
0.0
  0
LINE
  5
CE
  8
0
 62
     7
 10
127.54299999999991
 20
245.583
 30
0.0
 11
101.5709999999999
 21
245.583
 31
0.0
  0
LINE
  5
CF
  8
0
 62
     7
 10
137.25
 20
233.68299999999991
 30
0.0
 11
111.0119999999999
 21
233.68299999999991
 31
0.0
  0
LINE
  5
D0
  8
0
 62
     7
 10
165.06200000000001
 20
220.6929999999999
 30
0.0
 11
154.10099999999991
 21
209.73299999999989
 31
0.0
  0
LINE
  5
D1
  8
0
 62
     7
 10
163.91800000000001
 20
218.71100000000001
 30
0.0
 11
165.06200000000001
 21
220.6929999999999
 31
0.0
  0
LINE
  5
D2
  8
0
 62
     7
 10
165.06200000000001
 20
220.6929999999999
 30
0.0
 11
163.08000000000001
 21
219.54899999999989
 31
0.0
  0
LINE
  5
D3
  8
0
 62
     7
 10
163.08000000000001
 20
219.54899999999989
 30
0.0
 11
163.91800000000001
 21
218.71100000000001
 31
0.0
  0
LINE
  5
D4
  8
0
  6
AIGENLINE001
 62
     7
 10
132.60099999999991
 20
209.73299999999989
 30
0.0
 11
115.01600000000001
 21
192.148
 31
0.0
  0
LINE
  5
D5
  8
0
 62
     7
 10
145.286
 20
225.3429999999999
 30
0.0
 11
146.499
 21
223.40199999999999
 31
0.0
  0
LINE
  5
D6
  8
0
 62
     7
 10
146.499
 20
223.40199999999999
 30
0.0
 11
146.4189999999999
 21
225.68899999999999
 31
0.0
  0
LINE
  5
D7
  8
0
 62
     7
 10
146.4189999999999
 20
225.68899999999999
 30
0.0
 11
145.286
 21
225.3429999999999
 31
0.0
  0
LINE
  5
D8
  8
0
 62
     7
 10
143.351
 20
233.68299999999991
 30
0.0
 11
146.499
 21
223.40199999999999
 31
0.0
  0
LINE
  5
D9
  8
0
 62
     7
 10
134.607
 20
195.11799999999991
 30
0.0
 11
134.7299999999999
 21
192.833
 31
0.0
  0
LINE
  5
DA
  8
0
 62
     7
 10
134.7299999999999
 20
192.833
 30
0.0
 11
135.76599999999991
 21
194.87299999999991
 31
0.0
  0
LINE
  5
DB
  8
0
 62
     7
 10
135.76599999999991
 20
194.87299999999991
 30
0.0
 11
134.607
 21
195.11799999999991
 31
0.0
  0
LINE
  5
DC
  8
0
 62
     7
 10
143.351
 20
233.68299999999991
 30
0.0
 11
134.7299999999999
 21
192.833
 31
0.0
  0
LINE
  5
DD
  8
0
 62
     7
 10
182.5329999999999
 20
223.023
 30
0.0
 11
181.94099999999989
 21
225.233
 31
0.0
  0
LINE
  5
DE
  8
0
 62
     7
 10
181.94099999999989
 20
225.233
 30
0.0
 11
181.34899999999999
 21
223.023
 31
0.0
  0
LINE
  5
DF
  8
0
 62
     7
 10
181.34899999999999
 20
223.023
 30
0.0
 11
182.5329999999999
 21
223.023
 31
0.0
  0
LINE
  5
E0
  8
0
 62
     7
 10
181.363
 20
194.143
 30
0.0
 11
181.95500000000001
 21
191.93299999999999
 31
0.0
  0
LINE
  5
E1
  8
0
 62
     7
 10
181.95500000000001
 20
191.93299999999999
 30
0.0
 11
182.54699999999991
 21
194.143
 31
0.0
  0
LINE
  5
E2
  8
0
 62
     7
 10
182.54699999999991
 20
194.143
 30
0.0
 11
181.363
 21
194.143
 31
0.0
  0
LINE
  5
E3
  8
0
 62
     7
 10
181.94799999999989
 20
225.233
 30
0.0
 11
181.94799999999989
 21
191.93299999999999
 31
0.0
  0
LINE
  5
E4
  8
0
 62
     7
 10
176.34700000000001
 20
220.72199999999989
 30
0.0
 11
175.75499999999991
 21
222.93299999999999
 31
0.0
  0
LINE
  5
E5
  8
0
 62
     7
 10
175.75499999999991
 20
222.93299999999999
 30
0.0
 11
175.1629999999999
 21
220.72199999999989
 31
0.0
  0
LINE
  5
E6
  8
0
 62
     7
 10
175.1629999999999
 20
220.72199999999989
 30
0.0
 11
176.34700000000001
 21
220.72199999999989
 31
0.0
  0
LINE
  5
E7
  8
0
 62
     7
 10
175.17699999999999
 20
194.143
 30
0.0
 11
175.76900000000001
 21
191.93299999999999
 31
0.0
  0
LINE
  5
E8
  8
0
 62
     7
 10
175.76900000000001
 20
191.93299999999999
 30
0.0
 11
176.3609999999999
 21
194.143
 31
0.0
  0
LINE
  5
E9
  8
0
 62
     7
 10
176.3609999999999
 20
194.143
 30
0.0
 11
175.17699999999999
 21
194.143
 31
0.0
  0
LINE
  5
EA
  8
0
 62
     7
 10
175.762
 20
222.93299999999999
 30
0.0
 11
175.762
 21
191.93299999999999
 31
0.0
  0
LINE
  5
EB
  8
0
 62
     7
 10
182.94799999999989
 20
225.233
 30
0.0
 11
159.23699999999999
 21
225.233
 31
0.0
  0
LINE
  5
EC
  8
0
 62
     7
 10
176.76199999999989
 20
222.93299999999999
 30
0.0
 11
148.41200000000001
 21
222.93299999999999
 31
0.0
  0
LINE
  5
ED
  8
0
 62
     7
 10
133.52799999999999
 20
191.93299999999999
 30
0.0
 11
111.1129999999999
 21
191.93299999999999
 31
0.0
  0
LINE
  5
EE
  8
0
 62
     7
 10
182.94799999999989
 20
191.93299999999999
 30
0.0
 11
153.0
 21
191.93299999999999
 31
0.0
  0
LINE
  5
EF
  8
0
 62
     7
 10
169.602
 20
203.91599999999991
 30
0.0
 11
169.602
 21
181.5749999999999
 31
0.0
  0
LINE
  5
F0
  8
0
 62
     7
 10
117.102
 20
203.91599999999991
 30
0.0
 11
117.102
 21
181.5749999999999
 31
0.0
  0
LINE
  5
F1
  8
0
 62
     7
 10
167.39099999999999
 20
181.99000000000001
 30
0.0
 11
169.602
 21
182.58199999999999
 31
0.0
  0
LINE
  5
F2
  8
0
 62
     7
 10
169.602
 20
182.58199999999999
 30
0.0
 11
167.39099999999999
 21
183.17500000000001
 31
0.0
  0
LINE
  5
F3
  8
0
 62
     7
 10
167.39099999999999
 20
183.17500000000001
 30
0.0
 11
167.39099999999999
 21
181.99000000000001
 31
0.0
  0
LINE
  5
F4
  8
0
 62
     7
 10
119.312
 20
183.15999999999991
 30
0.0
 11
117.102
 21
182.56800000000001
 31
0.0
  0
LINE
  5
F5
  8
0
 62
     7
 10
117.102
 20
182.56800000000001
 30
0.0
 11
119.312
 21
181.976
 31
0.0
  0
LINE
  5
F6
  8
0
 62
     7
 10
119.312
 20
181.976
 30
0.0
 11
119.312
 21
183.15999999999991
 31
0.0
  0
LINE
  5
F7
  8
0
 62
     7
 10
154.31200000000001
 20
169.83099999999999
 30
0.0
 11
132.46100000000001
 21
169.83099999999999
 31
0.0
  0
LINE
  5
F8
  8
0
 62
     7
 10
169.602
 20
182.57499999999999
 30
0.0
 11
117.102
 21
182.57499999999999
 31
0.0
  0
LINE
  5
F9
  8
0
  6
AIGENLINE001
 62
     7
 10
148.58699999999999
 20
233.68299999999991
 30
0.0
 11
138.15700000000001
 21
233.68299999999991
 31
0.0
  0
LINE
  5
FA
  8
0
  6
AIGENLINE001
 62
     7
 10
172.334
 20
209.73299999999989
 30
0.0
 11
114.1699999999999
 21
209.73299999999989
 31
0.0
  0
LINE
  5
FB
  8
0
  6
AIGENLINE001
 62
     7
 10
143.351
 20
238.34299999999999
 30
0.0
 11
143.351
 21
188.80199999999999
 31
0.0
  0
ARC
  5
FC
  8
0
 62
     7
 10
143.351789
 20
234.332381
 30
0.0
 40
42.341427999999993
 50
245.76695099999989
 51
294.22966099999991
  0
ARC
  5
FD
  8
0
 62
     7
 10
153.74521599999991
 20
209.958518
 30
0.0
 40
15.858131
 50
296.13517000000002
 51
359.18536899999992
  0
ARC
  5
FE
  8
0
 62
     7
 10
154.10155700000001
 20
209.732966
 30
0.0
 40
15.500188
 50
0.000328
 51
90.000298999999984
  0
ARC
  5
FF
  8
0
 62
     7
 10
154.1139729999999
 20
209.67543699999999
 30
0.0
 40
15.557722
 50
90.046023000000005
 51
114.128602
  0
ARC
  5
100
  8
0
 62
     7
 10
143.35152400000001
 20
233.843244
 30
0.0
 40
10.898396999999999
 50
246.1709459999999
 51
293.82683300000002
  0
ARC
  5
101
  8
0
 62
     7
 10
132.60155599999999
 20
209.73267300000001
 30
0.0
 40
15.500323
 50
65.822879
 51
155.8212179999999
  0
ARC
  5
102
  8
0
 62
     7
 10
133.36921599999999
 20
210.0162399999999
 30
0.0
 40
16.094699999999989
 50
157.86188000000001
 51
242.641471
  0
LINE
  5
103
  8
0
 62
     7
 10
149.96299999999991
 20
106.74799999999991
 30
0.0
 11
149.96299999999991
 21
109.389
 31
0.0
  0
LINE
  5
104
  8
0
 62
     7
 10
156.96299999999999
 20
106.18899999999999
 30
0.0
 11
156.96299999999999
 21
109.389
 31
0.0
  0
LINE
  5
105
  8
0
 62
     7
 10
156.6629999999999
 20
105.8889999999999
 30
0.0
 11
149.96299999999991
 21
105.8889999999999
 31
0.0
  0
ARC
  5
106
  8
0
 62
     7
 10
156.6514479999999
 20
106.200332
 30
0.0
 40
0.311751
 50
272.04510399999992
 51
357.889162
  0
ARC
  5
107
  8
0
 62
     7
 10
149.44359700000001
 20
105.8697669999999
 30
0.0
 40
0.5192610000000001
 50
2.098392
 51
87.862096999999977
  0
LINE
  5
108
  8
0
  6
AIGENLINE002
 62
     7
 10
161.22
 20
112.327
 30
0.0
 11
161.50700000000001
 21
126.3889999999999
 31
0.0
  0
LINE
  5
109
  8
0
 62
     7
 10
162.71899999999991
 20
112.327
 30
0.0
 11
162.96999999999991
 21
124.5889999999999
 31
0.0
  0
LINE
  5
10A
  8
0
 62
     7
 10
159.71999999999991
 20
109.389
 30
0.0
 11
149.72
 21
109.389
 31
0.0
  0
ARC
  5
10B
  8
0
  6
AIGENLINE002
 62
     7
 10
158.8476629999999
 20
113.881849
 30
0.0
 40
4.1407350000000003
 50
277.4693279999999
 51
289.21587499999993
  0
ARC
  5
10C
  8
0
  6
AIGENLINE002
 62
     7
 10
159.70231000000001
 20
111.30089099999999
 30
0.0
 40
1.4229179999999999
 50
290.92483900000002
 51
341.93514599999992
  0
ARC
  5
10D
  8
0
  6
AIGENLINE002
 62
     7
 10
158.516627
 20
111.65322399999989
 30
0.0
 40
2.6596120000000001
 50
342.63978199999991
 51
351.72312699999992
  0
ARC
  5
10E
  8
0
  6
AIGENLINE002
 62
     7
 10
153.92010400000001
 20
112.28842899999999
 30
0.0
 40
7.2997750000000003
 50
351.98301700000002
 51
0.305562
  0
ARC
  5
10F
  8
0
 62
     7
 10
159.60952999999989
 20
112.501486
 30
0.0
 40
3.114774999999999
 50
272.03462999999999
 51
356.79530499999993
  0
LINE
  5
110
  8
0
 62
     7
 10
153.46299999999991
 20
97.608099999999993
 30
0.0
 11
153.46299999999991
 21
103.34399999999989
 31
0.0
  0
LINE
  5
111
  8
0
 62
     7
 10
164.46299999999999
 20
97.647400000000005
 30
0.0
 11
164.46299999999999
 21
123.767
 31
0.0
  0
LINE
  5
112
  8
0
  6
AIGENLINE001
 62
     7
 10
153.46299999999991
 20
104.04899999999989
 30
0.0
 11
153.46299999999991
 21
112.28700000000001
 31
0.0
  0
LINE
  5
113
  8
0
 62
     7
 10
162.25200000000001
 20
97.591600000000014
 30
0.0
 11
164.46299999999999
 21
98.183800000000005
 31
0.0
  0
LINE
  5
114
  8
0
 62
     7
 10
164.46299999999999
 20
98.183800000000005
 30
0.0
 11
162.25200000000001
 21
98.77600000000001
 31
0.0
  0
LINE
  5
115
  8
0
 62
     7
 10
162.25200000000001
 20
98.77600000000001
 30
0.0
 11
162.25200000000001
 21
97.591600000000014
 31
0.0
  0
LINE
  5
116
  8
0
 62
     7
 10
155.67400000000001
 20
98.761499999999998
 30
0.0
 11
153.46299999999991
 21
98.169300000000007
 31
0.0
  0
LINE
  5
117
  8
0
 62
     7
 10
153.46299999999991
 20
98.169300000000007
 30
0.0
 11
155.67400000000001
 21
97.577100000000016
 31
0.0
  0
LINE
  5
118
  8
0
 62
     7
 10
155.67400000000001
 20
97.577100000000016
 30
0.0
 11
155.67400000000001
 21
98.761499999999998
 31
0.0
  0
LINE
  5
119
  8
0
 62
     7
 10
164.46299999999999
 20
98.176500000000004
 30
0.0
 11
153.46299999999991
 21
98.176500000000004
 31
0.0
  0
LINE
  5
11A
  8
0
 62
     7
 10
163.857
 20
124.5889999999999
 30
0.0
 11
126.08199999999999
 21
124.5889999999999
 31
0.0
  0
ARC
  5
11B
  8
0
 62
     7
 10
162.76186000000001
 20
126.181274
 30
0.0
 40
0.207825
 50
2.0721630000000002
 51
87.829126000000016
  0
LINE
  5
11C
  8
0
 62
     7
 10
162.77000000000001
 20
126.3889999999999
 30
0.0
 11
127.17
 21
126.3889999999999
 31
0.0
  0
ARC
  5
11D
  8
0
 62
     7
 10
127.17719199999991
 20
126.1815669999999
 30
0.0
 40
0.207521
 50
92.09293599999998
 51
178.00573399999999
  0
LINE
  5
11E
  8
0
 62
     7
 10
164.14400000000001
 20
124.79899999999989
 30
0.0
 11
164.45599999999999
 21
125.79899999999989
 31
0.0
  0
ARC
  5
11F
  8
0
 62
     7
 10
163.85117799999989
 20
124.8972229999999
 30
0.0
 40
0.308402
 50
271.08384000000001
 51
341.50143100000003
  0
ARC
  5
120
  8
0
 62
     7
 10
164.17292399999999
 20
125.88666499999989
 30
0.0
 40
0.296637
 50
342.909762
 51
0.396681
  0
ARC
  5
121
  8
0
 62
     7
 10
164.158142
 20
125.87739000000001
 30
0.0
 40
0.311618
 50
2.0834079999999999
 51
87.850763000000015
  0
LINE
  5
122
  8
0
 62
     7
 10
125.79600000000001
 20
124.79899999999989
 30
0.0
 11
125.4829999999999
 21
125.79899999999989
 31
0.0
  0
ARC
  5
123
  8
0
 62
     7
 10
126.088325
 20
124.897436
 30
0.0
 40
0.308618
 50
198.52689000000001
 51
268.887878
  0
LINE
  5
124
  8
0
 62
     7
 10
164.1699999999999
 20
126.18899999999989
 30
0.0
 11
125.77
 21
126.18899999999989
 31
0.0
  0
ARC
  5
125
  8
0
 62
     7
 10
125.78090400000001
 20
125.8776899999999
 30
0.0
 40
0.311307
 50
92.096105999999992
 51
177.96968299999989
  0
ARC
  5
126
  8
0
 62
     7
 10
125.7681629999999
 20
125.88802199999991
 30
0.0
 40
0.298371
 50
179.8660459999999
 51
197.26038299999999
  0
LINE
  5
127
  8
0
 62
     7
 10
93.011999999999986
 20
126.98399999999999
 30
0.0
 11
93.011999999999986
 21
135.59499999999991
 31
0.0
  0
LINE
  5
128
  8
0
 62
     7
 10
34.511600000000001
 20
126.98399999999999
 30
0.0
 11
34.511600000000001
 21
135.59499999999991
 31
0.0
  0
LINE
  5
129
  8
0
 62
     7
 10
90.801400000000001
 20
134.00999999999991
 30
0.0
 11
93.011999999999986
 21
134.60199999999989
 31
0.0
  0
LINE
  5
12A
  8
0
 62
     7
 10
93.011999999999986
 20
134.60199999999989
 30
0.0
 11
90.801400000000001
 21
135.1939999999999
 31
0.0
  0
LINE
  5
12B
  8
0
 62
     7
 10
90.801400000000001
 20
135.1939999999999
 30
0.0
 11
90.801400000000001
 21
134.00999999999991
 31
0.0
  0
LINE
  5
12C
  8
0
 62
     7
 10
36.722200000000001
 20
135.18000000000001
 30
0.0
 11
34.511800000000001
 21
134.58799999999991
 31
0.0
  0
LINE
  5
12D
  8
0
 62
     7
 10
34.511800000000001
 20
134.58799999999991
 30
0.0
 11
36.722200000000001
 21
133.99499999999989
 31
0.0
  0
LINE
  5
12E
  8
0
 62
     7
 10
36.722200000000001
 20
133.99499999999989
 30
0.0
 11
36.722200000000001
 21
135.18000000000001
 31
0.0
  0
LINE
  5
12F
  8
0
 62
     7
 10
93.011999999999986
 20
134.59499999999991
 30
0.0
 11
34.511600000000001
 21
134.59499999999991
 31
0.0
  0
LINE
  5
130
  8
0
 62
     7
 10
100.482
 20
124.178
 30
0.0
 11
99.889600000000002
 21
126.3889999999999
 31
0.0
  0
LINE
  5
131
  8
0
 62
     7
 10
99.889600000000002
 20
126.3889999999999
 30
0.0
 11
99.297200000000004
 21
124.178
 31
0.0
  0
LINE
  5
132
  8
0
 62
     7
 10
99.297200000000004
 20
124.178
 30
0.0
 11
100.482
 21
124.178
 31
0.0
  0
LINE
  5
133
  8
0
 62
     7
 10
99.311899999999994
 20
108.0989999999999
 30
0.0
 11
99.9041
 21
105.8889999999999
 31
0.0
  0
LINE
  5
134
  8
0
 62
     7
 10
99.9041
 20
105.8889999999999
 30
0.0
 11
100.496
 21
108.0989999999999
 31
0.0
  0
LINE
  5
135
  8
0
 62
     7
 10
100.496
 20
108.0989999999999
 30
0.0
 11
99.311899999999994
 21
108.0989999999999
 31
0.0
  0
LINE
  5
136
  8
0
 62
     7
 10
99.896900000000016
 20
126.3889999999999
 30
0.0
 11
99.896900000000016
 21
105.8889999999999
 31
0.0
  0
LINE
  5
137
  8
0
 62
     7
 10
100.89700000000001
 20
126.3889999999999
 30
0.0
 11
93.723600000000005
 21
126.3889999999999
 31
0.0
  0
LINE
  5
138
  8
0
 62
     7
 10
100.89700000000001
 20
105.8889999999999
 30
0.0
 11
68.229500000000002
 21
105.8889999999999
 31
0.0
  0
LINE
  5
139
  8
0
 62
     7
 10
60.261800000000001
 20
108.8889999999999
 30
0.0
 11
60.261800000000001
 21
106.18899999999999
 31
0.0
  0
ARC
  5
13A
  8
0
 62
     7
 10
59.742888999999998
 20
108.8697379999999
 30
0.0
 40
0.5192790000000001
 50
2.102352999999999
 51
87.917377999999985
  0
LINE
  5
13B
  8
0
 62
     7
 10
67.261799999999994
 20
108.8889999999999
 30
0.0
 11
67.261799999999994
 21
106.18899999999999
 31
0.0
  0
ARC
  5
13C
  8
0
 62
     7
 10
67.780867999999998
 20
108.8695799999999
 30
0.0
 40
0.519443
 50
92.099376000000007
 51
177.88085399999991
  0
LINE
  5
13D
  8
0
 62
     7
 10
66.9619
 20
105.8889999999999
 30
0.0
 11
60.561700000000002
 21
105.8889999999999
 31
0.0
  0
ARC
  5
13E
  8
0
 62
     7
 10
66.950543999999994
 20
106.20001000000001
 30
0.0
 40
0.311437
 50
272.08657199999999
 51
357.94633799999991
  0
ARC
  5
13F
  8
0
 62
     7
 10
60.573236000000001
 20
106.20018999999991
 30
0.0
 40
0.311623
 50
182.085611
 51
267.88151899999991
  0
LINE
  5
140
  8
0
 62
     7
 10
66.861800000000002
 20
123.889
 30
0.0
 11
66.861800000000002
 21
107.4889999999999
 31
0.0
  0
LINE
  5
141
  8
0
 62
     7
 10
65.861900000000006
 20
106.4889999999999
 30
0.0
 11
61.66170000000001
 21
106.4889999999999
 31
0.0
  0
ARC
  5
142
  8
0
 62
     7
 10
65.86177099999999
 20
107.488606
 30
0.0
 40
1.000032
 50
270.004954
 51
0.004925
  0
LINE
  5
143
  8
0
 62
     7
 10
60.661799999999999
 20
123.889
 30
0.0
 11
60.661799999999999
 21
107.4889999999999
 31
0.0
  0
ARC
  5
144
  8
0
 62
     7
 10
61.661828
 20
107.488606
 30
0.0
 40
1.000030999999999
 50
179.995036
 51
269.99508500000002
  0
LINE
  5
145
  8
0
 62
     7
 10
92.3994
 20
124.5889999999999
 30
0.0
 11
67.561899999999994
 21
124.5889999999999
 31
0.0
  0
ARC
  5
146
  8
0
 62
     7
 10
67.588429000000005
 20
123.86224900000001
 30
0.0
 40
0.7271130000000001
 50
92.094871999999995
 51
177.90509800000001
  0
LINE
  5
147
  8
0
 62
     7
 10
59.9617
 20
124.5889999999999
 30
0.0
 11
35.124200000000002
 21
124.5889999999999
 31
0.0
  0
ARC
  5
148
  8
0
 62
     7
 10
59.934778000000001
 20
123.861857
 30
0.0
 40
0.7275199999999999
 50
2.1246350000000001
 51
87.875354999999999
  0
ARC
  5
149
  8
0
 62
     7
 10
91.304265999999984
 20
126.181262
 30
0.0
 40
0.207831
 50
2.075461999999999
 51
87.875199000000009
  0
LINE
  5
14A
  8
0
 62
     7
 10
91.312000000000012
 20
126.3889999999999
 30
0.0
 11
36.21159999999999
 21
126.3889999999999
 31
0.0
  0
ARC
  5
14B
  8
0
 62
     7
 10
36.219192
 20
126.181403
 30
0.0
 40
0.207684
 50
92.087205000000012
 51
177.96209400000001
  0
LINE
  5
14C
  8
0
  6
AIGENLINE001
 62
     7
 10
63.761899999999997
 20
128.9139999999999
 30
0.0
 11
63.761899999999997
 21
103.5959999999999
 31
0.0
  0
LINE
  5
14D
  8
0
 62
     7
 10
92.685699999999997
 20
124.79899999999989
 30
0.0
 11
92.998400000000004
 21
125.79899999999989
 31
0.0
  0
ARC
  5
14E
  8
0
 62
     7
 10
92.393455000000003
 20
124.896928
 30
0.0
 40
0.30811
 50
271.109962
 51
341.54106999999988
  0
ARC
  5
14F
  8
0
 62
     7
 10
92.708774000000005
 20
125.889307
 30
0.0
 40
0.303191
 50
342.76835699999992
 51
359.88896099999999
  0
ARC
  5
150
  8
0
 62
     7
 10
92.711894999999998
 20
125.88871899999999
 30
0.0
 40
0.30007
 50
0.00001
 51
89.999980000000008
  0
LINE
  5
151
  8
0
 62
     7
 10
34.837699999999991
 20
124.79899999999989
 30
0.0
 11
34.525199999999991
 21
125.79899999999989
 31
0.0
  0
ARC
  5
152
  8
0
 62
     7
 10
35.130334999999988
 20
124.897426
 30
0.0
 40
0.308612
 50
198.52538999999999
 51
268.85651200000001
  0
LINE
  5
153
  8
0
 62
     7
 10
92.7119
 20
126.18899999999989
 30
0.0
 11
34.811500000000002
 21
126.18899999999989
 31
0.0
  0
ARC
  5
154
  8
0
 62
     7
 10
34.822901999999999
 20
125.877528
 30
0.0
 40
0.311468
 50
92.091941000000034
 51
177.94093000000001
  0
ARC
  5
155
  8
0
 62
     7
 10
34.81241
 20
125.8889379999999
 30
0.0
 40
0.300776
 50
180.04178899999999
 51
197.30093299999999
  0
LINE
  5
156
  8
0
 62
     7
 10
90.370400000000004
 20
204.52000000000001
 30
0.0
 11
90.370400000000004
 21
177.66499999999999
 31
0.0
  0
LINE
  5
157
  8
0
 62
     7
 10
36.370100000000001
 20
204.52000000000001
 30
0.0
 11
36.370100000000001
 21
177.66499999999999
 31
0.0
  0
LINE
  5
158
  8
0
 62
     7
 10
88.159899999999993
 20
178.08000000000001
 30
0.0
 11
90.370400000000004
 21
178.672
 31
0.0
  0
LINE
  5
159
  8
0
 62
     7
 10
90.370400000000004
 20
178.672
 30
0.0
 11
88.159899999999993
 21
179.26400000000001
 31
0.0
  0
LINE
  5
15A
  8
0
 62
     7
 10
88.159899999999993
 20
179.26400000000001
 30
0.0
 11
88.159899999999993
 21
178.08000000000001
 31
0.0
  0
LINE
  5
15B
  8
0
 62
     7
 10
38.5807
 20
179.24999999999989
 30
0.0
 11
36.3703
 21
178.6579999999999
 31
0.0
  0
LINE
  5
15C
  8
0
 62
     7
 10
36.3703
 20
178.6579999999999
 30
0.0
 11
38.5807
 21
178.065
 31
0.0
  0
LINE
  5
15D
  8
0
 62
     7
 10
38.5807
 20
178.065
 30
0.0
 11
38.5807
 21
179.24999999999989
 31
0.0
  0
LINE
  5
15E
  8
0
 62
     7
 10
90.370400000000004
 20
178.66499999999991
 30
0.0
 11
36.370100000000001
 21
178.66499999999991
 31
0.0
  0
LINE
  5
15F
  8
0
 62
     7
 10
92.620400000000004
 20
170.8129999999999
 30
0.0
 11
92.620400000000004
 21
204.41799999999989
 31
0.0
  0
LINE
  5
160
  8
0
 62
     7
 10
34.120100000000001
 20
170.8129999999999
 30
0.0
 11
34.120100000000001
 21
204.41799999999989
 31
0.0
  0
LINE
  5
161
  8
0
 62
     7
 10
90.409899999999979
 20
171.22799999999989
 30
0.0
 11
92.620400000000004
 21
171.81999999999991
 31
0.0
  0
LINE
  5
162
  8
0
 62
     7
 10
92.620400000000004
 20
171.81999999999991
 30
0.0
 11
90.409899999999979
 21
172.4129999999999
 31
0.0
  0
LINE
  5
163
  8
0
 62
     7
 10
90.409899999999979
 20
172.4129999999999
 30
0.0
 11
90.409899999999979
 21
171.22799999999989
 31
0.0
  0
LINE
  5
164
  8
0
 62
     7
 10
36.3307
 20
172.398
 30
0.0
 11
34.1203
 21
171.8059999999999
 31
0.0
  0
LINE
  5
165
  8
0
 62
     7
 10
34.1203
 20
171.8059999999999
 30
0.0
 11
36.3307
 21
171.214
 31
0.0
  0
LINE
  5
166
  8
0
 62
     7
 10
36.3307
 20
171.214
 30
0.0
 11
36.3307
 21
172.398
 31
0.0
  0
LINE
  5
167
  8
0
 62
     7
 10
92.620400000000004
 20
171.8129999999999
 30
0.0
 11
34.120100000000001
 21
171.8129999999999
 31
0.0
  0
LINE
  5
168
  8
0
 62
     7
 10
50.525100000000002
 20
211.244
 30
0.0
 11
57.681399999999989
 21
211.244
 31
0.0
  0
LINE
  5
169
  8
0
 62
     7
 10
60.634900000000002
 20
213.36000000000001
 30
0.0
 11
61.779200000000003
 21
215.34200000000001
 31
0.0
  0
LINE
  5
16A
  8
0
 62
     7
 10
61.779200000000003
 20
215.34200000000001
 30
0.0
 11
59.797199999999997
 21
214.19799999999989
 31
0.0
  0
LINE
  5
16B
  8
0
 62
     7
 10
59.797199999999997
 20
214.19799999999989
 30
0.0
 11
60.634900000000002
 21
213.36000000000001
 31
0.0
  0
LINE
  5
16C
  8
0
 62
     7
 10
66.110399999999998
 20
220.50099999999989
 30
0.0
 11
64.966099999999997
 21
218.51899999999989
 31
0.0
  0
LINE
  5
16D
  8
0
 62
     7
 10
64.966099999999997
 20
218.51899999999989
 30
0.0
 11
66.948099999999997
 21
219.6629999999999
 31
0.0
  0
LINE
  5
16E
  8
0
 62
     7
 10
66.948099999999997
 20
219.6629999999999
 30
0.0
 11
66.110399999999998
 21
220.50099999999989
 31
0.0
  0
LINE
  5
16F
  8
0
 62
     7
 10
69.137799999999999
 20
222.70099999999991
 30
0.0
 11
57.681399999999989
 21
211.244
 31
0.0
  0
LINE
  5
170
  8
0
 62
     7
 10
104.7709999999999
 20
225.7229999999999
 30
0.0
 11
104.18000000000001
 21
227.93299999999991
 31
0.0
  0
LINE
  5
171
  8
0
 62
     7
 10
104.18000000000001
 20
227.93299999999991
 30
0.0
 11
103.58799999999989
 21
225.7229999999999
 31
0.0
  0
LINE
  5
172
  8
0
 62
     7
 10
103.58799999999989
 20
225.7229999999999
 30
0.0
 11
104.7709999999999
 21
225.7229999999999
 31
0.0
  0
LINE
  5
173
  8
0
 62
     7
 10
103.5949999999999
 20
191.107
 30
0.0
 11
104.187
 21
188.89699999999999
 31
0.0
  0
LINE
  5
174
  8
0
 62
     7
 10
104.187
 20
188.89699999999999
 30
0.0
 11
104.77799999999991
 21
191.107
 31
0.0
  0
LINE
  5
175
  8
0
 62
     7
 10
104.77799999999991
 20
191.107
 30
0.0
 11
103.5949999999999
 21
191.107
 31
0.0
  0
LINE
  5
176
  8
0
 62
     7
 10
104.18000000000001
 20
227.93299999999991
 30
0.0
 11
104.18000000000001
 21
188.89699999999999
 31
0.0
  0
LINE
  5
177
  8
0
 62
     7
 10
105.1779999999999
 20
227.93299999999991
 30
0.0
 11
82.544499999999999
 21
227.93299999999991
 31
0.0
  0
LINE
  5
178
  8
0
 62
     7
 10
105.1779999999999
 20
188.89699999999999
 30
0.0
 11
72.647499999999994
 21
188.89699999999999
 31
0.0
  0
LINE
  5
179
  8
0
 62
     7
 10
98.207000000000022
 20
193.3549999999999
 30
0.0
 11
98.799199999999999
 21
191.14500000000001
 31
0.0
  0
LINE
  5
17A
  8
0
 62
     7
 10
98.799199999999999
 20
191.14500000000001
 30
0.0
 11
99.391600000000011
 21
193.3549999999999
 31
0.0
  0
LINE
  5
17B
  8
0
 62
     7
 10
99.391600000000011
 20
193.3549999999999
 30
0.0
 11
98.207000000000022
 21
193.3549999999999
 31
0.0
  0
LINE
  5
17C
  8
0
 62
     7
 10
76.750799999999998
 20
214.7229999999999
 30
0.0
 11
76.158600000000007
 21
216.93299999999991
 31
0.0
  0
LINE
  5
17D
  8
0
 62
     7
 10
76.158600000000007
 20
216.93299999999991
 30
0.0
 11
75.566199999999995
 21
214.7229999999999
 31
0.0
  0
LINE
  5
17E
  8
0
 62
     7
 10
75.566199999999995
 20
214.7229999999999
 30
0.0
 11
76.750799999999998
 21
214.7229999999999
 31
0.0
  0
LINE
  5
17F
  8
0
 62
     7
 10
77.165800000000004
 20
216.93299999999991
 30
0.0
 11
71.517399999999995
 21
216.93299999999991
 31
0.0
  0
LINE
  5
180
  8
0
 62
     7
 10
99.37700000000001
 20
221.435
 30
0.0
 11
98.784800000000004
 21
223.64500000000001
 31
0.0
  0
LINE
  5
181
  8
0
 62
     7
 10
98.784800000000004
 20
223.64500000000001
 30
0.0
 11
98.192400000000006
 21
221.435
 31
0.0
  0
LINE
  5
182
  8
0
 62
     7
 10
98.192400000000006
 20
221.435
 30
0.0
 11
99.37700000000001
 21
221.435
 31
0.0
  0
LINE
  5
183
  8
0
 62
     7
 10
98.792000000000002
 20
191.14500000000001
 30
0.0
 11
98.792000000000002
 21
223.64500000000001
 31
0.0
  0
LINE
  5
184
  8
0
 62
     7
 10
99.792000000000002
 20
191.14500000000001
 30
0.0
 11
72.748000000000005
 21
191.14500000000001
 31
0.0
  0
LINE
  5
185
  8
0
 62
     7
 10
99.792000000000002
 20
223.64500000000001
 30
0.0
 11
66.707800000000006
 21
223.64500000000001
 31
0.0
  0
LINE
  5
186
  8
0
 62
     7
 10
62.759399999999999
 20
191.8829999999999
 30
0.0
 11
63.980800000000002
 21
191.8829999999999
 31
0.0
  0
LINE
  5
187
  8
0
 62
     7
 10
62.759399999999999
 20
192.41200000000001
 30
0.0
 11
63.980800000000002
 21
192.41200000000001
 31
0.0
  0
ARC
  5
188
  8
0
 62
     7
 10
64.00031700000001
 20
192.560001
 30
0.0
 40
0.6775850000000001
 50
268.35143599999992
 51
307.30849699999999
  0
ARC
  5
189
  8
0
 62
     7
 10
64.287357
 20
192.15580499999999
 30
0.0
 40
0.182879
 50
312.54101500000002
 51
357.27446600000002
  0
ARC
  5
18A
  8
0
 62
     7
 10
64.316069999999996
 20
192.14645699999991
 30
0.0
 40
0.153961
 50
0.24281
 51
30.996282999999998
  0
ARC
  5
18B
  8
0
 62
     7
 10
64.216200000000001
 20
192.0832749999999
 30
0.0
 40
0.272121
 50
31.570727999999999
 51
58.508401999999997
  0
ARC
  5
18C
  8
0
 62
     7
 10
64.013356000000002
 20
191.7503449999999
 30
0.0
 40
0.6619760000000001
 50
58.590212999999999
 51
92.816946999999999
  0
ARC
  5
18D
  8
0
 62
     7
 10
62.759377000000001
 20
191.61676499999999
 30
0.0
 40
0.7947569999999999
 50
90.001483999999977
 51
117.7427549999999
  0
ARC
  5
18E
  8
0
 62
     7
 10
62.502178999999998
 20
192.114822
 30
0.0
 40
0.234265
 50
118.77364299999989
 51
172.0780729999999
  0
ARC
  5
18F
  8
0
 62
     7
 10
62.424109999999999
 20
192.147761
 30
0.0
 40
0.153961
 50
180.24283
 51
210.9963029999999
  0
ARC
  5
190
  8
0
 62
     7
 10
62.523980000000002
 20
192.2109429999999
 30
0.0
 40
0.272121
 50
211.57074800000001
 51
238.508422
  0
ARC
  5
191
  8
0
 62
     7
 10
62.726824000000001
 20
192.54387299999991
 30
0.0
 40
0.6619760000000001
 50
238.5902329999999
 51
272.81696699999992
  0
LINE
  5
192
  8
0
  6
AIGENLINE001
 62
     7
 10
63.3703
 20
231.09700000000001
 30
0.0
 11
63.3703
 21
186.21700000000001
 31
0.0
  0
LINE
  5
193
  8
0
  6
AIGENLINE001
 62
     7
 10
146.58299999999991
 20
216.93299999999991
 30
0.0
 11
140.114
 21
216.93299999999991
 31
0.0
  0
ARC
  5
194
  8
0
  6
AIGENLINE002
 62
     7
 10
143.351157
 20
216.93334899999999
 30
0.0
 40
2.249833999999999
 50
359.99562300000002
 51
89.995592999999985
  0
ARC
  5
195
  8
0
  6
AIGENLINE002
 62
     7
 10
143.351158
 20
216.93300499999989
 30
0.0
 40
2.2501790000000002
 50
89.995614000000018
 51
179.99558400000001
  0
ARC
  5
196
  8
0
  6
AIGENLINE002
 62
     7
 10
143.351157
 20
216.93334899999999
 30
0.0
 40
2.250178
 50
180.0043959999999
 51
270.00440600000002
  0
ARC
  5
197
  8
0
  6
AIGENLINE002
 62
     7
 10
143.351157
 20
216.93300600000001
 30
0.0
 40
2.249833999999999
 50
270.0044069999999
 51
0.004377
  0
LINE
  5
198
  8
0
  6
AIGENLINE001
 62
     7
 10
70.870699999999999
 20
216.93299999999991
 30
0.0
 11
55.869799999999998
 21
216.93299999999991
 31
0.0
  0
ARC
  5
199
  8
0
 62
     7
 10
63.370176000000001
 20
216.93317699999989
 30
0.0
 40
2.2500059999999991
 50
0.00001
 51
89.999980000000008
  0
ARC
  5
19A
  8
0
 62
     7
 10
63.370176000000001
 20
216.93317699999989
 30
0.0
 40
2.2500059999999991
 50
90.0
 51
179.99996999999991
  0
ARC
  5
19B
  8
0
 62
     7
 10
63.370176000000001
 20
216.93317699999989
 30
0.0
 40
2.2500059999999991
 50
179.99996999999991
 51
270.00002000000001
  0
ARC
  5
19C
  8
0
 62
     7
 10
63.370176000000001
 20
216.93317799999991
 30
0.0
 40
2.2500059999999991
 50
270.00002000000001
 51
359.99998999999991
  0
ARC
  5
19D
  8
0
 62
     7
 10
63.370175000000003
 20
216.93317699999989
 30
0.0
 40
3.7500110000000002
 50
0.00001
 51
89.999980000000008
  0
ARC
  5
19E
  8
0
 62
     7
 10
63.370176999999998
 20
216.93317699999989
 30
0.0
 40
3.7500110000000002
 50
90.0
 51
179.99996999999991
  0
ARC
  5
19F
  8
0
 62
     7
 10
63.370175000000003
 20
216.93317699999989
 30
0.0
 40
3.750008999999999
 50
179.99996999999991
 51
270.00002000000001
  0
ARC
  5
1A0
  8
0
 62
     7
 10
63.370175000000003
 20
216.93317799999991
 30
0.0
 40
3.7500110000000002
 50
270.00002000000001
 51
359.99998999999991
  0
ARC
  5
1A1
  8
0
 62
     7
 10
63.370187000000001
 20
234.30935699999989
 30
0.0
 40
43.103003999999999
 50
245.76400799999999
 51
294.24326200000002
  0
ARC
  5
1A2
  8
0
 62
     7
 10
63.370307999999987
 20
234.35063999999991
 30
0.0
 40
45.390602000000001
 50
245.74225499999989
 51
294.25405999999998
  0
LINE
  5
1A3
  8
0
 62
     7
 10
50.057600000000001
 20
227.6209999999999
 30
0.0
 11
50.03479999999999
 21
227.666
 31
0.0
  0
ARC
  5
1A4
  8
0
 62
     7
 10
49.58056599999999
 20
227.42435099999989
 30
0.0
 40
0.5143290000000002
 50
27.97036099999999
 51
98.453354999999988
  0
ARC
  5
1A5
  8
0
 62
     7
 10
50.964388
 20
228.09725399999999
 30
0.0
 40
1.0243839999999991
 50
207.71801500000001
 51
274.31598300000002
  0
ARC
  5
1A6
  8
0
 62
     7
 10
52.604050000000001
 20
209.5990589999999
 30
0.0
 40
17.546367
 50
65.909032999999994
 51
95.113117999999986
  0
LINE
  5
1A7
  8
0
 62
     7
 10
76.683000000000007
 20
227.6209999999999
 30
0.0
 11
76.705699999999993
 21
227.666
 31
0.0
  0
ARC
  5
1A8
  8
0
 62
     7
 10
77.159618999999992
 20
227.42502400000001
 30
0.0
 40
0.513713
 50
81.498096000000004
 51
152.078149
  0
ARC
  5
1A9
  8
0
 62
     7
 10
75.776153000000008
 20
228.09722500000001
 30
0.0
 40
1.024356
 50
265.682996
 51
332.28304600000001
  0
ARC
  5
1AA
  8
0
 62
     7
 10
74.135644999999997
 20
209.60401999999999
 30
0.0
 40
17.541498999999991
 50
84.882718999999994
 51
114.0950889999999
  0
ARC
  5
1AB
  8
0
 62
     7
 10
63.370266999999998
 20
233.78039699999999
 30
0.0
 40
8.9235350000000011
 50
246.17790500000001
 51
293.81115999999997
  0
ARC
  5
1AC
  8
0
 62
     7
 10
73.744023999999996
 20
209.935462
 30
0.0
 40
16.628104
 50
296.1294640000001
 51
359.17907700000001
  0
ARC
  5
1AD
  8
0
 62
     7
 10
74.120317
 20
209.69722299999989
 30
0.0
 40
16.250104
 50
0.00001
 51
89.999980000000008
  0
ARC
  5
1AE
  8
0
 62
     7
 10
74.132148999999984
 20
209.64225899999991
 30
0.0
 40
16.305071999999999
 50
90.041556999999997
 51
114.13294399999999
  0
ARC
  5
1AF
  8
0
 62
     7
 10
73.692165000000003
 20
209.96855699999989
 30
0.0
 40
18.930206999999999
 50
296.08263699999998
 51
359.17873500000002
  0
ARC
  5
1B0
  8
0
 62
     7
 10
73.516655
 20
209.187805
 30
0.0
 40
19.110562999999999
 50
1.527482999999999
 51
78.784961999999993
  0
ARC
  5
1B1
  8
0
 62
     7
 10
63.370393999999997
 20
233.79683499999999
 30
0.0
 40
10.138541
 50
246.17275499999991
 51
293.82244500000002
  0
ARC
  5
1B2
  8
0
 62
     7
 10
75.460144
 20
128.16430600000001
 30
0.0
 40
16.445029000000002
 50
306.50281799999999
 51
347.442633
  0
ARC
  5
1B3
  8
0
 62
     7
 10
72.357731999999999
 20
132.2042669999999
 30
0.0
 40
21.538160000000001
 50
293.79582799999991
 51
306.74379099999987
  0
ARC
  5
1B4
  8
0
 62
     7
 10
68.438738000000001
 20
140.42602999999991
 30
0.0
 40
30.64339099999999
 50
283.55264699999998
 51
294.29792400000002
  0
ARC
  5
1B5
  8
0
 62
     7
 10
64.588553000000005
 20
154.75776200000001
 30
0.0
 40
45.479928000000001
 50
274.00097799999998
 51
284.03704599999992
  0
ARC
  5
1B6
  8
0
 62
     7
 10
147.9148219999999
 20
129.91438299999999
 30
0.0
 40
22.577304999999999
 50
193.58677299999999
 51
237.66229100000001
  0
ARC
  5
1B7
  8
0
 62
     7
 10
151.18690599999991
 20
134.649981
 30
0.0
 40
28.329671999999999
 50
237.19407799999999
 51
266.01898299999988
  0
ARC
  5
1B8
  8
0
 62
     7
 10
147.49677
 20
131.67274499999991
 30
0.0
 40
21.714921
 50
199.03959800000001
 51
247.108475
  0
ARC
  5
1B9
  8
0
 62
     7
 10
149.82577800000001
 20
137.1118459999999
 30
0.0
 40
27.631627000000002
 50
247.046604
 51
260.76583599999992
  0
ARC
  5
1BA
  8
0
 62
     7
 10
150.998142
 20
142.74870899999999
 30
0.0
 40
33.384524999999989
 50
260.332269
 51
267.80523999999991
  0
ARC
  5
1BB
  8
0
 62
     7
 10
52.063454999999998
 20
128.16430600000001
 30
0.0
 40
16.445029000000002
 50
192.55738700000001
 51
233.49720199999999
  0
ARC
  5
1BC
  8
0
 62
     7
 10
55.165867000000013
 20
132.2042669999999
 30
0.0
 40
21.538160000000001
 50
233.25622899999999
 51
246.20419199999989
  0
ARC
  5
1BD
  8
0
 62
     7
 10
59.084860999999997
 20
140.42602999999991
 30
0.0
 40
30.64339099999999
 50
245.7020959999999
 51
256.44737299999991
  0
ARC
  5
1BE
  8
0
 62
     7
 10
62.935046
 20
154.75776200000001
 30
0.0
 40
45.479928000000001
 50
255.962974
 51
265.99904199999992
  0
ARC
  5
1BF
  8
0
 62
     7
 10
52.62024499999999
 20
209.6971179999999
 30
0.0
 40
16.250197
 50
65.822879
 51
155.82229699999991
  0
ARC
  5
1C0
  8
0
 62
     7
 10
53.424962000000001
 20
209.99419399999991
 30
0.0
 40
16.873343999999999
 50
157.862155
 51
242.65208299999989
  0
ARC
  5
1C1
  8
0
 62
     7
 10
52.620114999999998
 20
209.69714200000001
 30
0.0
 40
18.500101999999991
 50
99.687483000000014
 51
189.687533
  0
ARC
  5
1C2
  8
0
 62
     7
 10
52.910471999999999
 20
209.91771399999999
 30
0.0
 40
18.824190999999988
 50
190.200613
 51
244.22629499999991
  0
LINE
  5
1C3
  8
_________2
 62
     7
 10
210.24000000000001
 20
148.93100000000001
 30
0.0
 11
188.49000000000001
 21
148.93100000000001
 31
0.0
  0
LINE
  5
1C4
  8
_________2
 62
     7
 10
105.2389999999999
 20
17.428499999999989
 30
0.0
 11
105.2389999999999
 21
0.4482100000000001
 31
0.0
  0
LINE
  5
1C5
  8
_________2
 62
     7
 10
105.2389999999999
 20
297.44999999999987
 30
0.0
 11
105.2389999999999
 21
280.42999999999989
 31
0.0
  0
LINE
  5
1C6
  8
_________2
 62
     7
 10
21.988499999999991
 20
148.93100000000001
 30
0.0
 11
0.238058
 21
148.93100000000001
 31
0.0
  0
LINE
  5
1C7
  8
_________2
 62
     7
 10
81.679900000000004
 20
51.324300000000001
 30
0.0
 11
79.493700000000004
 21
51.324300000000001
 31
0.0
  0
LINE
  5
1C8
  8
_________2
 62
     7
 10
82.172600000000017
 20
51.324300000000001
 30
0.0
 11
81.920400000000001
 21
51.324300000000001
 31
0.0
  0
LINE
  5
1C9
  8
_________2
 62
     7
 10
82.665199999999984
 20
51.324300000000001
 30
0.0
 11
85.590100000000007
 21
51.324300000000001
 31
0.0
  0
LINE
  5
1CA
  8
_________2
 62
     7
 10
82.172600000000017
 20
51.324300000000001
 30
0.0
 11
82.424800000000005
 21
51.324300000000001
 31
0.0
  0
LINE
  5
1CB
  8
_________2
 62
     7
 10
75.776399999999995
 20
51.324300000000001
 30
0.0
 11
73.589399999999998
 21
51.324300000000001
 31
0.0
  0
LINE
  5
1CC
  8
_________2
 62
     7
 10
76.2684
 20
51.324300000000001
 30
0.0
 11
76.016900000000007
 21
51.324300000000001
 31
0.0
  0
LINE
  5
1CD
  8
_________2
 62
     7
 10
76.2684
 20
51.817
 30
0.0
 11
76.2684
 21
54.003900000000002
 31
0.0
  0
LINE
  5
1CE
  8
_________2
 62
     7
 10
76.2684
 20
51.324300000000001
 30
0.0
 11
76.2684
 21
51.576500000000003
 31
0.0
  0
LINE
  5
1CF
  8
_________2
 62
     7
 10
76.76100000000001
 20
51.324300000000001
 30
0.0
 11
78.947999999999993
 21
51.324300000000001
 31
0.0
  0
LINE
  5
1D0
  8
_________2
 62
     7
 10
76.2684
 20
51.324300000000001
 30
0.0
 11
76.520499999999998
 21
51.324300000000001
 31
0.0
  0
LINE
  5
1D1
  8
_________2
 62
     7
 10
76.2684
 20
50.832399999999993
 30
0.0
 11
76.2684
 21
48.645400000000002
 31
0.0
  0
LINE
  5
1D2
  8
_________2
 62
     7
 10
76.2684
 20
51.324300000000001
 30
0.0
 11
76.2684
 21
51.072800000000001
 31
0.0
  0
LINE
  5
1D3
  8
_________2
 62
     7
 10
79.979399999999984
 20
50.104799999999997
 30
0.0
 11
85.157399999999996
 21
49.240000000000002
 31
0.0
  0
LINE
  5
1D4
  8
_________2
 62
     7
 10
79.979399999999984
 20
52.543900000000001
 30
0.0
 11
85.157399999999996
 21
53.409300000000002
 31
0.0
  0
LINE
  5
1D5
  8
_________2
 62
     7
 10
85.157399999999996
 20
49.240000000000002
 30
0.0
 11
85.157399999999996
 21
53.409300000000002
 31
0.0
  0
LINE
  5
1D6
  8
_________2
 62
     7
 10
79.979399999999984
 20
50.104799999999997
 30
0.0
 11
79.979399999999984
 21
52.543900000000001
 31
0.0
  0
ARC
  5
1D7
  8
_________2
 62
     7
 10
76.222110000000001
 20
51.277366999999991
 30
0.0
 40
1.2673709999999989
 50
2.1232950000000002
 51
87.909056000000007
  0
ARC
  5
1D8
  8
_________2
 62
     7
 10
76.315273000000005
 20
51.277400999999998
 30
0.0
 40
1.267363
 50
92.121785999999986
 51
177.878185
  0
ARC
  5
1D9
  8
_________2
 62
     7
 10
76.315273000000005
 20
51.371245999999992
 30
0.0
 40
1.267363
 50
182.12181499999991
 51
267.87821400000001
  0
ARC
  5
1DA
  8
_________2
 62
     7
 10
76.221461000000005
 20
51.371928999999987
 30
0.0
 40
1.2680439999999991
 50
272.11916400000001
 51
357.84848499999993
  0
ARC
  5
1DB
  8
_________2
 62
     7
 10
76.268349999999984
 20
51.324323
 30
0.0
 40
2.0849849999999992
 50
0.00001
 51
89.999980000000008
  0
ARC
  5
1DC
  8
_________2
 62
     7
 10
76.348388
 20
51.245001999999992
 30
0.0
 40
2.1657860000000002
 50
92.117855000000034
 51
177.90105299999991
  0
ARC
  5
1DD
  8
_________2
 62
     7
 10
76.348354
 20
51.404327000000002
 30
0.0
 40
2.1657779999999991
 50
182.11700400000001
 51
267.88302499999992
  0
ARC
  5
1DE
  8
_________2
 62
     7
 10
76.188378999999983
 20
51.405009999999997
 30
0.0
 40
2.1664590000000001
 50
272.11546800000002
 51
357.86560400000002
  0
TEXT
  5
1DF
  8
_________2
 62
     7
 10
109.5439999999999
 20
23.199100000000001
 30
0.0
 40
3.0923400000000001
  1
図番
 41
0.5
  0
LINE
  5
1E0
  8
_________2
 62
     7
 10
108.4889999999999
 20
27.4283
 30
0.0
 11
188.49000000000001
 21
27.4283
 31
0.0
  0
TEXT
  5
1E1
  8
_________2
 62
     7
 10
109.5439999999999
 20
33.198900000000002
 30
0.0
 40
3.0923400000000001
  1
品番
 41
0.5
  0
TEXT
  5
1E2
  8
_________2
 62
     7
 10
109.5439999999999
 20
53.337699999999998
 30
0.0
 40
3.0923400000000001
  1
名称
 41
0.5
  0
TEXT
  5
1E3
  8
_________2
 62
     7
 10
96.784058333333334
 20
48.341500000000011
 30
0.0
 40
3.6545800000000002
  1
mm
 41
0.5
 72
     1
 11
98.306799999999996
 21
48.341500000000011
 31
0.0
  0
TEXT
  5
1E4
  8
_________2
 62
     7
 10
90.582099999999997
 20
53.337699999999998
 30
0.0
 40
3.0923400000000001
  1
単位
 41
0.5
  0
TEXT
  5
1E5
  8
_________2
 62
     7
 10
90.582099999999997
 20
40.930399999999999
 30
0.0
 40
3.0923400000000001
  1
尺度
 41
0.5
  0
TEXT
  5
1E6
  8
_________2
 62
     7
 10
95.030836166666674
 20
34.73749999999999
 30
0.0
 40
3.6545800000000002
  1
1 ： 10
 41
0.5
 72
     1
 11
98.898600000000002
 21
34.73749999999999
 31
0.0
  0
TEXT
  5
1E7
  8
_________2
 62
     7
 10
144.88127499999999
 20
30.627400000000002
 30
0.0
 40
3.9357000000000002
  1
FL34
 41
0.5
 72
     1
 11
148.489
 21
30.627400000000002
 31
0.0
  0
TEXT
  5
1E8
  8
_________2
 62
     7
 10
144.88127499999999
 20
20.626999999999988
 30
0.0
 40
3.9357000000000002
  1
FL34
 41
0.5
 72
     1
 11
148.489
 21
20.626999999999988
 31
0.0
  0
TEXT
  5
1E9
  8
_________2
 62
     7
 10
29.525700000000001
 20
22.226900000000001
 30
0.0
 40
3.9357000000000002
  1
実容量：10.6L オーバーフロー付
 41
0.5
  0
TEXT
  5
1EA
  8
_________2
 62
     7
 10
114.11799999999999
 20
45.7453
 30
0.0
 40
3.9357000000000002
  1
アンダーカウンター式洗面器
 41
0.5
  0
TEXT
  5
1EB
  8
_________2
 62
     7
 10
44.303290666666669
 20
35.122599999999991
 30
0.0
 40
3.6545800000000002
  1
高橋
 41
0.5
 72
     1
 11
46.252400000000002
 21
35.122599999999991
 31
0.0
  0
TEXT
  5
1EC
  8
_________2
 62
     7
 10
25.72929066666666
 20
35.122599999999991
 30
0.0
 40
3.6545800000000002
  1
石原
 41
0.5
 72
     1
 11
27.6784
 21
35.122599999999991
 31
0.0
  0
TEXT
  5
1ED
  8
_________2
 62
     7
 10
72.724699999999999
 20
34.73749999999999
 30
0.0
 40
3.6545800000000002
  1
06.06.05
 41
0.5
  0
TEXT
  5
1EE
  8
_________2
 62
     7
 10
71.531999999999996
 20
40.930399999999999
 30
0.0
 40
3.0923400000000001
  1
日付
 41
0.5
  0
TEXT
  5
1EF
  8
_________2
 62
     7
 10
34.578299999999992
 20
40.930399999999999
 30
0.0
 40
3.0923400000000001
  1
検図
 41
0.5
  0
TEXT
  5
1F0
  8
_________2
 62
     7
 10
22.960000000000001
 20
26.730999999999991
 30
0.0
 40
3.0923400000000001
  1
備考
 41
0.5
  0
TEXT
  5
1F1
  8
_________2
 62
     7
 10
22.960000000000001
 20
40.930399999999999
 30
0.0
 40
3.0923400000000001
  1
製図
 41
0.5
  0
TEXT
  5
1F2
  8
_________2
 62
     7
 10
28.727365333333339
 20
49.456400000000002
 30
0.0
 40
4.4979399999999989
  1
セラトレーディング株式会社
 41
0.5
 72
     1
 11
46.119399999999992
 21
49.456400000000002
 31
0.0
  0
LINE
  5
1F3
  8
_________2
 62
     7
 10
188.49000000000001
 20
17.428499999999989
 30
0.0
 11
21.988499999999991
 21
17.428499999999989
 31
0.0
  0
LINE
  5
1F4
  8
_________2
 62
     7
 10
21.988499999999991
 20
17.428499999999989
 30
0.0
 11
21.988499999999991
 21
280.42999999999989
 31
0.0
  0
LINE
  5
1F5
  8
_________2
 62
     7
 10
21.988499999999991
 20
280.42999999999989
 30
0.0
 11
188.49000000000001
 21
280.42999999999989
 31
0.0
  0
LINE
  5
1F6
  8
_________2
 62
     7
 10
188.49000000000001
 20
280.42999999999989
 30
0.0
 11
188.49000000000001
 21
17.428499999999989
 31
0.0
  0
LINE
  5
1F7
  8
_________2
 62
     7
 10
70.488799999999998
 20
30.9285
 30
0.0
 11
70.488799999999998
 21
57.428400000000011
 31
0.0
  0
LINE
  5
1F8
  8
_________2
 62
     7
 10
89.488600000000005
 20
30.9285
 30
0.0
 11
89.488600000000005
 21
57.428400000000011
 31
0.0
  0
LINE
  5
1F9
  8
_________2
 62
     7
 10
108.4889999999999
 20
17.428499999999989
 30
0.0
 11
108.4889999999999
 21
57.428400000000011
 31
0.0
  0
LINE
  5
1FA
  8
_________2
 62
     7
 10
33.488300000000002
 20
30.9285
 30
0.0
 11
33.488300000000002
 21
44.928800000000003
 31
0.0
  0
LINE
  5
1FB
  8
_________2
 62
     7
 10
21.988499999999991
 20
30.9285
 30
0.0
 11
108.4889999999999
 21
30.9285
 31
0.0
  0
LINE
  5
1FC
  8
_________2
 62
     7
 10
21.988499999999991
 20
44.928800000000003
 30
0.0
 11
108.4889999999999
 21
44.928800000000003
 31
0.0
  0
LINE
  5
1FD
  8
_________2
 62
     7
 10
108.4889999999999
 20
37.428100000000001
 30
0.0
 11
188.49000000000001
 21
37.428100000000001
 31
0.0
  0
LINE
  5
1FE
  8
_________2
 62
     7
 10
21.988499999999991
 20
57.428400000000011
 30
0.0
 11
188.49000000000001
 21
57.428400000000011
 31
0.0
  0
ENDSEC
  0
EOF
