  0
SECTION
  2
HEADER
  9
$ACADVER
  1
AC1009
  9
$INSBASE
 10
0.0
 20
0.0
 30
0.0
  9
$EXTMIN
 10
0.238058
 20
0.4482100000000001
 30
0.0
  9
$EXTMAX
 10
210.24000000000001
 20
297.44999999999987
 30
0.0
  9
$LIMMIN
 10
0.0
 20
0.0
  9
$LIMMAX
 10
12.0
 20
9.0
  9
$ORTHOMODE
 70
     0
  9
$REGENMODE
 70
     1
  9
$FILLMODE
 70
     1
  9
$QTEXTMODE
 70
     0
  9
$MIRRTEXT
 70
     1
  9
$DRAGMODE
 70
     2
  9
$LTSCALE
 40
1.0
  9
$OSMODE
 70
    37
  9
$ATTMODE
 70
     1
  9
$TEXTSIZE
 40
0.0
  9
$TRACEWID
 40
0.05
  9
$TEXTSTYLE
  7
STANDARD
  9
$CLAYER
  8
0
  9
$CELTYPE
  6
CONTINUOUS
  9
$CECOLOR
 62
   256
  9
$DIMSCALE
 40
1.0
  9
$DIMASZ
 40
0.18
  9
$DIMEXO
 40
0.0625
  9
$DIMDLI
 40
0.38
  9
$DIMRND
 40
0.0
  9
$DIMDLE
 40
0.0
  9
$DIMEXE
 40
0.18
  9
$DIMTP
 40
0.0
  9
$DIMTM
 40
0.0
  9
$DIMTXT
 40
0.18
  9
$DIMCEN
 40
0.09
  9
$DIMTSZ
 40
0.0
  9
$DIMTOL
 70
     0
  9
$DIMLIM
 70
     0
  9
$DIMTIH
 70
     1
  9
$DIMTOH
 70
     1
  9
$DIMSE1
 70
     0
  9
$DIMSE2
 70
     0
  9
$DIMTAD
 70
     0
  9
$DIMZIN
 70
     0
  9
$DIMBLK
  1

  9
$DIMASO
 70
     1
  9
$DIMSHO
 70
     1
  9
$DIMPOST
  1

  9
$DIMAPOST
  1

  9
$DIMALT
 70
     0
  9
$DIMALTD
 70
     2
  9
$DIMALTF
 40
25.399999999999999
  9
$DIMLFAC
 40
1.0
  9
$DIMTOFL
 70
     0
  9
$DIMTVP
 40
0.0
  9
$DIMTIX
 70
     0
  9
$DIMSOXD
 70
     0
  9
$DIMSAH
 70
     0
  9
$DIMBLK1
  1

  9
$DIMBLK2
  1

  9
$DIMSTYLE
  2
STANDARD
  9
$DIMCLRD
 70
     0
  9
$DIMCLRE
 70
     0
  9
$DIMCLRT
 70
     0
  9
$DIMTFAC
 40
1.0
  9
$DIMGAP
 40
0.09
  9
$LUNITS
 70
     2
  9
$LUPREC
 70
     4
  9
$SKETCHINC
 40
0.1
  9
$FILLETRAD
 40
0.0
  9
$AUNITS
 70
     0
  9
$AUPREC
 70
     0
  9
$MENU
  1
.
  9
$ELEVATION
 40
0.0
  9
$PELEVATION
 40
0.0
  9
$THICKNESS
 40
0.0
  9
$LIMCHECK
 70
     0
  9
$BLIPMODE
 70
     0
  9
$CHAMFERA
 40
0.0
  9
$CHAMFERB
 40
0.0
  9
$SKPOLY
 70
     0
  9
$TDCREATE
 40
2444972.375
  9
$TDUPDATE
 40
2456472.2471247572
  9
$TDINDWG
 40
0.000007338
  9
$TDUSRTIMER
 40
0.000007338
  9
$USRTIMER
 70
     1
  9
$ANGBASE
 50
0.0
  9
$ANGDIR
 70
     0
  9
$PDMODE
 70
     0
  9
$PDSIZE
 40
0.0
  9
$PLINEWID
 40
0.0
  9
$COORDS
 70
     1
  9
$SPLFRAME
 70
     0
  9
$SPLINETYPE
 70
     6
  9
$SPLINESEGS
 70
     8
  9
$ATTDIA
 70
     0
  9
$ATTREQ
 70
     1
  9
$HANDLING
 70
     1
  9
$HANDSEED
  5
1F9
  9
$SURFTAB1
 70
     6
  9
$SURFTAB2
 70
     6
  9
$SURFTYPE
 70
     6
  9
$SURFU
 70
     6
  9
$SURFV
 70
     6
  9
$UCSNAME
  2

  9
$UCSORG
 10
0.0
 20
0.0
 30
0.0
  9
$UCSXDIR
 10
1.0
 20
0.0
 30
0.0
  9
$UCSYDIR
 10
0.0
 20
1.0
 30
0.0
  9
$PUCSNAME
  2

  9
$PUCSORG
 10
0.0
 20
0.0
 30
0.0
  9
$PUCSXDIR
 10
1.0
 20
0.0
 30
0.0
  9
$PUCSYDIR
 10
0.0
 20
1.0
 30
0.0
  9
$USERI1
 70
     0
  9
$USERI2
 70
     0
  9
$USERI3
 70
     0
  9
$USERI4
 70
     0
  9
$USERI5
 70
     0
  9
$USERR1
 40
0.0
  9
$USERR2
 40
0.0
  9
$USERR3
 40
0.0
  9
$USERR4
 40
0.0
  9
$USERR5
 40
0.0
  9
$WORLDVIEW
 70
     1
  9
$SHADEDGE
 70
     3
  9
$SHADEDIF
 70
    70
  9
$TILEMODE
 70
     1
  9
$MAXACTVP
 70
    48
  9
$PLIMCHECK
 70
     0
  9
$PEXTMIN
 10
1.0000000000000000E+020
 20
1.0000000000000000E+020
 30
1.0000000000000000E+020
  9
$PEXTMAX
 10
-1.0000000000000000E+020
 20
-1.0000000000000000E+020
 30
-1.0000000000000000E+020
  9
$PLIMMIN
 10
0.0
 20
0.0
  9
$PLIMMAX
 10
12.0
 20
9.0
  9
$UNITMODE
 70
     0
  9
$VISRETAIN
 70
     1
  9
$PLINEGEN
 70
     0
  9
$PSLTSCALE
 70
     1
  0
ENDSEC
  0
SECTION
  2
TABLES
  0
TABLE
  2
VPORT
 70
     2
  0
VPORT
  2
*ACTIVE
 70
     0
 10
0.0
 20
0.0
 11
1.0
 21
1.0
 12
214.6776300651762
 22
148.72499999999991
 13
0.0
 23
0.0
 14
1.0
 24
1.0
 15
0.0
 25
0.0
 16
0.0
 26
0.0
 36
1.0
 17
0.0
 27
0.0
 37
0.0
 40
299.82643142476689
 41
2.2894736842105261
 42
50.0
 43
0.0
 44
0.0
 50
0.0
 51
0.0
 71
     0
 72
   100
 73
     1
 74
     1
 75
     0
 76
     0
 77
     0
 78
     0
  0
ENDTAB
  0
TABLE
  2
LTYPE
 70
     4
  0
LTYPE
  2
CONTINUOUS
 70
     0
  3
Solid line
 72
    65
 73
     0
 40
0.0
  0
LTYPE
  2
AIGENLINE001
 70
     0
  3
generate AI->DXF Converter
 72
    65
 73
     2
 40
1.5522299999999991
 49
0.776115
 49
-0.776115
  0
LTYPE
  2
AIGENLINE002
 70
     0
  3
generate AI->DXF Converter
 72
    65
 73
     4
 40
5.8561449999999988
 49
3.5278
 49
-0.776115
 49
0.776115
 49
-0.776115
  0
LTYPE
  2
AIGENLINE003
 70
     0
  3
generate AI->DXF Converter
 72
    65
 73
     6
 40
7.4083750000000004
 49
3.5278
 49
-0.776115
 49
0.776115
 49
-0.776115
 49
0.776115
 49
-0.776115
  0
ENDTAB
  0
TABLE
  2
LAYER
 70
     2
  0
LAYER
  2
0
 70
     0
 62
     7
  6
CONTINUOUS
  0
LAYER
  2
_________2
 70
     0
 62
     7
  6
CONTINUOUS
  0
ENDTAB
  0
TABLE
  2
STYLE
 70
     1
  0
STYLE
  2
STANDARD
 70
     0
 40
0.0
 41
0.0
 50
0.0
 71
     0
 42
0.0
  3
TXT
  4
EXTFONT.SHX
  0
ENDTAB
  0
TABLE
  2
VIEW
 70
     0
  0
ENDTAB
  0
TABLE
  2
UCS
 70
     0
  0
ENDTAB
  0
TABLE
  2
APPID
 70
     1
  0
APPID
  2
ACAD
 70
     0
  0
ENDTAB
  0
TABLE
  2
DIMSTYLE
 70
     1
  0
DIMSTYLE
  2
STANDARD
 70
     0
  3

  4

  5

  6

  7

 40
1.0
 41
0.18
 42
0.0625
 43
0.38
 44
0.18
 45
0.0
 46
0.0
 47
0.0
 48
0.0
140
0.18
141
0.09
142
0.0
143
25.399999999999999
144
1.0
145
0.0
146
1.0
147
0.09
 71
     0
 72
     0
 73
     1
 74
     1
 75
     0
 76
     0
 77
     0
 78
     0
170
     0
171
     2
172
     0
173
     0
174
     0
175
     0
176
     0
177
     0
178
     0
  0
ENDTAB
  0
ENDSEC
  0
SECTION
  2
BLOCKS
  0
BLOCK
  8
0
  2
$MODEL_SPACE
 70
     0
 10
0.0
 20
0.0
 30
0.0
  3
$MODEL_SPACE
  1

  0
ENDBLK
  5
1A
  8
0
  0
BLOCK
 67
     1
  8
0
  2
$PAPER_SPACE
 70
     0
 10
0.0
 20
0.0
 30
0.0
  3
$PAPER_SPACE
  1

  0
ENDBLK
  5
17
 67
     1
  8
0
  0
ENDSEC
  0
SECTION
  2
ENTITIES
  0
TEXT
  5
24
  8
0
 62
     7
 10
63.954839999999997
 20
212.66300000000001
 30
0.0
 40
3.0923400000000001
  1
%%c35
 41
0.5
 72
     1
 11
66.016400000000004
 21
212.66300000000001
 31
0.0
  0
TEXT
  5
25
  8
0
 62
     7
 10
58.917140000000003
 20
198.76699999999991
 30
0.0
 40
3.0923400000000001
  1
%%c45
 41
0.5
 72
     1
 11
60.978700000000003
 21
198.76699999999991
 31
0.0
  0
TEXT
  5
26
  8
0
 62
     7
 10
156.66744
 20
103.8159999999999
 30
0.0
 40
3.0923400000000001
  1
265
 41
0.5
 72
     1
 11
158.7289999999999
 21
103.8159999999999
 31
0.0
  0
TEXT
  5
27
  8
0
 62
     7
 10
41.533099999999997
 20
121.927525
 30
0.0
 40
3.0923400000000001
  1
75
 50
90.0
 41
0.5
 72
     1
 11
41.533099999999997
 21
123.21599999999999
 31
0.0
  0
TEXT
  5
28
  8
0
 62
     7
 10
141.52044000000001
 20
135.596
 30
0.0
 40
3.0923400000000001
  1
275
 41
0.5
 72
     1
 11
143.58199999999991
 21
135.596
 31
0.0
  0
TEXT
  5
29
  8
0
 62
     7
 10
127.475525
 20
135.7949999999999
 30
0.0
 40
3.0923400000000001
  1
35
 41
0.5
 72
     1
 11
128.76400000000001
 21
135.7949999999999
 31
0.0
  0
TEXT
  5
2A
  8
0
 62
     7
 10
160.17537250000001
 20
135.7949999999999
 30
0.0
 40
3.0923400000000001
  1
70
 41
0.5
 72
     1
 11
161.33500000000001
 21
135.7949999999999
 31
0.0
  0
TEXT
  5
2B
  8
0
 62
     7
 10
167.21737250000001
 20
135.7949999999999
 30
0.0
 40
3.0923400000000001
  1
70
 41
0.5
 72
     1
 11
168.37700000000001
 21
135.7949999999999
 31
0.0
  0
TEXT
  5
2C
  8
0
 62
     7
 10
26.199100000000001
 20
60.912399999999991
 30
0.0
 40
3.6545800000000002
  1
※壁取付部には厚さ30mm以上の補強木を入れてください。
 41
0.5
  0
TEXT
  5
2D
  8
0
 62
     7
 10
71.083235000000002
 20
135.51400000000001
 30
0.0
 40
3.0923400000000001
  1
200
 41
0.5
 72
     1
 11
72.887100000000004
 21
135.51400000000001
 31
0.0
  0
TEXT
  5
2E
  8
0
 62
     7
 10
141.85796500000001
 20
222.61999999999989
 30
0.0
 40
3.0923400000000001
  1
R10
 41
0.5
 72
     2
 11
145.208
 21
222.61999999999989
 31
0.0
  0
TEXT
  5
2F
  8
0
 62
     7
 10
139.82796500000001
 20
203.434
 30
0.0
 40
3.0923400000000001
  1
R10
 41
0.5
 72
     2
 11
143.178
 21
203.434
 31
0.0
  0
TEXT
  5
30
  8
0
 62
     7
 10
138.65311500000001
 20
173.589
 30
0.0
 40
3.0923400000000001
  1
※カウンターを設ける場合
 41
0.5
 72
     1
 11
149.73400000000001
 21
173.589
 31
0.0
  0
TEXT
  5
31
  8
0
 62
     7
 10
141.48776000000001
 20
179.1159999999999
 30
0.0
 40
3.0923400000000001
  1
カウンター切込寸法
 41
0.5
 72
     1
 11
149.73400000000001
 21
179.1159999999999
 31
0.0
  0
TEXT
  5
32
  8
0
 62
     7
 10
147.8012875
 20
189.304
 30
0.0
 40
3.0923400000000001
  1
340
 41
0.5
 72
     1
 11
149.73400000000001
 21
189.304
 31
0.0
  0
TEXT
  5
33
  8
0
 62
     7
 10
71.083235000000002
 20
171.19900000000001
 30
0.0
 40
3.0923400000000001
  1
500
 41
0.5
 72
     1
 11
72.887100000000004
 21
171.19900000000001
 31
0.0
  0
TEXT
  5
34
  8
0
 62
     7
 10
70.95438750000001
 20
179.3479999999999
 30
0.0
 40
3.0923400000000001
  1
430
 41
0.5
 72
     1
 11
72.887100000000004
 21
179.3479999999999
 31
0.0
  0
TEXT
  5
35
  8
0
 62
     7
 10
157.16445400000001
 20
235.77199999999999
 30
0.0
 40
3.0923400000000001
  1
壁
 41
0.5
 72
     1
 11
157.88599999999991
 21
235.77199999999999
 31
0.0
  0
TEXT
  5
36
  8
0
 62
     7
 10
76.295029999999997
 20
241.61199999999991
 30
0.0
 40
3.0923400000000001
  1
100
 41
0.5
 72
     1
 11
77.841200000000001
 21
241.61199999999991
 31
0.0
  0
TEXT
  5
37
  8
0
 62
     7
 10
66.343329999999995
 20
241.61199999999991
 30
0.0
 40
3.0923400000000001
  1
100
 41
0.5
 72
     1
 11
67.889499999999984
 21
241.61199999999991
 31
0.0
  0
TEXT
  5
38
  8
0
 62
     7
 10
124.77200000000001
 20
236.471745
 30
0.0
 40
3.0923400000000001
  1
40
 50
90.0
 41
0.5
 72
     2
 11
124.77200000000001
 21
238.791
 31
0.0
  0
TEXT
  5
39
  8
0
 62
     7
 10
124.77200000000001
 20
211.50713500000001
 30
0.0
 40
3.0923400000000001
  1
300
 50
90.0
 41
0.5
 72
     1
 11
124.77200000000001
 21
213.31099999999989
 31
0.0
  0
TEXT
  5
3A
  8
0
 62
     7
 10
39.412999999999997
 20
216.79643999999999
 30
0.0
 40
3.0923400000000001
  1
265
 50
90.0
 41
0.5
 72
     1
 11
39.412999999999997
 21
218.85799999999989
 31
0.0
  0
TEXT
  5
3B
  8
0
 62
     7
 10
174.3479999999999
 20
216.99943999999991
 30
0.0
 40
3.0923400000000001
  1
265
 50
90.0
 41
0.5
 72
     1
 11
174.3479999999999
 21
219.06099999999989
 31
0.0
  0
TEXT
  5
3C
  8
0
 62
     7
 10
112.331
 20
207.21028749999999
 30
0.0
 40
3.0923400000000001
  1
450
 50
90.0
 41
0.5
 72
     1
 11
112.331
 21
209.14299999999989
 31
0.0
  0
TEXT
  5
3D
  8
0
 62
     7
 10
105.3429999999999
 20
223.50998250000001
 30
0.0
 40
3.0923400000000001
  1
140
 50
90.0
 41
0.5
 72
     1
 11
105.3429999999999
 21
225.185
 31
0.0
  0
TEXT
  5
3E
  8
0
 62
     7
 10
105.3429999999999
 20
202.62343999999999
 30
0.0
 40
3.0923400000000001
  1
275
 50
90.0
 41
0.5
 72
     1
 11
105.3429999999999
 21
204.685
 31
0.0
  0
TEXT
  5
3F
  8
0
 62
     7
 10
143.48099999999991
 20
119.95567749999999
 30
0.0
 40
3.0923400000000001
  1
110
 50
90.0
 41
0.5
 72
     1
 11
143.48099999999991
 21
121.37299999999991
 31
0.0
  0
TEXT
  5
40
  8
0
 62
     7
 10
105.57899999999999
 20
117.3839824999999
 30
0.0
 40
3.0923400000000001
  1
160
 50
90.0
 41
0.5
 72
     1
 11
105.57899999999999
 21
119.059
 31
0.0
  0
TEXT
  5
41
  8
0
 62
     7
 10
54.78670000000001
 20
227.03937250000001
 30
0.0
 40
3.0923400000000001
  1
80
 50
90.0
 41
0.5
 72
     1
 11
54.78670000000001
 21
228.1989999999999
 31
0.0
  0
TEXT
  5
42
  8
0
 62
     7
 10
89.974900000000005
 20
227.7393725
 30
0.0
 40
3.0923400000000001
  1
70
 50
90.0
 41
0.5
 72
     1
 11
89.974900000000005
 21
228.899
 31
0.0
  0
TEXT
  5
43
  8
0
 62
     7
 10
89.974900000000005
 20
220.6753724999999
 30
0.0
 40
3.0923400000000001
  1
70
 50
90.0
 41
0.5
 72
     1
 11
89.974900000000005
 21
221.83500000000001
 31
0.0
  0
LINE
  5
44
  8
0
 62
     7
 10
159.352
 20
234.851
 30
0.0
 11
157.88599999999991
 21
232.31099999999989
 31
0.0
  0
LINE
  5
45
  8
0
 62
     7
 10
157.88599999999991
 20
232.31099999999989
 30
0.0
 11
156.4199999999999
 21
234.851
 31
0.0
  0
LINE
  5
46
  8
0
 62
     7
 10
156.4199999999999
 20
234.851
 30
0.0
 11
159.352
 21
234.851
 31
0.0
  0
LINE
  5
47
  8
0
 62
     7
 10
80.676599999999993
 20
134.14099999999991
 30
0.0
 11
82.887100000000004
 21
134.733
 31
0.0
  0
LINE
  5
48
  8
0
 62
     7
 10
82.887100000000004
 20
134.733
 30
0.0
 11
80.676599999999993
 21
135.3249999999999
 31
0.0
  0
LINE
  5
49
  8
0
 62
     7
 10
80.676599999999993
 20
135.3249999999999
 30
0.0
 11
80.676599999999993
 21
134.14099999999991
 31
0.0
  0
LINE
  5
4A
  8
0
 62
     7
 10
65.097399999999993
 20
135.31100000000001
 30
0.0
 11
62.887
 21
134.71899999999991
 31
0.0
  0
LINE
  5
4B
  8
0
 62
     7
 10
62.887
 20
134.71899999999991
 30
0.0
 11
65.097399999999993
 21
134.126
 31
0.0
  0
LINE
  5
4C
  8
0
 62
     7
 10
65.097399999999993
 20
134.126
 30
0.0
 11
65.097399999999993
 21
135.31100000000001
 31
0.0
  0
LINE
  5
4D
  8
0
 62
     7
 10
82.887100000000004
 20
134.726
 30
0.0
 11
62.887
 21
134.726
 31
0.0
  0
LINE
  5
4E
  8
0
  6
AIGENLINE001
 62
     7
 10
82.387200000000007
 20
118.58799999999999
 30
0.0
 11
83.387200000000007
 21
118.58799999999999
 31
0.0
  0
LINE
  5
4F
  8
0
  6
AIGENLINE001
 62
     7
 10
82.387200000000007
 20
120.58799999999999
 30
0.0
 11
83.387200000000007
 21
120.58799999999999
 31
0.0
  0
ARC
  5
50
  8
0
  6
AIGENLINE001
 62
     7
 10
83.348528999999985
 20
119.626749
 30
0.0
 40
1.039296999999999
 50
272.13066600000002
 51
357.87921299999999
  0
ARC
  5
51
  8
0
  6
AIGENLINE001
 62
     7
 10
83.348748999999998
 20
119.5500479999999
 30
0.0
 40
1.039069
 50
2.109122999999999
 51
87.880997999999991
  0
ARC
  5
52
  8
0
  6
AIGENLINE001
 62
     7
 10
82.387309999999985
 20
119.5883739999999
 30
0.0
 40
1.000032
 50
90.004935000000003
 51
180.00494499999991
  0
ARC
  5
53
  8
0
  6
AIGENLINE001
 62
     7
 10
82.425632999999976
 20
119.6265189999999
 30
0.0
 40
1.039058
 50
182.10859599999989
 51
267.88156400000003
  0
LINE
  5
54
  8
0
  6
AIGENLINE002
 62
     7
 10
167.43000000000001
 20
119.58799999999999
 30
0.0
 11
175.54400000000001
 21
119.58799999999999
 31
0.0
  0
LINE
  5
55
  8
0
  6
AIGENLINE002
 62
     7
 10
80.275199999999998
 20
119.58799999999999
 30
0.0
 11
85.478700000000003
 21
119.58799999999999
 31
0.0
  0
LINE
  5
56
  8
0
 62
     7
 10
82.887100000000004
 20
135.42500000000001
 30
0.0
 11
82.887100000000004
 21
122.26899999999991
 31
0.0
  0
LINE
  5
57
  8
0
  6
AIGENLINE002
 62
     7
 10
82.887100000000004
 20
121.47499999999989
 30
0.0
 11
82.887100000000004
 21
117.41800000000001
 31
0.0
  0
LINE
  5
58
  8
0
  6
AIGENLINE001
 62
     7
 10
62.387099999999997
 20
118.58799999999999
 30
0.0
 11
63.38709999999999
 21
118.58799999999999
 31
0.0
  0
LINE
  5
59
  8
0
  6
AIGENLINE001
 62
     7
 10
62.387099999999997
 20
120.58799999999999
 30
0.0
 11
63.38709999999999
 21
120.58799999999999
 31
0.0
  0
LINE
  5
5A
  8
0
 62
     7
 10
127.949
 20
127.08799999999999
 30
0.0
 11
170.94900000000001
 21
127.08799999999999
 31
0.0
  0
LINE
  5
5B
  8
0
  6
AIGENLINE001
 62
     7
 10
132.29900000000001
 20
116.9489999999999
 30
0.0
 11
141.69900000000001
 21
116.08799999999989
 31
0.0
  0
LINE
  5
5C
  8
0
  6
AIGENLINE001
 62
     7
 10
130.4499999999999
 20
126.089
 30
0.0
 11
130.4499999999999
 21
118.9429999999999
 31
0.0
  0
ARC
  5
5D
  8
0
  6
AIGENLINE001
 62
     7
 10
132.52139099999991
 20
119.00943599999999
 30
0.0
 40
2.072756
 50
181.8458159999999
 51
263.84211899999991
  0
LINE
  5
5E
  8
0
  6
AIGENLINE001
 62
     7
 10
157.9489999999999
 20
126.089
 30
0.0
 11
157.9489999999999
 21
118.9529999999999
 31
0.0
  0
LINE
  5
5F
  8
0
  6
AIGENLINE001
 62
     7
 10
149.1989999999999
 20
116.08799999999989
 30
0.0
 11
156.089
 21
116.958
 31
0.0
  0
ARC
  5
60
  8
0
  6
AIGENLINE001
 62
     7
 10
155.8765159999999
 20
119.02059799999989
 30
0.0
 40
2.0739109999999989
 50
275.87955099999999
 51
358.13238999999999
  0
ARC
  5
61
  8
0
  6
AIGENLINE001
 62
     7
 10
158.987717
 20
126.0499159999999
 30
0.0
 40
1.0391099999999991
 50
92.129931000000013
 51
177.87003899999999
  0
ARC
  5
62
  8
0
  6
AIGENLINE001
 62
     7
 10
129.41128499999999
 20
126.0498569999999
 30
0.0
 40
1.0391449999999991
 50
2.133124
 51
87.906339000000017
  0
LINE
  5
63
  8
0
  6
AIGENLINE001
 62
     7
 10
157.749
 20
124.38799999999991
 30
0.0
 11
157.749
 21
121.788
 31
0.0
  0
ARC
  5
64
  8
0
  6
AIGENLINE001
 62
     7
 10
157.95668000000001
 20
121.796412
 30
0.0
 40
0.208018
 50
182.22365400000001
 51
267.97360800000001
  0
ARC
  5
65
  8
0
  6
AIGENLINE001
 62
     7
 10
157.95737899999989
 20
124.3799719999999
 30
0.0
 40
0.208716
 50
92.211589000000018
 51
177.78838099999999
  0
LINE
  5
66
  8
0
  6
AIGENLINE002
 62
     7
 10
156.31999999999991
 20
123.089
 30
0.0
 11
159.57299999999989
 21
123.089
 31
0.0
  0
LINE
  5
67
  8
0
  6
AIGENLINE001
 62
     7
 10
143.1989999999999
 20
111.08799999999989
 30
0.0
 11
143.1989999999999
 21
114.58799999999999
 31
0.0
  0
LINE
  5
68
  8
0
  6
AIGENLINE001
 62
     7
 10
143.1989999999999
 20
114.58799999999999
 30
0.0
 11
141.69900000000001
 21
116.08799999999989
 31
0.0
  0
LINE
  5
69
  8
0
  6
AIGENLINE001
 62
     7
 10
147.6989999999999
 20
111.08799999999989
 30
0.0
 11
147.6989999999999
 21
114.58799999999999
 31
0.0
  0
LINE
  5
6A
  8
0
  6
AIGENLINE001
 62
     7
 10
147.6989999999999
 20
114.58799999999999
 30
0.0
 11
149.1989999999999
 21
116.08799999999989
 31
0.0
  0
LINE
  5
6B
  8
0
  6
AIGENLINE001
 62
     7
 10
149.1989999999999
 20
116.08799999999989
 30
0.0
 11
141.69900000000001
 21
116.08799999999989
 31
0.0
  0
LINE
  5
6C
  8
0
  6
AIGENLINE001
 62
     7
 10
149.9489999999999
 20
114.58799999999999
 30
0.0
 11
155.4499999999999
 21
114.58799999999999
 31
0.0
  0
LINE
  5
6D
  8
0
  6
AIGENLINE001
 62
     7
 10
148.9499999999999
 20
111.08799999999989
 30
0.0
 11
148.9499999999999
 21
113.58799999999999
 31
0.0
  0
ARC
  5
6E
  8
0
  6
AIGENLINE001
 62
     7
 10
149.98804799999991
 20
113.5496429999999
 30
0.0
 40
1.0391209999999991
 50
92.130477999999997
 51
177.86949300000001
  0
LINE
  5
6F
  8
0
  6
AIGENLINE001
 62
     7
 10
141.94999999999999
 20
111.08799999999989
 30
0.0
 11
141.94999999999999
 21
113.58799999999999
 31
0.0
  0
LINE
  5
70
  8
0
  6
AIGENLINE001
 62
     7
 10
135.4499999999999
 20
114.58799999999999
 30
0.0
 11
140.9489999999999
 21
114.58799999999999
 31
0.0
  0
ARC
  5
71
  8
0
  6
AIGENLINE001
 62
     7
 10
140.91144099999991
 20
113.549604
 30
0.0
 40
1.0391349999999999
 50
2.1325780000000001
 51
87.906886000000014
  0
LINE
  5
72
  8
0
 62
     7
 10
145.4489999999999
 20
107.73
 30
0.0
 11
145.4489999999999
 21
102.271
 31
0.0
  0
LINE
  5
73
  8
0
  6
AIGENLINE002
 62
     7
 10
145.4489999999999
 20
119.797
 30
0.0
 11
145.4489999999999
 21
108.49799999999991
 31
0.0
  0
LINE
  5
74
  8
0
  6
AIGENLINE002
 62
     7
 10
164.94900000000001
 20
129.84200000000001
 30
0.0
 11
164.94900000000001
 21
124.3959999999999
 31
0.0
  0
LINE
  5
75
  8
0
 62
     7
 10
42.294800000000002
 20
121.79899999999989
 30
0.0
 11
42.887099999999997
 21
119.58799999999999
 31
0.0
  0
LINE
  5
76
  8
0
 62
     7
 10
42.887099999999997
 20
119.58799999999999
 30
0.0
 11
43.479300000000002
 21
121.79899999999989
 31
0.0
  0
LINE
  5
77
  8
0
 62
     7
 10
43.479300000000002
 20
121.79899999999989
 30
0.0
 11
42.294800000000002
 21
121.79899999999989
 31
0.0
  0
LINE
  5
78
  8
0
 62
     7
 10
43.46479999999999
 20
124.8779999999999
 30
0.0
 11
42.872599999999991
 21
127.08799999999999
 31
0.0
  0
LINE
  5
79
  8
0
 62
     7
 10
42.872599999999991
 20
127.08799999999999
 30
0.0
 11
42.2804
 21
124.8779999999999
 31
0.0
  0
LINE
  5
7A
  8
0
 62
     7
 10
42.2804
 20
124.8779999999999
 30
0.0
 11
43.46479999999999
 21
124.8779999999999
 31
0.0
  0
LINE
  5
7B
  8
0
 62
     7
 10
42.879800000000003
 20
119.58799999999999
 30
0.0
 11
42.879800000000003
 21
127.08799999999999
 31
0.0
  0
LINE
  5
7C
  8
0
 62
     7
 10
41.956200000000003
 20
127.08799999999999
 30
0.0
 11
47.0276
 21
127.08799999999999
 31
0.0
  0
LINE
  5
7D
  8
0
 62
     7
 10
42.169800000000002
 20
119.58799999999999
 30
0.0
 11
60.275100000000002
 21
119.58799999999999
 31
0.0
  0
LINE
  5
7E
  8
0
 62
     7
 10
42.169800000000002
 20
127.08799999999999
 30
0.0
 11
42.169800000000002
 21
127.08799999999999
 31
0.0
  0
LINE
  5
7F
  8
0
 62
     7
 10
62.573
 20
127.08799999999999
 30
0.0
 11
62.573
 21
127.08799999999999
 31
0.0
  0
LINE
  5
80
  8
0
 62
     7
 10
132.65899999999991
 20
135.32699999999991
 30
0.0
 11
130.4489999999999
 21
134.73500000000001
 31
0.0
  0
LINE
  5
81
  8
0
 62
     7
 10
130.4489999999999
 20
134.73500000000001
 30
0.0
 11
132.65899999999991
 21
134.143
 31
0.0
  0
LINE
  5
82
  8
0
 62
     7
 10
132.65899999999991
 20
134.143
 30
0.0
 11
132.65899999999991
 21
135.32699999999991
 31
0.0
  0
LINE
  5
83
  8
0
 62
     7
 10
160.15999999999991
 20
135.32699999999991
 30
0.0
 11
157.9489999999999
 21
134.73500000000001
 31
0.0
  0
LINE
  5
84
  8
0
 62
     7
 10
157.9489999999999
 20
134.73500000000001
 30
0.0
 11
160.15999999999991
 21
134.143
 31
0.0
  0
LINE
  5
85
  8
0
 62
     7
 10
160.15999999999991
 20
134.143
 30
0.0
 11
160.15999999999991
 21
135.32699999999991
 31
0.0
  0
LINE
  5
86
  8
0
 62
     7
 10
167.15999999999991
 20
135.32699999999991
 30
0.0
 11
164.94900000000001
 21
134.73500000000001
 31
0.0
  0
LINE
  5
87
  8
0
 62
     7
 10
164.94900000000001
 20
134.73500000000001
 30
0.0
 11
167.15999999999991
 21
134.143
 31
0.0
  0
LINE
  5
88
  8
0
 62
     7
 10
167.15999999999991
 20
134.143
 30
0.0
 11
167.15999999999991
 21
135.32699999999991
 31
0.0
  0
LINE
  5
89
  8
0
 62
     7
 10
124.7389999999999
 20
134.15700000000001
 30
0.0
 11
126.949
 21
134.749
 31
0.0
  0
LINE
  5
8A
  8
0
 62
     7
 10
126.949
 20
134.749
 30
0.0
 11
124.7389999999999
 21
135.34100000000001
 31
0.0
  0
LINE
  5
8B
  8
0
 62
     7
 10
124.7389999999999
 20
135.34100000000001
 30
0.0
 11
124.7389999999999
 21
134.15700000000001
 31
0.0
  0
LINE
  5
8C
  8
0
 62
     7
 10
155.739
 20
134.15700000000001
 30
0.0
 11
157.9489999999999
 21
134.749
 31
0.0
  0
LINE
  5
8D
  8
0
 62
     7
 10
157.9489999999999
 20
134.749
 30
0.0
 11
155.739
 21
135.34100000000001
 31
0.0
  0
LINE
  5
8E
  8
0
 62
     7
 10
155.739
 20
135.34100000000001
 30
0.0
 11
155.739
 21
134.15700000000001
 31
0.0
  0
LINE
  5
8F
  8
0
 62
     7
 10
162.739
 20
134.15700000000001
 30
0.0
 11
164.94900000000001
 21
134.749
 31
0.0
  0
LINE
  5
90
  8
0
 62
     7
 10
164.94900000000001
 20
134.749
 30
0.0
 11
162.739
 21
135.34100000000001
 31
0.0
  0
LINE
  5
91
  8
0
 62
     7
 10
162.739
 20
135.34100000000001
 30
0.0
 11
162.739
 21
134.15700000000001
 31
0.0
  0
LINE
  5
92
  8
0
 62
     7
 10
169.739
 20
134.15700000000001
 30
0.0
 11
171.94999999999999
 21
134.749
 31
0.0
  0
LINE
  5
93
  8
0
 62
     7
 10
171.94999999999999
 20
134.749
 30
0.0
 11
169.739
 21
135.34100000000001
 31
0.0
  0
LINE
  5
94
  8
0
 62
     7
 10
169.739
 20
135.34100000000001
 30
0.0
 11
169.739
 21
134.15700000000001
 31
0.0
  0
LINE
  5
95
  8
0
 62
     7
 10
123.107
 20
134.74199999999999
 30
0.0
 11
171.94999999999999
 21
134.74199999999999
 31
0.0
  0
LINE
  5
96
  8
0
 62
     7
 10
126.949
 20
135.45199999999991
 30
0.0
 11
126.949
 21
127.901
 31
0.0
  0
LINE
  5
97
  8
0
 62
     7
 10
130.4489999999999
 20
135.45199999999991
 30
0.0
 11
130.4489999999999
 21
127.901
 31
0.0
  0
LINE
  5
98
  8
0
 62
     7
 10
157.9489999999999
 20
135.45199999999991
 30
0.0
 11
157.9489999999999
 21
127.901
 31
0.0
  0
LINE
  5
99
  8
0
 62
     7
 10
164.94900000000001
 20
135.45199999999991
 30
0.0
 11
164.94900000000001
 21
130.36600000000001
 31
0.0
  0
LINE
  5
9A
  8
0
 62
     7
 10
171.94999999999999
 20
135.45199999999991
 30
0.0
 11
171.94999999999999
 21
128.0679999999999
 31
0.0
  0
LINE
  5
9B
  8
0
 62
     7
 10
147.65999999999991
 20
103.637
 30
0.0
 11
145.4489999999999
 21
103.045
 31
0.0
  0
LINE
  5
9C
  8
0
 62
     7
 10
145.4489999999999
 20
103.045
 30
0.0
 11
147.65999999999991
 21
102.4529999999999
 31
0.0
  0
LINE
  5
9D
  8
0
 62
     7
 10
147.65999999999991
 20
102.4529999999999
 30
0.0
 11
147.65999999999991
 21
103.637
 31
0.0
  0
LINE
  5
9E
  8
0
 62
     7
 10
169.739
 20
102.467
 30
0.0
 11
171.94999999999999
 21
103.0589999999999
 31
0.0
  0
LINE
  5
9F
  8
0
 62
     7
 10
171.94999999999999
 20
103.0589999999999
 30
0.0
 11
169.739
 21
103.652
 31
0.0
  0
LINE
  5
A0
  8
0
 62
     7
 10
169.739
 20
103.652
 30
0.0
 11
169.739
 21
102.467
 31
0.0
  0
LINE
  5
A1
  8
0
 62
     7
 10
145.4489999999999
 20
103.05200000000001
 30
0.0
 11
171.94999999999999
 21
103.05200000000001
 31
0.0
  0
LINE
  5
A2
  8
0
 62
     7
 10
171.94999999999999
 20
110.087
 30
0.0
 11
171.94999999999999
 21
102.271
 31
0.0
  0
LINE
  5
A3
  8
0
 62
     7
 10
126.949
 20
126.089
 30
0.0
 11
126.949
 21
111.58799999999989
 31
0.0
  0
LINE
  5
A4
  8
0
 62
     7
 10
171.94999999999999
 20
126.089
 30
0.0
 11
171.94999999999999
 21
111.58799999999989
 31
0.0
  0
LINE
  5
A5
  8
0
 62
     7
 10
127.4499999999999
 20
111.08799999999989
 30
0.0
 11
171.44900000000001
 21
111.08799999999989
 31
0.0
  0
ARC
  5
A6
  8
0
 62
     7
 10
171.44936100000001
 20
111.588382
 30
0.0
 40
0.5002310000000002
 50
270.00002000000001
 51
359.99998999999991
  0
ARC
  5
A7
  8
0
 62
     7
 10
127.449702
 20
111.588382
 30
0.0
 40
0.5002310000000002
 50
179.99996999999991
 51
270.00002000000001
  0
ARC
  5
A8
  8
0
 62
     7
 10
170.91116700000001
 20
126.0498569999999
 30
0.0
 40
1.0391449999999991
 50
2.133124
 51
87.906339000000017
  0
ARC
  5
A9
  8
0
 62
     7
 10
127.98787299999989
 20
126.04990599999999
 30
0.0
 40
1.0391209999999991
 50
92.130477999999997
 51
177.86949300000001
  0
LINE
  5
AA
  8
0
 62
     7
 10
144.785
 20
124.8779999999999
 30
0.0
 11
144.1929999999999
 21
127.08799999999999
 31
0.0
  0
LINE
  5
AB
  8
0
 62
     7
 10
144.1929999999999
 20
127.08799999999999
 30
0.0
 11
143.601
 21
124.8779999999999
 31
0.0
  0
LINE
  5
AC
  8
0
 62
     7
 10
143.601
 20
124.8779999999999
 30
0.0
 11
144.785
 21
124.8779999999999
 31
0.0
  0
LINE
  5
AD
  8
0
 62
     7
 10
143.61500000000001
 20
118.29899999999989
 30
0.0
 11
144.20699999999999
 21
116.08799999999989
 31
0.0
  0
LINE
  5
AE
  8
0
 62
     7
 10
144.20699999999999
 20
116.08799999999989
 30
0.0
 11
144.80000000000001
 21
118.29899999999989
 31
0.0
  0
LINE
  5
AF
  8
0
 62
     7
 10
144.80000000000001
 20
118.29899999999989
 30
0.0
 11
143.61500000000001
 21
118.29899999999989
 31
0.0
  0
LINE
  5
B0
  8
0
 62
     7
 10
144.1999999999999
 20
127.08799999999999
 30
0.0
 11
144.1999999999999
 21
116.08799999999989
 31
0.0
  0
LINE
  5
B1
  8
0
 62
     7
 10
106.9829999999999
 20
124.8779999999999
 30
0.0
 11
106.39100000000001
 21
127.08799999999999
 31
0.0
  0
LINE
  5
B2
  8
0
 62
     7
 10
106.39100000000001
 20
127.08799999999999
 30
0.0
 11
105.79899999999989
 21
124.8779999999999
 31
0.0
  0
LINE
  5
B3
  8
0
 62
     7
 10
105.79899999999989
 20
124.8779999999999
 30
0.0
 11
106.9829999999999
 21
124.8779999999999
 31
0.0
  0
LINE
  5
B4
  8
0
 62
     7
 10
105.8129999999999
 20
113.29899999999989
 30
0.0
 11
106.4049999999999
 21
111.08799999999989
 31
0.0
  0
LINE
  5
B5
  8
0
 62
     7
 10
106.4049999999999
 20
111.08799999999989
 30
0.0
 11
106.997
 21
113.29899999999989
 31
0.0
  0
LINE
  5
B6
  8
0
 62
     7
 10
106.997
 20
113.29899999999989
 30
0.0
 11
105.8129999999999
 21
113.29899999999989
 31
0.0
  0
LINE
  5
B7
  8
0
 62
     7
 10
106.3979999999999
 20
127.08799999999999
 30
0.0
 11
106.3979999999999
 21
111.08799999999989
 31
0.0
  0
LINE
  5
B8
  8
0
 62
     7
 10
107.108
 20
111.08799999999989
 30
0.0
 11
99.093500000000006
 21
111.08799999999989
 31
0.0
  0
LINE
  5
B9
  8
0
 62
     7
 10
107.108
 20
127.08799999999999
 30
0.0
 11
98.988000000000014
 21
127.08799999999999
 31
0.0
  0
LINE
  5
BA
  8
0
  6
AIGENLINE001
 62
     7
 10
77.387200000000007
 20
114.58799999999999
 30
0.0
 11
82.887299999999996
 21
114.58799999999999
 31
0.0
  0
LINE
  5
BB
  8
0
  6
AIGENLINE001
 62
     7
 10
76.387200000000007
 20
111.08799999999989
 30
0.0
 11
76.387200000000007
 21
113.58799999999999
 31
0.0
  0
ARC
  5
BC
  8
0
  6
AIGENLINE001
 62
     7
 10
77.425772999999992
 20
113.54947300000001
 30
0.0
 40
1.03929
 50
92.12960099999998
 51
177.86049800000001
  0
LINE
  5
BD
  8
0
  6
AIGENLINE001
 62
     7
 10
69.387200000000007
 20
111.08799999999989
 30
0.0
 11
69.387200000000007
 21
113.58799999999999
 31
0.0
  0
LINE
  5
BE
  8
0
  6
AIGENLINE001
 62
     7
 10
62.8872
 20
114.58799999999999
 30
0.0
 11
68.387100000000004
 21
114.58799999999999
 31
0.0
  0
ARC
  5
BF
  8
0
  6
AIGENLINE001
 62
     7
 10
68.349233999999996
 20
113.5500199999999
 30
0.0
 40
1.0387159999999991
 50
2.1104620000000001
 51
87.909268000000012
  0
ARC
  5
C0
  8
0
  6
AIGENLINE001
 62
     7
 10
72.849236000000005
 20
123.05026599999989
 30
0.0
 40
1.0387269999999991
 50
2.110990999999999
 51
87.908738999999997
  0
ARC
  5
C1
  8
0
  6
AIGENLINE001
 62
     7
 10
72.925759999999997
 20
123.0497289999999
 30
0.0
 40
1.03929
 50
92.12960099999998
 51
177.86049800000001
  0
ARC
  5
C2
  8
0
  6
AIGENLINE001
 62
     7
 10
72.887398000000005
 20
123.088269
 30
0.0
 40
1.0002040000000001
 50
179.9851689999999
 51
269.98521899999992
  0
ARC
  5
C3
  8
0
  6
AIGENLINE001
 62
     7
 10
72.88696800000001
 20
123.088356
 30
0.0
 40
1.000289999999999
 50
270.00988699999999
 51
0.009857
  0
ARC
  5
C4
  8
0
  6
AIGENLINE001
 62
     7
 10
63.348418000000002
 20
119.626749
 30
0.0
 40
1.039296999999999
 50
272.13066600000002
 51
357.87921299999999
  0
ARC
  5
C5
  8
0
  6
AIGENLINE001
 62
     7
 10
63.348638000000001
 20
119.5500479999999
 30
0.0
 40
1.039069
 50
2.109122999999999
 51
87.880997999999991
  0
ARC
  5
C6
  8
0
  6
AIGENLINE001
 62
     7
 10
62.387197999999998
 20
119.5883739999999
 30
0.0
 40
1.000032
 50
90.004935000000003
 51
180.00494499999991
  0
ARC
  5
C7
  8
0
  6
AIGENLINE001
 62
     7
 10
62.425521000000003
 20
119.6265189999999
 30
0.0
 40
1.039058
 50
182.10859599999989
 51
267.88156400000003
  0
ARC
  5
C8
  8
0
  6
AIGENLINE001
 62
     7
 10
72.829571999999999
 20
123.03095999999999
 30
0.0
 40
1.5586349999999991
 50
2.1166839999999998
 51
87.883306000000005
  0
ARC
  5
C9
  8
0
  6
AIGENLINE001
 62
     7
 10
72.944310000000002
 20
123.031358
 30
0.0
 40
1.558222999999999
 50
92.102606000000009
 51
177.89736499999989
  0
ARC
  5
CA
  8
0
  6
AIGENLINE001
 62
     7
 10
72.944687000000002
 20
123.1460749999999
 30
0.0
 40
1.5586139999999991
 50
182.11597299999991
 51
267.88405599999987
  0
ARC
  5
CB
  8
0
  6
AIGENLINE001
 62
     7
 10
72.829973999999993
 20
123.14569299999999
 30
0.0
 40
1.558219
 50
272.10246799999999
 51
357.89754199999987
  0
LINE
  5
CC
  8
0
  6
AIGENLINE002
 62
     7
 10
75.969499999999996
 20
123.089
 30
0.0
 11
69.819299999999998
 21
123.089
 31
0.0
  0
LINE
  5
CD
  8
0
 62
     7
 10
97.88730000000001
 20
126.089
 30
0.0
 11
97.88730000000001
 21
111.58799999999989
 31
0.0
  0
LINE
  5
CE
  8
0
 62
     7
 10
48.387
 20
111.08799999999989
 30
0.0
 11
97.387299999999996
 21
111.08799999999989
 31
0.0
  0
ARC
  5
CF
  8
0
 62
     7
 10
97.387178000000006
 20
111.5882959999999
 30
0.0
 40
0.500145
 50
270.00988699999999
 51
0.009857
  0
LINE
  5
D0
  8
0
 62
     7
 10
47.887099999999997
 20
126.089
 30
0.0
 11
47.887099999999997
 21
111.58799999999989
 31
0.0
  0
ARC
  5
D1
  8
0
 62
     7
 10
48.406669999999991
 20
111.607677
 30
0.0
 40
0.519898
 50
182.12700299999989
 51
267.83355299999999
  0
LINE
  5
D2
  8
0
  6
AIGENLINE002
 62
     7
 10
60.275100000000002
 20
119.58799999999999
 30
0.0
 11
65.4786
 21
119.58799999999999
 31
0.0
  0
LINE
  5
D3
  8
0
 62
     7
 10
48.88709999999999
 20
127.08799999999999
 30
0.0
 11
96.887400000000014
 21
127.08799999999999
 31
0.0
  0
ARC
  5
D4
  8
0
 62
     7
 10
96.848914000000008
 20
126.0498939999999
 30
0.0
 40
1.0391269999999999
 50
2.131146999999999
 51
87.878714000000002
  0
ARC
  5
D5
  8
0
 62
     7
 10
48.925694999999997
 20
126.04973699999999
 30
0.0
 40
1.03929
 50
92.12960099999998
 51
177.86049800000001
  0
LINE
  5
D6
  8
0
 62
     7
 10
62.887
 20
135.42500000000001
 30
0.0
 11
62.887
 21
122.26899999999991
 31
0.0
  0
LINE
  5
D7
  8
0
  6
AIGENLINE002
 62
     7
 10
62.887
 20
121.47499999999989
 30
0.0
 11
62.887
 21
117.41800000000001
 31
0.0
  0
LINE
  5
D8
  8
0
  6
AIGENLINE002
 62
     7
 10
72.887100000000004
 20
129.08500000000001
 30
0.0
 11
72.887100000000004
 21
108.19199999999999
 31
0.0
  0
LINE
  5
D9
  8
0
 62
     7
 10
53.5974
 20
178.95099999999991
 30
0.0
 11
51.387
 21
178.35900000000001
 31
0.0
  0
LINE
  5
DA
  8
0
 62
     7
 10
51.387
 20
178.35900000000001
 30
0.0
 11
53.5974
 21
177.767
 31
0.0
  0
LINE
  5
DB
  8
0
 62
     7
 10
53.5974
 20
177.767
 30
0.0
 11
53.5974
 21
178.95099999999991
 31
0.0
  0
LINE
  5
DC
  8
0
 62
     7
 10
92.176900000000003
 20
177.78099999999989
 30
0.0
 11
94.387400000000014
 21
178.374
 31
0.0
  0
LINE
  5
DD
  8
0
 62
     7
 10
94.387400000000014
 20
178.374
 30
0.0
 11
92.176900000000003
 21
178.96599999999989
 31
0.0
  0
LINE
  5
DE
  8
0
 62
     7
 10
92.176900000000003
 20
178.96599999999989
 30
0.0
 11
92.176900000000003
 21
177.78099999999989
 31
0.0
  0
LINE
  5
DF
  8
0
 62
     7
 10
51.387
 20
178.3659999999999
 30
0.0
 11
94.387400000000014
 21
178.3659999999999
 31
0.0
  0
LINE
  5
E0
  8
0
 62
     7
 10
164.524
 20
187.77299999999991
 30
0.0
 11
166.73400000000001
 21
188.36500000000001
 31
0.0
  0
LINE
  5
E1
  8
0
 62
     7
 10
166.73400000000001
 20
188.36500000000001
 30
0.0
 11
164.524
 21
188.95699999999991
 31
0.0
  0
LINE
  5
E2
  8
0
 62
     7
 10
164.524
 20
188.95699999999991
 30
0.0
 11
164.524
 21
187.77299999999991
 31
0.0
  0
LINE
  5
E3
  8
0
 62
     7
 10
134.9439999999999
 20
188.9429999999999
 30
0.0
 11
132.73400000000001
 21
188.351
 31
0.0
  0
LINE
  5
E4
  8
0
 62
     7
 10
132.73400000000001
 20
188.351
 30
0.0
 11
134.9439999999999
 21
187.7579999999999
 31
0.0
  0
LINE
  5
E5
  8
0
 62
     7
 10
134.9439999999999
 20
187.7579999999999
 30
0.0
 11
134.9439999999999
 21
188.9429999999999
 31
0.0
  0
LINE
  5
E6
  8
0
 62
     7
 10
162.209
 20
178.1699999999999
 30
0.0
 11
137.226
 21
178.1699999999999
 31
0.0
  0
LINE
  5
E7
  8
0
 62
     7
 10
166.73400000000001
 20
188.358
 30
0.0
 11
132.73400000000001
 21
188.358
 31
0.0
  0
LINE
  5
E8
  8
0
 62
     7
 10
166.73400000000001
 20
187.57699999999991
 30
0.0
 11
166.73400000000001
 21
197.25399999999999
 31
0.0
  0
LINE
  5
E9
  8
0
 62
     7
 10
132.73400000000001
 20
187.57699999999991
 30
0.0
 11
132.73400000000001
 21
197.25399999999999
 31
0.0
  0
LINE
  5
EA
  8
0
 62
     7
 10
95.676800000000014
 20
169.66800000000001
 30
0.0
 11
97.88730000000001
 21
170.25999999999991
 31
0.0
  0
LINE
  5
EB
  8
0
 62
     7
 10
97.88730000000001
 20
170.25999999999991
 30
0.0
 11
95.676800000000014
 21
170.852
 31
0.0
  0
LINE
  5
EC
  8
0
 62
     7
 10
95.676800000000014
 20
170.852
 30
0.0
 11
95.676800000000014
 21
169.66800000000001
 31
0.0
  0
LINE
  5
ED
  8
0
 62
     7
 10
50.097499999999997
 20
170.83799999999999
 30
0.0
 11
47.887099999999997
 21
170.2459999999999
 31
0.0
  0
LINE
  5
EE
  8
0
 62
     7
 10
47.887099999999997
 20
170.2459999999999
 30
0.0
 11
50.097499999999997
 21
169.65299999999991
 31
0.0
  0
LINE
  5
EF
  8
0
 62
     7
 10
50.097499999999997
 20
169.65299999999991
 30
0.0
 11
50.097499999999997
 21
170.83799999999999
 31
0.0
  0
LINE
  5
F0
  8
0
 62
     7
 10
97.88730000000001
 20
170.2529999999999
 30
0.0
 11
47.887099999999997
 21
170.2529999999999
 31
0.0
  0
LINE
  5
F1
  8
0
 62
     7
 10
97.88730000000001
 20
169.47200000000001
 30
0.0
 11
97.88730000000001
 21
186.166
 31
0.0
  0
LINE
  5
F2
  8
0
 62
     7
 10
94.387400000000014
 20
177.58500000000001
 30
0.0
 11
94.387400000000014
 21
189.953
 31
0.0
  0
LINE
  5
F3
  8
0
 62
     7
 10
47.887099999999997
 20
169.47200000000001
 30
0.0
 11
47.887099999999997
 21
186.166
 31
0.0
  0
LINE
  5
F4
  8
0
 62
     7
 10
51.387
 20
177.58500000000001
 30
0.0
 11
51.387
 21
189.953
 31
0.0
  0
LINE
  5
F5
  8
0
 62
     7
 10
126.113
 20
226.09999999999999
 30
0.0
 11
125.5209999999999
 21
228.31099999999989
 31
0.0
  0
LINE
  5
F6
  8
0
 62
     7
 10
125.5209999999999
 20
228.31099999999989
 30
0.0
 11
124.9279999999999
 21
226.09999999999999
 31
0.0
  0
LINE
  5
F7
  8
0
 62
     7
 10
124.9279999999999
 20
226.09999999999999
 30
0.0
 11
126.113
 21
226.09999999999999
 31
0.0
  0
LINE
  5
F8
  8
0
 62
     7
 10
124.93600000000001
 20
234.52199999999999
 30
0.0
 11
125.52799999999991
 21
232.31099999999989
 31
0.0
  0
LINE
  5
F9
  8
0
 62
     7
 10
125.52799999999991
 20
232.31099999999989
 30
0.0
 11
126.121
 21
234.52199999999999
 31
0.0
  0
LINE
  5
FA
  8
0
 62
     7
 10
126.121
 20
234.52199999999999
 30
0.0
 11
124.93600000000001
 21
234.52199999999999
 31
0.0
  0
LINE
  5
FB
  8
0
 62
     7
 10
124.943
 20
200.52199999999999
 30
0.0
 11
125.5349999999999
 21
198.31099999999989
 31
0.0
  0
LINE
  5
FC
  8
0
 62
     7
 10
125.5349999999999
 20
198.31099999999989
 30
0.0
 11
126.1279999999999
 21
200.52199999999999
 31
0.0
  0
LINE
  5
FD
  8
0
 62
     7
 10
126.1279999999999
 20
200.52199999999999
 30
0.0
 11
124.943
 21
200.52199999999999
 31
0.0
  0
LINE
  5
FE
  8
0
 62
     7
 10
125.52799999999991
 20
238.53699999999989
 30
0.0
 11
125.52799999999991
 21
198.31099999999989
 31
0.0
  0
LINE
  5
FF
  8
0
 62
     7
 10
131.983
 20
198.31099999999989
 30
0.0
 11
124.818
 21
198.31099999999989
 31
0.0
  0
LINE
  5
100
  8
0
 62
     7
 10
128.405
 20
232.31099999999989
 30
0.0
 11
124.818
 21
232.31099999999989
 31
0.0
  0
LINE
  5
101
  8
0
 62
     7
 10
145.208
 20
221.9199999999999
 30
0.0
 11
139.25
 21
221.9199999999999
 31
0.0
  0
LINE
  5
102
  8
0
 62
     7
 10
134.20599999999999
 20
226.12700000000001
 30
0.0
 11
133.06100000000001
 21
228.10900000000001
 31
0.0
  0
LINE
  5
103
  8
0
 62
     7
 10
133.06100000000001
 20
228.10900000000001
 30
0.0
 11
135.04300000000001
 21
226.964
 31
0.0
  0
LINE
  5
104
  8
0
 62
     7
 10
135.04300000000001
 20
226.964
 30
0.0
 11
134.20599999999999
 21
226.12700000000001
 31
0.0
  0
LINE
  5
105
  8
0
 62
     7
 10
139.25
 20
221.9199999999999
 30
0.0
 11
133.06100000000001
 21
228.10900000000001
 31
0.0
  0
LINE
  5
106
  8
0
 62
     7
 10
143.178
 20
202.73400000000001
 30
0.0
 11
137.221
 21
202.73400000000001
 31
0.0
  0
LINE
  5
107
  8
0
 62
     7
 10
131.983
 20
228.31099999999989
 30
0.0
 11
124.818
 21
228.31099999999989
 31
0.0
  0
LINE
  5
108
  8
0
 62
     7
 10
40.754199999999997
 20
230.09999999999999
 30
0.0
 11
40.161999999999999
 21
232.31099999999989
 31
0.0
  0
LINE
  5
109
  8
0
 62
     7
 10
40.161999999999999
 20
232.31099999999989
 30
0.0
 11
39.569600000000001
 21
230.09999999999999
 31
0.0
  0
LINE
  5
10A
  8
0
 62
     7
 10
39.569600000000001
 20
230.09999999999999
 30
0.0
 11
40.754199999999997
 21
230.09999999999999
 31
0.0
  0
LINE
  5
10B
  8
0
 62
     7
 10
39.584200000000003
 20
208.02199999999999
 30
0.0
 11
40.176400000000001
 21
205.81099999999989
 31
0.0
  0
LINE
  5
10C
  8
0
 62
     7
 10
40.176400000000001
 20
205.81099999999989
 30
0.0
 11
40.768799999999999
 21
208.02199999999999
 31
0.0
  0
LINE
  5
10D
  8
0
 62
     7
 10
40.768799999999999
 20
208.02199999999999
 30
0.0
 11
39.584200000000003
 21
208.02199999999999
 31
0.0
  0
LINE
  5
10E
  8
0
 62
     7
 10
40.169199999999989
 20
232.31099999999989
 30
0.0
 11
40.169199999999989
 21
205.81099999999989
 31
0.0
  0
LINE
  5
10F
  8
0
 62
     7
 10
65.821700000000007
 20
205.81099999999989
 30
0.0
 11
39.459200000000003
 21
205.81099999999989
 31
0.0
  0
LINE
  5
110
  8
0
 62
     7
 10
46.624099999999999
 20
232.31099999999989
 30
0.0
 11
39.459200000000003
 21
232.31099999999989
 31
0.0
  0
LINE
  5
111
  8
0
 62
     7
 10
106.65000000000001
 20
216.09999999999999
 30
0.0
 11
106.0589999999999
 21
218.31099999999989
 31
0.0
  0
LINE
  5
112
  8
0
 62
     7
 10
106.0589999999999
 20
218.31099999999989
 30
0.0
 11
105.46599999999999
 21
216.09999999999999
 31
0.0
  0
LINE
  5
113
  8
0
 62
     7
 10
105.46599999999999
 20
216.09999999999999
 30
0.0
 11
106.65000000000001
 21
216.09999999999999
 31
0.0
  0
LINE
  5
114
  8
0
 62
     7
 10
106.65000000000001
 20
230.09999999999999
 30
0.0
 11
106.0589999999999
 21
232.31099999999989
 31
0.0
  0
LINE
  5
115
  8
0
 62
     7
 10
106.0589999999999
 20
232.31099999999989
 30
0.0
 11
105.46599999999999
 21
230.09999999999999
 31
0.0
  0
LINE
  5
116
  8
0
 62
     7
 10
105.46599999999999
 20
230.09999999999999
 30
0.0
 11
106.65000000000001
 21
230.09999999999999
 31
0.0
  0
LINE
  5
117
  8
0
 62
     7
 10
105.48099999999999
 20
220.52099999999999
 30
0.0
 11
106.07299999999989
 21
218.31099999999989
 31
0.0
  0
LINE
  5
118
  8
0
 62
     7
 10
106.07299999999989
 20
218.31099999999989
 30
0.0
 11
106.66500000000001
 21
220.52099999999999
 31
0.0
  0
LINE
  5
119
  8
0
 62
     7
 10
106.66500000000001
 20
220.52099999999999
 30
0.0
 11
105.48099999999999
 21
220.52099999999999
 31
0.0
  0
LINE
  5
11A
  8
0
 62
     7
 10
105.48099999999999
 20
193.0209999999999
 30
0.0
 11
106.07299999999989
 21
190.81099999999989
 31
0.0
  0
LINE
  5
11B
  8
0
 62
     7
 10
106.07299999999989
 20
190.81099999999989
 30
0.0
 11
106.66500000000001
 21
193.0209999999999
 31
0.0
  0
LINE
  5
11C
  8
0
 62
     7
 10
106.66500000000001
 20
193.0209999999999
 30
0.0
 11
105.48099999999999
 21
193.0209999999999
 31
0.0
  0
LINE
  5
11D
  8
0
 62
     7
 10
106.0659999999999
 20
232.31099999999989
 30
0.0
 11
106.0659999999999
 21
190.81099999999989
 31
0.0
  0
LINE
  5
11E
  8
0
 62
     7
 10
174.535
 20
208.02199999999999
 30
0.0
 11
175.12700000000001
 21
205.81099999999989
 31
0.0
  0
LINE
  5
11F
  8
0
 62
     7
 10
175.12700000000001
 20
205.81099999999989
 30
0.0
 11
175.72
 21
208.02199999999999
 31
0.0
  0
LINE
  5
120
  8
0
 62
     7
 10
175.72
 20
208.02199999999999
 30
0.0
 11
174.535
 21
208.02199999999999
 31
0.0
  0
LINE
  5
121
  8
0
 62
     7
 10
175.70500000000001
 20
230.09999999999999
 30
0.0
 11
175.113
 21
232.31099999999989
 31
0.0
  0
LINE
  5
122
  8
0
 62
     7
 10
175.113
 20
232.31099999999989
 30
0.0
 11
174.5209999999999
 21
230.09999999999999
 31
0.0
  0
LINE
  5
123
  8
0
 62
     7
 10
174.5209999999999
 20
230.09999999999999
 30
0.0
 11
175.70500000000001
 21
230.09999999999999
 31
0.0
  0
LINE
  5
124
  8
0
 62
     7
 10
175.12
 20
205.81099999999989
 30
0.0
 11
175.12
 21
232.31099999999989
 31
0.0
  0
LINE
  5
125
  8
0
 62
     7
 10
175.83000000000001
 20
205.81099999999989
 30
0.0
 11
155.06399999999999
 21
205.81099999999989
 31
0.0
  0
LINE
  5
126
  8
0
 62
     7
 10
175.83000000000001
 20
232.31099999999989
 30
0.0
 11
170.934
 21
232.31099999999989
 31
0.0
  0
LINE
  5
127
  8
0
 62
     7
 10
112.5179999999999
 20
189.5209999999999
 30
0.0
 11
113.1099999999999
 21
187.31099999999989
 31
0.0
  0
LINE
  5
128
  8
0
 62
     7
 10
113.1099999999999
 20
187.31099999999989
 30
0.0
 11
113.702
 21
189.5209999999999
 31
0.0
  0
LINE
  5
129
  8
0
 62
     7
 10
113.702
 20
189.5209999999999
 30
0.0
 11
112.5179999999999
 21
189.5209999999999
 31
0.0
  0
LINE
  5
12A
  8
0
 62
     7
 10
113.6879999999999
 20
230.09999999999999
 30
0.0
 11
113.095
 21
232.31099999999989
 31
0.0
  0
LINE
  5
12B
  8
0
 62
     7
 10
113.095
 20
232.31099999999989
 30
0.0
 11
112.5029999999999
 21
230.09999999999999
 31
0.0
  0
LINE
  5
12C
  8
0
 62
     7
 10
112.5029999999999
 20
230.09999999999999
 30
0.0
 11
113.6879999999999
 21
230.09999999999999
 31
0.0
  0
LINE
  5
12D
  8
0
 62
     7
 10
113.10299999999989
 20
187.31099999999989
 30
0.0
 11
113.10299999999989
 21
232.31099999999989
 31
0.0
  0
LINE
  5
12E
  8
0
 62
     7
 10
113.8129999999999
 20
187.31099999999989
 30
0.0
 11
99.263599999999997
 21
187.31099999999989
 31
0.0
  0
LINE
  5
12F
  8
0
 62
     7
 10
106.776
 20
190.81099999999989
 30
0.0
 11
95.365499999999997
 21
190.81099999999989
 31
0.0
  0
LINE
  5
130
  8
0
 62
     7
 10
113.8129999999999
 20
232.31099999999989
 30
0.0
 11
99.263599999999997
 21
232.31099999999989
 31
0.0
  0
LINE
  5
131
  8
0
 62
     7
 10
106.776
 20
218.31099999999989
 30
0.0
 11
95.365499999999997
 21
218.31099999999989
 31
0.0
  0
LINE
  5
132
  8
0
 62
     7
 10
57.5839
 20
197.59899999999999
 30
0.0
 11
64.675399999999996
 21
197.59899999999999
 31
0.0
  0
LINE
  5
133
  8
0
 62
     7
 10
70.151899999999998
 20
202.238
 30
0.0
 11
71.296199999999999
 21
204.22
 31
0.0
  0
LINE
  5
134
  8
0
 62
     7
 10
71.296199999999999
 20
204.22
 30
0.0
 11
69.3142
 21
203.07599999999991
 31
0.0
  0
LINE
  5
135
  8
0
 62
     7
 10
69.3142
 20
203.07599999999991
 30
0.0
 11
70.151899999999998
 21
202.238
 31
0.0
  0
LINE
  5
136
  8
0
 62
     7
 10
134.20599999999999
 20
200.55600000000001
 30
0.0
 11
133.06100000000001
 21
198.57400000000001
 31
0.0
  0
LINE
  5
137
  8
0
 62
     7
 10
133.06100000000001
 20
198.57400000000001
 30
0.0
 11
135.04300000000001
 21
199.71899999999999
 31
0.0
  0
LINE
  5
138
  8
0
 62
     7
 10
135.04300000000001
 20
199.71899999999999
 30
0.0
 11
134.20599999999999
 21
200.55600000000001
 31
0.0
  0
LINE
  5
139
  8
0
 62
     7
 10
137.221
 20
202.73400000000001
 30
0.0
 11
133.06100000000001
 21
198.57400000000001
 31
0.0
  0
LINE
  5
13A
  8
0
 62
     7
 10
75.627200000000002
 20
209.3779999999999
 30
0.0
 11
74.482900000000001
 21
207.39599999999999
 31
0.0
  0
LINE
  5
13B
  8
0
 62
     7
 10
74.482900000000001
 20
207.39599999999999
 30
0.0
 11
76.4649
 21
208.54099999999991
 31
0.0
  0
LINE
  5
13C
  8
0
 62
     7
 10
76.4649
 20
208.54099999999991
 30
0.0
 11
75.627200000000002
 21
209.3779999999999
 31
0.0
  0
LINE
  5
13D
  8
0
 62
     7
 10
79.050299999999993
 20
211.97399999999999
 30
0.0
 11
64.675399999999996
 21
197.59899999999999
 31
0.0
  0
LINE
  5
13E
  8
0
 62
     7
 10
69.422899999999984
 20
211.465
 30
0.0
 11
59.041400000000003
 21
211.465
 31
0.0
  0
LINE
  5
13F
  8
0
 62
     7
 10
72.887100000000004
 20
241.18299999999999
 30
0.0
 11
72.887100000000004
 21
235.63499999999991
 31
0.0
  0
LINE
  5
140
  8
0
 62
     7
 10
70.676599999999993
 20
239.88800000000001
 30
0.0
 11
72.887100000000004
 21
240.4799999999999
 31
0.0
  0
LINE
  5
141
  8
0
 62
     7
 10
72.887100000000004
 20
240.4799999999999
 30
0.0
 11
70.676599999999993
 21
241.07300000000001
 31
0.0
  0
LINE
  5
142
  8
0
 62
     7
 10
70.676599999999993
 20
241.07300000000001
 30
0.0
 11
70.676599999999993
 21
239.88800000000001
 31
0.0
  0
LINE
  5
143
  8
0
 62
     7
 10
80.676699999999997
 20
239.88800000000001
 30
0.0
 11
82.887299999999996
 21
240.4799999999999
 31
0.0
  0
LINE
  5
144
  8
0
 62
     7
 10
82.887299999999996
 20
240.4799999999999
 30
0.0
 11
80.676699999999997
 21
241.07300000000001
 31
0.0
  0
LINE
  5
145
  8
0
 62
     7
 10
80.676699999999997
 20
241.07300000000001
 30
0.0
 11
80.676699999999997
 21
239.88800000000001
 31
0.0
  0
LINE
  5
146
  8
0
 62
     7
 10
75.097499999999997
 20
241.05799999999991
 30
0.0
 11
72.887100000000004
 21
240.46599999999989
 31
0.0
  0
LINE
  5
147
  8
0
 62
     7
 10
72.887100000000004
 20
240.46599999999989
 30
0.0
 11
75.097499999999997
 21
239.87299999999999
 31
0.0
  0
LINE
  5
148
  8
0
 62
     7
 10
75.097499999999997
 20
239.87299999999999
 30
0.0
 11
75.097499999999997
 21
241.05799999999991
 31
0.0
  0
LINE
  5
149
  8
0
 62
     7
 10
65.097599999999986
 20
241.05799999999991
 30
0.0
 11
62.8872
 21
240.46599999999989
 31
0.0
  0
LINE
  5
14A
  8
0
 62
     7
 10
62.8872
 20
240.46599999999989
 30
0.0
 11
65.097599999999986
 21
239.87299999999999
 31
0.0
  0
LINE
  5
14B
  8
0
 62
     7
 10
65.097599999999986
 20
239.87299999999999
 30
0.0
 11
65.097599999999986
 21
241.05799999999991
 31
0.0
  0
LINE
  5
14C
  8
0
 62
     7
 10
82.887299999999996
 20
240.4729999999999
 30
0.0
 11
62.8872
 21
240.4729999999999
 31
0.0
  0
LINE
  5
14D
  8
0
 62
     7
 10
82.887299999999996
 20
241.18299999999999
 30
0.0
 11
82.887299999999996
 21
229.38800000000001
 31
0.0
  0
LINE
  5
14E
  8
0
 62
     7
 10
62.8872
 20
241.18299999999999
 30
0.0
 11
62.8872
 21
229.38800000000001
 31
0.0
  0
LINE
  5
14F
  8
0
  6
AIGENLINE002
 62
     7
 10
82.887299999999996
 20
227.6459999999999
 30
0.0
 11
82.887299999999996
 21
221.02799999999999
 31
0.0
  0
LINE
  5
150
  8
0
  6
AIGENLINE002
 62
     7
 10
62.8872
 20
227.6459999999999
 30
0.0
 11
62.8872
 21
221.02799999999999
 31
0.0
  0
LINE
  5
151
  8
0
 62
     7
 10
70.505499999999998
 20
222.09200000000001
 30
0.0
 11
71.649799999999985
 21
224.07400000000001
 31
0.0
  0
LINE
  5
152
  8
0
 62
     7
 10
71.649799999999985
 20
224.07400000000001
 30
0.0
 11
69.667900000000003
 21
222.929
 31
0.0
  0
LINE
  5
153
  8
0
 62
     7
 10
69.667900000000003
 20
222.929
 30
0.0
 11
70.505499999999998
 21
222.09200000000001
 31
0.0
  0
LINE
  5
154
  8
0
 62
     7
 10
75.273899999999998
 20
228.52500000000001
 30
0.0
 11
74.129599999999996
 21
226.54300000000001
 31
0.0
  0
LINE
  5
155
  8
0
 62
     7
 10
74.129599999999996
 20
226.54300000000001
 30
0.0
 11
76.111599999999996
 21
227.68700000000001
 31
0.0
  0
LINE
  5
156
  8
0
 62
     7
 10
76.111599999999996
 20
227.68700000000001
 30
0.0
 11
75.273899999999998
 21
228.52500000000001
 31
0.0
  0
LINE
  5
157
  8
0
 62
     7
 10
77.355500000000006
 20
229.779
 30
0.0
 11
59.041400000000003
 21
211.465
 31
0.0
  0
LINE
  5
158
  8
0
 62
     7
 10
71.587100000000007
 20
218.1109999999999
 30
0.0
 11
74.187200000000004
 21
218.1109999999999
 31
0.0
  0
ARC
  5
159
  8
0
 62
     7
 10
74.179119
 20
218.31891599999989
 30
0.0
 40
0.20818
 50
272.212309
 51
357.78770099999991
  0
ARC
  5
15A
  8
0
 62
     7
 10
71.594774000000001
 20
218.31852900000001
 30
0.0
 40
0.207779
 50
182.10972899999999
 51
267.89030000000002
  0
LINE
  5
15B
  8
0
  6
AIGENLINE002
 62
     7
 10
144.91
 20
205.81099999999989
 30
0.0
 11
154.7649999999999
 21
205.81099999999989
 31
0.0
  0
LINE
  5
15C
  8
0
 62
     7
 10
166.73400000000001
 20
227.31099999999989
 30
0.0
 11
166.73400000000001
 21
199.31099999999989
 31
0.0
  0
LINE
  5
15D
  8
0
  6
AIGENLINE003
 62
     7
 10
129.23299999999989
 20
232.31099999999989
 30
0.0
 11
170.23400000000001
 21
232.31099999999989
 31
0.0
  0
LINE
  5
15E
  8
0
 62
     7
 10
133.733
 20
228.31099999999989
 30
0.0
 11
165.73400000000001
 21
228.31099999999989
 31
0.0
  0
ARC
  5
15F
  8
0
 62
     7
 10
165.6954409999999
 20
227.27242699999991
 30
0.0
 40
1.0393069999999991
 50
2.131202
 51
87.87865699999999
  0
LINE
  5
160
  8
0
 62
     7
 10
133.733
 20
198.31099999999989
 30
0.0
 11
165.73400000000001
 21
198.31099999999989
 31
0.0
  0
ARC
  5
161
  8
0
 62
     7
 10
165.695289
 20
199.349515
 30
0.0
 40
1.039464999999999
 50
272.12940299999991
 51
357.86073699999997
  0
LINE
  5
162
  8
0
 62
     7
 10
132.733
 20
227.31099999999989
 30
0.0
 11
132.733
 21
199.31099999999989
 31
0.0
  0
ARC
  5
163
  8
0
 62
     7
 10
133.77205499999999
 20
199.3493389999999
 30
0.0
 40
1.0392950000000001
 50
182.12990400000001
 51
267.86025499999988
  0
ARC
  5
164
  8
0
 62
     7
 10
133.77189300000001
 20
227.27261299999989
 30
0.0
 40
1.0391269999999999
 50
92.131136999999995
 51
177.878704
  0
LINE
  5
165
  8
0
  6
AIGENLINE002
 62
     7
 10
149.73400000000001
 20
234.37
 30
0.0
 11
149.73400000000001
 21
194.78999999999991
 31
0.0
  0
LINE
  5
166
  8
0
  6
AIGENLINE002
 62
     7
 10
66.974299999999999
 20
205.81099999999989
 30
0.0
 11
78.841300000000004
 21
205.81099999999989
 31
0.0
  0
ARC
  5
167
  8
0
  6
AIGENLINE001
 62
     7
 10
149.73375300000001
 20
205.810788
 30
0.0
 40
2.2500059999999991
 50
0.00001
 51
89.999980000000008
  0
ARC
  5
168
  8
0
  6
AIGENLINE001
 62
     7
 10
149.733754
 20
205.810788
 30
0.0
 40
2.2500059999999991
 50
90.0
 51
179.99996999999991
  0
ARC
  5
169
  8
0
  6
AIGENLINE001
 62
     7
 10
149.73375300000001
 20
205.810788
 30
0.0
 40
2.2500059999999991
 50
179.99996999999991
 51
270.00002000000001
  0
ARC
  5
16A
  8
0
  6
AIGENLINE001
 62
     7
 10
149.73375300000001
 20
205.810789
 30
0.0
 40
2.2500059999999991
 50
270.00002000000001
 51
359.99998999999991
  0
ARC
  5
16B
  8
0
 62
     7
 10
72.887140000000002
 20
205.810788
 30
0.0
 40
2.2500059999999991
 50
0.00001
 51
89.999980000000008
  0
ARC
  5
16C
  8
0
 62
     7
 10
72.887140999999986
 20
205.810788
 30
0.0
 40
2.2500059999999991
 50
90.0
 51
179.99996999999991
  0
ARC
  5
16D
  8
0
 62
     7
 10
72.887140000000002
 20
205.810788
 30
0.0
 40
2.2500059999999991
 50
179.99996999999991
 51
270.00002000000001
  0
ARC
  5
16E
  8
0
 62
     7
 10
72.887140000000002
 20
205.810789
 30
0.0
 40
2.2500059999999991
 50
270.00002000000001
 51
359.99998999999991
  0
ARC
  5
16F
  8
0
 62
     7
 10
72.887140000000002
 20
205.810788
 30
0.0
 40
3.7500110000000002
 50
0.00001
 51
89.999980000000008
  0
ARC
  5
170
  8
0
 62
     7
 10
72.887140999999986
 20
205.810788
 30
0.0
 40
3.7500110000000002
 50
90.0
 51
179.99996999999991
  0
ARC
  5
171
  8
0
 62
     7
 10
72.887140000000002
 20
205.810788
 30
0.0
 40
3.750008999999999
 50
179.99996999999991
 51
270.00002000000001
  0
ARC
  5
172
  8
0
 62
     7
 10
72.887140000000002
 20
205.810789
 30
0.0
 40
3.7500110000000002
 50
270.00002000000001
 51
359.99998999999991
  0
LINE
  5
173
  8
0
 62
     7
 10
94.387400000000014
 20
216.81099999999989
 30
0.0
 11
94.387400000000014
 21
192.31099999999989
 31
0.0
  0
LINE
  5
174
  8
0
 62
     7
 10
52.887
 20
190.81099999999989
 30
0.0
 11
92.8874
 21
190.81099999999989
 31
0.0
  0
ARC
  5
175
  8
0
 62
     7
 10
92.887423999999996
 20
192.31075200000001
 30
0.0
 40
1.5000039999999999
 50
270.00002000000001
 51
359.99998999999991
  0
LINE
  5
176
  8
0
 62
     7
 10
52.887
 20
218.31099999999989
 30
0.0
 11
92.8874
 21
218.31099999999989
 31
0.0
  0
ARC
  5
177
  8
0
 62
     7
 10
92.887423999999996
 20
216.81087599999989
 30
0.0
 40
1.5000039999999999
 50
0.00001
 51
89.999980000000008
  0
LINE
  5
178
  8
0
 62
     7
 10
51.387
 20
216.81099999999989
 30
0.0
 11
51.387
 21
192.31099999999989
 31
0.0
  0
ARC
  5
179
  8
0
 62
     7
 10
52.887028999999998
 20
216.81087599999989
 30
0.0
 40
1.5000039999999999
 50
90.0
 51
179.99996999999991
  0
ARC
  5
17A
  8
0
 62
     7
 10
52.887028000000001
 20
192.31075200000001
 30
0.0
 40
1.5000039999999999
 50
179.99996999999991
 51
270.00002000000001
  0
LINE
  5
17B
  8
0
 62
     7
 10
97.88730000000001
 20
231.31099999999989
 30
0.0
 11
97.88730000000001
 21
188.31099999999989
 31
0.0
  0
LINE
  5
17C
  8
0
 62
     7
 10
48.88709999999999
 20
232.31099999999989
 30
0.0
 11
96.887400000000014
 21
232.31099999999989
 31
0.0
  0
ARC
  5
17D
  8
0
 62
     7
 10
96.887377000000001
 20
231.3110299999999
 30
0.0
 40
0.9999450000000001
 50
0.00001
 51
89.999980000000008
  0
LINE
  5
17E
  8
0
 62
     7
 10
48.88709999999999
 20
187.31099999999989
 30
0.0
 11
96.887400000000014
 21
187.31099999999989
 31
0.0
  0
ARC
  5
17F
  8
0
 62
     7
 10
96.848740000000006
 20
188.34926399999989
 30
0.0
 40
1.039301
 50
272.13055299999991
 51
357.86945700000001
  0
LINE
  5
180
  8
0
 62
     7
 10
47.887099999999997
 20
231.31099999999989
 30
0.0
 11
47.887099999999997
 21
188.31099999999989
 31
0.0
  0
ARC
  5
181
  8
0
 62
     7
 10
48.925319999999999
 20
188.34887099999989
 30
0.0
 40
1.0388939999999991
 50
182.10972899999999
 51
267.89030000000002
  0
ARC
  5
182
  8
0
 62
     7
 10
48.887075000000003
 20
231.3110299999999
 30
0.0
 40
0.9999450000000001
 50
90.0
 51
179.99996999999991
  0
LINE
  5
183
  8
0
 62
     7
 10
55.137599999999999
 20
226.5209999999999
 30
0.0
 11
55.729799999999997
 21
224.31099999999989
 31
0.0
  0
LINE
  5
184
  8
0
 62
     7
 10
55.729799999999997
 20
224.31099999999989
 30
0.0
 11
56.322200000000002
 21
226.5209999999999
 31
0.0
  0
LINE
  5
185
  8
0
 62
     7
 10
56.322200000000002
 20
226.5209999999999
 30
0.0
 11
55.137599999999999
 21
226.5209999999999
 31
0.0
  0
LINE
  5
186
  8
0
 62
     7
 10
56.30749999999999
 20
230.101
 30
0.0
 11
55.715299999999999
 21
232.31099999999989
 31
0.0
  0
LINE
  5
187
  8
0
 62
     7
 10
55.715299999999999
 20
232.31099999999989
 30
0.0
 11
55.122900000000001
 21
230.101
 31
0.0
  0
LINE
  5
188
  8
0
 62
     7
 10
55.122900000000001
 20
230.101
 30
0.0
 11
56.30749999999999
 21
230.101
 31
0.0
  0
LINE
  5
189
  8
0
 62
     7
 10
55.722499999999997
 20
232.31099999999989
 30
0.0
 11
55.722499999999997
 21
224.31099999999989
 31
0.0
  0
LINE
  5
18A
  8
0
 62
     7
 10
54.823900000000002
 20
224.31099999999989
 30
0.0
 11
58.626899999999999
 21
224.31099999999989
 31
0.0
  0
LINE
  5
18B
  8
0
 62
     7
 10
90.325800000000015
 20
227.5209999999999
 30
0.0
 11
90.917999999999992
 21
225.31099999999989
 31
0.0
  0
LINE
  5
18C
  8
0
 62
     7
 10
90.917999999999992
 20
225.31099999999989
 30
0.0
 11
91.510400000000004
 21
227.5209999999999
 31
0.0
  0
LINE
  5
18D
  8
0
 62
     7
 10
91.510400000000004
 20
227.5209999999999
 30
0.0
 11
90.325800000000015
 21
227.5209999999999
 31
0.0
  0
LINE
  5
18E
  8
0
 62
     7
 10
91.495800000000003
 20
230.101
 30
0.0
 11
90.903599999999997
 21
232.31099999999989
 31
0.0
  0
LINE
  5
18F
  8
0
 62
     7
 10
90.903599999999997
 20
232.31099999999989
 30
0.0
 11
90.311199999999985
 21
230.101
 31
0.0
  0
LINE
  5
190
  8
0
 62
     7
 10
90.311199999999985
 20
230.101
 30
0.0
 11
91.495800000000003
 21
230.101
 31
0.0
  0
LINE
  5
191
  8
0
 62
     7
 10
90.325800000000015
 20
220.52099999999999
 30
0.0
 11
90.917999999999992
 21
218.31099999999989
 31
0.0
  0
LINE
  5
192
  8
0
 62
     7
 10
90.917999999999992
 20
218.31099999999989
 30
0.0
 11
91.510400000000004
 21
220.52099999999999
 31
0.0
  0
LINE
  5
193
  8
0
 62
     7
 10
91.510400000000004
 20
220.52099999999999
 30
0.0
 11
90.325800000000015
 21
220.52099999999999
 31
0.0
  0
LINE
  5
194
  8
0
 62
     7
 10
91.495800000000003
 20
223.09999999999991
 30
0.0
 11
90.903599999999997
 21
225.31099999999989
 31
0.0
  0
LINE
  5
195
  8
0
 62
     7
 10
90.903599999999997
 20
225.31099999999989
 30
0.0
 11
90.311199999999985
 21
223.09999999999991
 31
0.0
  0
LINE
  5
196
  8
0
 62
     7
 10
90.311199999999985
 20
223.09999999999991
 30
0.0
 11
91.495800000000003
 21
223.09999999999991
 31
0.0
  0
LINE
  5
197
  8
0
 62
     7
 10
90.910799999999995
 20
232.31099999999989
 30
0.0
 11
90.910799999999995
 21
218.31099999999989
 31
0.0
  0
LINE
  5
198
  8
0
 62
     7
 10
76.841300000000004
 20
225.31099999999989
 30
0.0
 11
91.620800000000017
 21
225.31099999999989
 31
0.0
  0
ARC
  5
199
  8
0
  6
AIGENLINE001
 62
     7
 10
82.887281999999985
 20
224.31106800000001
 30
0.0
 40
1.7499480000000001
 50
0.00001
 51
89.999980000000008
  0
ARC
  5
19A
  8
0
  6
AIGENLINE001
 62
     7
 10
82.887281999999985
 20
224.31106800000001
 30
0.0
 40
1.7499480000000001
 50
90.0
 51
179.99996999999991
  0
ARC
  5
19B
  8
0
  6
AIGENLINE001
 62
     7
 10
82.887367999999995
 20
224.31098199999991
 30
0.0
 40
1.7500329999999999
 50
179.99715
 51
269.99720000000002
  0
ARC
  5
19C
  8
0
  6
AIGENLINE001
 62
     7
 10
82.887196000000003
 20
224.31098199999991
 30
0.0
 40
1.7500340000000001
 50
270.00283999999988
 51
0.00281
  0
ARC
  5
19D
  8
0
  6
AIGENLINE001
 62
     7
 10
62.887169999999998
 20
224.31106800000001
 30
0.0
 40
1.7499480000000001
 50
0.00001
 51
89.999980000000008
  0
ARC
  5
19E
  8
0
  6
AIGENLINE001
 62
     7
 10
62.887084999999999
 20
224.31098199999991
 30
0.0
 40
1.7500340000000001
 50
89.997179999999986
 51
179.99715
  0
ARC
  5
19F
  8
0
  6
AIGENLINE001
 62
     7
 10
62.887169999999998
 20
224.31106800000001
 30
0.0
 40
1.7501189999999991
 50
179.99996999999991
 51
270.00002000000001
  0
ARC
  5
1A0
  8
0
  6
AIGENLINE001
 62
     7
 10
62.887083999999987
 20
224.31098199999991
 30
0.0
 40
1.7500340000000001
 50
270.00283999999988
 51
0.00281
  0
LINE
  5
1A1
  8
0
  6
AIGENLINE002
 62
     7
 10
86.048699999999997
 20
224.31099999999989
 30
0.0
 11
79.250399999999999
 21
224.31099999999989
 31
0.0
  0
LINE
  5
1A2
  8
0
  6
AIGENLINE002
 62
     7
 10
66.233099999999993
 20
224.31099999999989
 30
0.0
 11
59.434800000000003
 21
224.31099999999989
 31
0.0
  0
LINE
  5
1A3
  8
0
  6
AIGENLINE002
 62
     7
 10
76.040599999999998
 20
225.31099999999989
 30
0.0
 11
69.835999999999999
 21
225.31099999999989
 31
0.0
  0
ARC
  5
1A4
  8
0
 62
     7
 10
72.887225999999984
 20
225.31092699999991
 30
0.0
 40
1.7500340000000001
 50
0.00283
 51
90.002800000000008
  0
ARC
  5
1A5
  8
0
 62
     7
 10
72.887140000000002
 20
225.311013
 30
0.0
 40
1.7499480000000001
 50
90.0
 51
179.99996999999991
  0
ARC
  5
1A6
  8
0
 62
     7
 10
72.887225999999984
 20
225.31092699999991
 30
0.0
 40
1.7500329999999999
 50
179.99715
 51
269.99720000000002
  0
ARC
  5
1A7
  8
0
 62
     7
 10
72.887140000000002
 20
225.31101399999989
 30
0.0
 40
1.7501199999999999
 50
270.00002000000001
 51
359.99998999999991
  0
LINE
  5
1A8
  8
0
  6
AIGENLINE002
 62
     7
 10
72.887100000000004
 20
234.80799999999991
 30
0.0
 11
72.887100000000004
 21
183.78999999999991
 31
0.0
  0
LINE
  5
1A9
  8
_________2
 62
     7
 10
210.24000000000001
 20
148.93100000000001
 30
0.0
 11
188.49000000000001
 21
148.93100000000001
 31
0.0
  0
LINE
  5
1AA
  8
_________2
 62
     7
 10
105.2389999999999
 20
17.428499999999989
 30
0.0
 11
105.2389999999999
 21
0.4482100000000001
 31
0.0
  0
LINE
  5
1AB
  8
_________2
 62
     7
 10
105.2389999999999
 20
297.44999999999987
 30
0.0
 11
105.2389999999999
 21
280.42999999999989
 31
0.0
  0
LINE
  5
1AC
  8
_________2
 62
     7
 10
21.988499999999991
 20
148.93100000000001
 30
0.0
 11
0.238058
 21
148.93100000000001
 31
0.0
  0
LINE
  5
1AD
  8
_________2
 62
     7
 10
81.679900000000004
 20
51.324300000000001
 30
0.0
 11
79.493700000000004
 21
51.324300000000001
 31
0.0
  0
LINE
  5
1AE
  8
_________2
 62
     7
 10
82.172600000000017
 20
51.324300000000001
 30
0.0
 11
81.920400000000001
 21
51.324300000000001
 31
0.0
  0
LINE
  5
1AF
  8
_________2
 62
     7
 10
82.665199999999984
 20
51.324300000000001
 30
0.0
 11
85.590100000000007
 21
51.324300000000001
 31
0.0
  0
LINE
  5
1B0
  8
_________2
 62
     7
 10
82.172600000000017
 20
51.324300000000001
 30
0.0
 11
82.424800000000005
 21
51.324300000000001
 31
0.0
  0
LINE
  5
1B1
  8
_________2
 62
     7
 10
75.776399999999995
 20
51.324300000000001
 30
0.0
 11
73.589399999999998
 21
51.324300000000001
 31
0.0
  0
LINE
  5
1B2
  8
_________2
 62
     7
 10
76.2684
 20
51.324300000000001
 30
0.0
 11
76.016900000000007
 21
51.324300000000001
 31
0.0
  0
LINE
  5
1B3
  8
_________2
 62
     7
 10
76.2684
 20
51.817
 30
0.0
 11
76.2684
 21
54.003900000000002
 31
0.0
  0
LINE
  5
1B4
  8
_________2
 62
     7
 10
76.2684
 20
51.324300000000001
 30
0.0
 11
76.2684
 21
51.576500000000003
 31
0.0
  0
LINE
  5
1B5
  8
_________2
 62
     7
 10
76.76100000000001
 20
51.324300000000001
 30
0.0
 11
78.947999999999993
 21
51.324300000000001
 31
0.0
  0
LINE
  5
1B6
  8
_________2
 62
     7
 10
76.2684
 20
51.324300000000001
 30
0.0
 11
76.520499999999998
 21
51.324300000000001
 31
0.0
  0
LINE
  5
1B7
  8
_________2
 62
     7
 10
76.2684
 20
50.832399999999993
 30
0.0
 11
76.2684
 21
48.645400000000002
 31
0.0
  0
LINE
  5
1B8
  8
_________2
 62
     7
 10
76.2684
 20
51.324300000000001
 30
0.0
 11
76.2684
 21
51.072800000000001
 31
0.0
  0
LINE
  5
1B9
  8
_________2
 62
     7
 10
79.979399999999984
 20
50.104799999999997
 30
0.0
 11
85.157399999999996
 21
49.240000000000002
 31
0.0
  0
LINE
  5
1BA
  8
_________2
 62
     7
 10
79.979399999999984
 20
52.543900000000001
 30
0.0
 11
85.157399999999996
 21
53.409300000000002
 31
0.0
  0
LINE
  5
1BB
  8
_________2
 62
     7
 10
85.157399999999996
 20
49.240000000000002
 30
0.0
 11
85.157399999999996
 21
53.409300000000002
 31
0.0
  0
LINE
  5
1BC
  8
_________2
 62
     7
 10
79.979399999999984
 20
50.104799999999997
 30
0.0
 11
79.979399999999984
 21
52.543900000000001
 31
0.0
  0
ARC
  5
1BD
  8
_________2
 62
     7
 10
76.222110000000001
 20
51.277366999999991
 30
0.0
 40
1.2673709999999989
 50
2.1232950000000002
 51
87.909056000000007
  0
ARC
  5
1BE
  8
_________2
 62
     7
 10
76.315273000000005
 20
51.277400999999998
 30
0.0
 40
1.267363
 50
92.121785999999986
 51
177.878185
  0
ARC
  5
1BF
  8
_________2
 62
     7
 10
76.315273000000005
 20
51.371245999999992
 30
0.0
 40
1.267363
 50
182.12181499999991
 51
267.87821400000001
  0
ARC
  5
1C0
  8
_________2
 62
     7
 10
76.221461000000005
 20
51.371928999999987
 30
0.0
 40
1.2680439999999991
 50
272.11916400000001
 51
357.84848499999993
  0
ARC
  5
1C1
  8
_________2
 62
     7
 10
76.268349999999984
 20
51.324323
 30
0.0
 40
2.0849849999999992
 50
0.00001
 51
89.999980000000008
  0
ARC
  5
1C2
  8
_________2
 62
     7
 10
76.348388
 20
51.245001999999992
 30
0.0
 40
2.1657860000000002
 50
92.117855000000034
 51
177.90105299999991
  0
ARC
  5
1C3
  8
_________2
 62
     7
 10
76.348354
 20
51.404327000000002
 30
0.0
 40
2.1657779999999991
 50
182.11700400000001
 51
267.88302499999992
  0
ARC
  5
1C4
  8
_________2
 62
     7
 10
76.188378999999983
 20
51.405009999999997
 30
0.0
 40
2.1664590000000001
 50
272.11546800000002
 51
357.86560400000002
  0
TEXT
  5
1C5
  8
_________2
 62
     7
 10
109.5439999999999
 20
23.199100000000001
 30
0.0
 40
3.0923400000000001
  1
図番
 41
0.5
  0
LINE
  5
1C6
  8
_________2
 62
     7
 10
108.4889999999999
 20
27.4283
 30
0.0
 11
188.49000000000001
 21
27.4283
 31
0.0
  0
TEXT
  5
1C7
  8
_________2
 62
     7
 10
109.5439999999999
 20
33.198900000000002
 30
0.0
 40
3.0923400000000001
  1
品番
 41
0.5
  0
TEXT
  5
1C8
  8
_________2
 62
     7
 10
109.5439999999999
 20
53.337699999999998
 30
0.0
 40
3.0923400000000001
  1
名称
 41
0.5
  0
TEXT
  5
1C9
  8
_________2
 62
     7
 10
96.784058333333334
 20
48.341500000000011
 30
0.0
 40
3.6545800000000002
  1
mm
 41
0.5
 72
     1
 11
98.306799999999996
 21
48.341500000000011
 31
0.0
  0
TEXT
  5
1CA
  8
_________2
 62
     7
 10
90.582099999999997
 20
53.337699999999998
 30
0.0
 40
3.0923400000000001
  1
単位
 41
0.5
  0
TEXT
  5
1CB
  8
_________2
 62
     7
 10
90.582099999999997
 20
40.930399999999999
 30
0.0
 40
3.0923400000000001
  1
尺度
 41
0.5
  0
TEXT
  5
1CC
  8
_________2
 62
     7
 10
95.030836166666674
 20
34.73749999999999
 30
0.0
 40
3.6545800000000002
  1
1 ： 10
 41
0.5
 72
     1
 11
98.898600000000002
 21
34.73749999999999
 31
0.0
  0
TEXT
  5
1CD
  8
_________2
 62
     7
 10
143.07741250000001
 20
30.627400000000002
 30
0.0
 40
3.9357000000000002
  1
FL5058
 41
0.5
 72
     1
 11
148.489
 21
30.627400000000002
 31
0.0
  0
TEXT
  5
1CE
  8
_________2
 62
     7
 10
143.07741250000001
 20
20.626999999999988
 30
0.0
 40
3.9357000000000002
  1
FL5058
 41
0.5
 72
     1
 11
148.489
 21
20.626999999999988
 31
0.0
  0
TEXT
  5
1CF
  8
_________2
 62
     7
 10
29.525700000000001
 20
22.226900000000001
 30
0.0
 40
3.9357000000000002
  1
実容量：6L、重量19kg、オーバーフロー付
 41
0.5
  0
TEXT
  5
1D0
  8
_________2
 62
     7
 10
114.11799999999999
 20
45.7453
 30
0.0
 40
3.9357000000000002
  1
アクアライト 壁掛式洗面器
 41
0.5
  0
TEXT
  5
1D1
  8
_________2
 62
     7
 10
44.364200333333329
 20
35.122599999999991
 30
0.0
 40
3.6545800000000002
  1
早川
 41
0.5
 72
     1
 11
46.252400000000002
 21
35.122599999999991
 31
0.0
  0
TEXT
  5
1D2
  8
_________2
 62
     7
 10
25.72929066666666
 20
35.122599999999991
 30
0.0
 40
3.6545800000000002
  1
石原
 41
0.5
 72
     1
 11
27.6784
 21
35.122599999999991
 31
0.0
  0
TEXT
  5
1D3
  8
_________2
 62
     7
 10
72.724699999999999
 20
34.73749999999999
 30
0.0
 40
3.6545800000000002
  1
13.06.06
 41
0.5
  0
TEXT
  5
1D4
  8
_________2
 62
     7
 10
71.531999999999996
 20
40.930399999999999
 30
0.0
 40
3.0923400000000001
  1
日付
 41
0.5
  0
TEXT
  5
1D5
  8
_________2
 62
     7
 10
34.578299999999992
 20
40.930399999999999
 30
0.0
 40
3.0923400000000001
  1
検図
 41
0.5
  0
TEXT
  5
1D6
  8
_________2
 62
     7
 10
22.960000000000001
 20
26.730999999999991
 30
0.0
 40
3.0923400000000001
  1
備考
 41
0.5
  0
TEXT
  5
1D7
  8
_________2
 62
     7
 10
22.960000000000001
 20
40.930399999999999
 30
0.0
 40
3.0923400000000001
  1
製図
 41
0.5
  0
TEXT
  5
1D8
  8
_________2
 62
     7
 10
28.727365333333339
 20
49.456400000000002
 30
0.0
 40
4.4979399999999989
  1
セラトレーディング株式会社
 41
0.5
 72
     1
 11
46.119399999999992
 21
49.456400000000002
 31
0.0
  0
LINE
  5
1D9
  8
_________2
 62
     7
 10
188.49000000000001
 20
17.428499999999989
 30
0.0
 11
21.988499999999991
 21
17.428499999999989
 31
0.0
  0
LINE
  5
1DA
  8
_________2
 62
     7
 10
21.988499999999991
 20
17.428499999999989
 30
0.0
 11
21.988499999999991
 21
280.42999999999989
 31
0.0
  0
LINE
  5
1DB
  8
_________2
 62
     7
 10
21.988499999999991
 20
280.42999999999989
 30
0.0
 11
188.49000000000001
 21
280.42999999999989
 31
0.0
  0
LINE
  5
1DC
  8
_________2
 62
     7
 10
188.49000000000001
 20
280.42999999999989
 30
0.0
 11
188.49000000000001
 21
17.428499999999989
 31
0.0
  0
LINE
  5
1DD
  8
_________2
 62
     7
 10
70.488799999999998
 20
30.9285
 30
0.0
 11
70.488799999999998
 21
57.428400000000011
 31
0.0
  0
LINE
  5
1DE
  8
_________2
 62
     7
 10
89.488600000000005
 20
30.9285
 30
0.0
 11
89.488600000000005
 21
57.428400000000011
 31
0.0
  0
LINE
  5
1DF
  8
_________2
 62
     7
 10
108.4889999999999
 20
17.428499999999989
 30
0.0
 11
108.4889999999999
 21
57.428400000000011
 31
0.0
  0
LINE
  5
1E0
  8
_________2
 62
     7
 10
33.488300000000002
 20
30.9285
 30
0.0
 11
33.488300000000002
 21
44.928800000000003
 31
0.0
  0
LINE
  5
1E1
  8
_________2
 62
     7
 10
21.988499999999991
 20
30.9285
 30
0.0
 11
108.4889999999999
 21
30.9285
 31
0.0
  0
LINE
  5
1E2
  8
_________2
 62
     7
 10
21.988499999999991
 20
44.928800000000003
 30
0.0
 11
108.4889999999999
 21
44.928800000000003
 31
0.0
  0
LINE
  5
1E3
  8
_________2
 62
     7
 10
108.4889999999999
 20
37.428100000000001
 30
0.0
 11
188.49000000000001
 21
37.428100000000001
 31
0.0
  0
LINE
  5
1E4
  8
_________2
 62
     7
 10
21.988499999999991
 20
57.428400000000011
 30
0.0
 11
188.49000000000001
 21
57.428400000000011
 31
0.0
  0
ENDSEC
  0
EOF
