  0
SECTION
  2
HEADER
  9
$ACADVER
  1
AC1009
  9
$INSBASE
 10
0.0
 20
0.0
 30
0.0
  9
$EXTMIN
 10
0.238058
 20
0.4482100000000001
 30
0.0
  9
$EXTMAX
 10
210.24000000000001
 20
297.44999999999987
 30
0.0
  9
$LIMMIN
 10
0.0
 20
0.0
  9
$LIMMAX
 10
12.0
 20
9.0
  9
$ORTHOMODE
 70
     0
  9
$REGENMODE
 70
     1
  9
$FILLMODE
 70
     1
  9
$QTEXTMODE
 70
     0
  9
$MIRRTEXT
 70
     1
  9
$DRAGMODE
 70
     2
  9
$LTSCALE
 40
1.0
  9
$OSMODE
 70
    37
  9
$ATTMODE
 70
     1
  9
$TEXTSIZE
 40
0.0
  9
$TRACEWID
 40
0.05
  9
$TEXTSTYLE
  7
STANDARD
  9
$CLAYER
  8
0
  9
$CELTYPE
  6
CONTINUOUS
  9
$CECOLOR
 62
   256
  9
$DIMSCALE
 40
1.0
  9
$DIMASZ
 40
0.18
  9
$DIMEXO
 40
0.0625
  9
$DIMDLI
 40
0.38
  9
$DIMRND
 40
0.0
  9
$DIMDLE
 40
0.0
  9
$DIMEXE
 40
0.18
  9
$DIMTP
 40
0.0
  9
$DIMTM
 40
0.0
  9
$DIMTXT
 40
0.18
  9
$DIMCEN
 40
0.09
  9
$DIMTSZ
 40
0.0
  9
$DIMTOL
 70
     0
  9
$DIMLIM
 70
     0
  9
$DIMTIH
 70
     1
  9
$DIMTOH
 70
     1
  9
$DIMSE1
 70
     0
  9
$DIMSE2
 70
     0
  9
$DIMTAD
 70
     0
  9
$DIMZIN
 70
     0
  9
$DIMBLK
  1

  9
$DIMASO
 70
     1
  9
$DIMSHO
 70
     1
  9
$DIMPOST
  1

  9
$DIMAPOST
  1

  9
$DIMALT
 70
     0
  9
$DIMALTD
 70
     2
  9
$DIMALTF
 40
25.399999999999999
  9
$DIMLFAC
 40
1.0
  9
$DIMTOFL
 70
     0
  9
$DIMTVP
 40
0.0
  9
$DIMTIX
 70
     0
  9
$DIMSOXD
 70
     0
  9
$DIMSAH
 70
     0
  9
$DIMBLK1
  1

  9
$DIMBLK2
  1

  9
$DIMSTYLE
  2
STANDARD
  9
$DIMCLRD
 70
     0
  9
$DIMCLRE
 70
     0
  9
$DIMCLRT
 70
     0
  9
$DIMTFAC
 40
1.0
  9
$DIMGAP
 40
0.09
  9
$LUNITS
 70
     2
  9
$LUPREC
 70
     4
  9
$SKETCHINC
 40
0.1
  9
$FILLETRAD
 40
0.0
  9
$AUNITS
 70
     0
  9
$AUPREC
 70
     0
  9
$MENU
  1
.
  9
$ELEVATION
 40
0.0
  9
$PELEVATION
 40
0.0
  9
$THICKNESS
 40
0.0
  9
$LIMCHECK
 70
     0
  9
$BLIPMODE
 70
     0
  9
$CHAMFERA
 40
0.0
  9
$CHAMFERB
 40
0.0
  9
$SKPOLY
 70
     0
  9
$TDCREATE
 40
2444972.375
  9
$TDUPDATE
 40
2454435.2842695601
  9
$TDINDWG
 40
0.0000077662
  9
$TDUSRTIMER
 40
0.0000077662
  9
$USRTIMER
 70
     1
  9
$ANGBASE
 50
0.0
  9
$ANGDIR
 70
     0
  9
$PDMODE
 70
     0
  9
$PDSIZE
 40
0.0
  9
$PLINEWID
 40
0.0
  9
$COORDS
 70
     1
  9
$SPLFRAME
 70
     0
  9
$SPLINETYPE
 70
     6
  9
$SPLINESEGS
 70
     8
  9
$ATTDIA
 70
     0
  9
$ATTREQ
 70
     1
  9
$HANDLING
 70
     1
  9
$HANDSEED
  5
100
  9
$SURFTAB1
 70
     6
  9
$SURFTAB2
 70
     6
  9
$SURFTYPE
 70
     6
  9
$SURFU
 70
     6
  9
$SURFV
 70
     6
  9
$UCSNAME
  2

  9
$UCSORG
 10
0.0
 20
0.0
 30
0.0
  9
$UCSXDIR
 10
1.0
 20
0.0
 30
0.0
  9
$UCSYDIR
 10
0.0
 20
1.0
 30
0.0
  9
$PUCSNAME
  2

  9
$PUCSORG
 10
0.0
 20
0.0
 30
0.0
  9
$PUCSXDIR
 10
1.0
 20
0.0
 30
0.0
  9
$PUCSYDIR
 10
0.0
 20
1.0
 30
0.0
  9
$USERI1
 70
     0
  9
$USERI2
 70
     0
  9
$USERI3
 70
     0
  9
$USERI4
 70
     0
  9
$USERI5
 70
     0
  9
$USERR1
 40
0.0
  9
$USERR2
 40
0.0
  9
$USERR3
 40
0.0
  9
$USERR4
 40
0.0
  9
$USERR5
 40
0.0
  9
$WORLDVIEW
 70
     1
  9
$SHADEDGE
 70
     3
  9
$SHADEDIF
 70
    70
  9
$TILEMODE
 70
     1
  9
$MAXACTVP
 70
    48
  9
$PLIMCHECK
 70
     0
  9
$PEXTMIN
 10
1.0000000000000000E+020
 20
1.0000000000000000E+020
 30
1.0000000000000000E+020
  9
$PEXTMAX
 10
-1.0000000000000000E+020
 20
-1.0000000000000000E+020
 30
-1.0000000000000000E+020
  9
$PLIMMIN
 10
0.0
 20
0.0
  9
$PLIMMAX
 10
12.0
 20
9.0
  9
$UNITMODE
 70
     0
  9
$VISRETAIN
 70
     1
  9
$PLINEGEN
 70
     0
  9
$PSLTSCALE
 70
     1
  0
ENDSEC
  0
SECTION
  2
TABLES
  0
TABLE
  2
VPORT
 70
     2
  0
VPORT
  2
*ACTIVE
 70
     0
 10
0.0
 20
0.0
 11
1.0
 21
1.0
 12
210.2887023820887
 22
148.72499999999991
 13
0.0
 23
0.0
 14
1.0
 24
1.0
 15
0.0
 25
0.0
 16
0.0
 26
0.0
 36
1.0
 17
0.0
 27
0.0
 37
0.0
 40
299.69773299748101
 41
2.2894736842105261
 42
50.0
 43
0.0
 44
0.0
 50
0.0
 51
0.0
 71
     0
 72
   100
 73
     1
 74
     1
 75
     0
 76
     0
 77
     0
 78
     0
  0
ENDTAB
  0
TABLE
  2
LTYPE
 70
     3
  0
LTYPE
  2
CONTINUOUS
 70
     0
  3
Solid line
 72
    65
 73
     0
 40
0.0
  0
LTYPE
  2
AIGENLINE001
 70
     0
  3
generate AI->DXF Converter
 72
    65
 73
     2
 40
1.5522299999999991
 49
0.776115
 49
-0.776115
  0
LTYPE
  2
AIGENLINE002
 70
     0
  3
generate AI->DXF Converter
 72
    65
 73
     4
 40
5.8561449999999988
 49
3.5278
 49
-0.776115
 49
0.776115
 49
-0.776115
  0
ENDTAB
  0
TABLE
  2
LAYER
 70
     2
  0
LAYER
  2
0
 70
     0
 62
     7
  6
CONTINUOUS
  0
LAYER
  2
_________2
 70
     0
 62
     7
  6
CONTINUOUS
  0
ENDTAB
  0
TABLE
  2
STYLE
 70
     1
  0
STYLE
  2
STANDARD
 70
     0
 40
0.0
 41
0.0
 50
0.0
 71
     0
 42
0.0
  3
TXT
  4
EXTFONT.SHX
  0
ENDTAB
  0
TABLE
  2
VIEW
 70
     0
  0
ENDTAB
  0
TABLE
  2
UCS
 70
     0
  0
ENDTAB
  0
TABLE
  2
APPID
 70
     1
  0
APPID
  2
ACAD
 70
     0
  0
ENDTAB
  0
TABLE
  2
DIMSTYLE
 70
     1
  0
DIMSTYLE
  2
STANDARD
 70
     0
  3

  4

  5

  6

  7

 40
1.0
 41
0.18
 42
0.0625
 43
0.38
 44
0.18
 45
0.0
 46
0.0
 47
0.0
 48
0.0
140
0.18
141
0.09
142
0.0
143
25.399999999999999
144
1.0
145
0.0
146
1.0
147
0.09
 71
     0
 72
     0
 73
     1
 74
     1
 75
     0
 76
     0
 77
     0
 78
     0
170
     0
171
     2
172
     0
173
     0
174
     0
175
     0
176
     0
177
     0
178
     0
  0
ENDTAB
  0
ENDSEC
  0
SECTION
  2
BLOCKS
  0
BLOCK
  8
0
  2
$MODEL_SPACE
 70
     0
 10
0.0
 20
0.0
 30
0.0
  3
$MODEL_SPACE
  1

  0
ENDBLK
  5
1A
  8
0
  0
BLOCK
 67
     1
  8
0
  2
$PAPER_SPACE
 70
     0
 10
0.0
 20
0.0
 30
0.0
  3
$PAPER_SPACE
  1

  0
ENDBLK
  5
17
 67
     1
  8
0
  0
ENDSEC
  0
SECTION
  2
ENTITIES
  0
TEXT
  5
23
  8
0
 62
     7
 10
136.78593012121021
 20
194.18493012121019
 30
0.0
 40
3.0923400000000001
  1
%%c150
 50
45.0
 41
0.5
 72
     1
 11
138.517
 21
195.91599999999991
 31
0.0
  0
TEXT
  5
24
  8
0
 62
     7
 10
76.129140000000007
 20
209.56899999999999
 30
0.0
 40
3.0923400000000001
  1
%%c45
 41
0.5
 72
     1
 11
78.190700000000007
 21
209.56899999999999
 31
0.0
  0
TEXT
  5
25
  8
0
 62
     7
 10
136.78175999999991
 20
176.547
 30
0.0
 40
3.0923400000000001
  1
カウンター開口寸法
 41
0.5
 72
     1
 11
145.02799999999999
 21
176.547
 31
0.0
  0
TEXT
  5
26
  8
0
 62
     7
 10
64.552502500000003
 20
157.983
 30
0.0
 40
3.0923400000000001
  1
%%c270
 41
0.5
 72
     1
 11
67.258300000000006
 21
157.983
 31
0.0
  0
TEXT
  5
27
  8
0
 62
     7
 10
64.552502500000003
 20
164.785
 30
0.0
 40
3.0923400000000001
  1
%%c230
 41
0.5
 72
     1
 11
67.258300000000006
 21
164.785
 31
0.0
  0
TEXT
  5
28
  8
0
 62
     7
 10
106.93000000000001
 20
115.3191349999999
 30
0.0
 40
3.0923400000000001
  1
135
 50
90.0
 41
0.5
 72
     1
 11
106.93000000000001
 21
117.12299999999991
 31
0.0
  0
TEXT
  5
29
  8
0
 62
     7
 10
100.712
 20
118.97883
 30
0.0
 40
3.0923400000000001
  1
100
 50
90.0
 41
0.5
 72
     1
 11
100.712
 21
120.52500000000001
 31
0.0
  0
ARC
  5
2A
  8
0
 62
     7
 10
75.289602000000002
 20
108.88510100000001
 30
0.0
 40
1.0314369999999999
 50
103.04011199999999
 51
178.60850500000001
  0
ARC
  5
2B
  8
0
 62
     7
 10
76.532859000000002
 20
115.06804200000001
 30
0.0
 40
4.6669119999999991
 50
286.51252099999999
 51
291.70212099999992
  0
ARC
  5
2C
  8
0
 62
     7
 10
71.685576999999995
 20
130.62906499999991
 30
0.0
 40
20.965081999999999
 50
284.16272900000001
 51
287.12618500000002
  0
ARC
  5
2D
  8
0
 62
     7
 10
66.156525999999999
 20
151.88600099999999
 30
0.0
 40
42.929035999999989
 50
281.96482400000002
 51
284.376169
  0
ARC
  5
2E
  8
0
  6
AIGENLINE001
 62
     7
 10
72.786732000000001
 20
111.931764
 30
0.0
 40
1.0284279999999999
 50
107.095682
 51
178.823778
  0
ARC
  5
2F
  8
0
  6
AIGENLINE001
 62
     7
 10
91.845037999999988
 20
128.674734
 30
0.0
 40
2.0579099999999988
 50
91.178037000000003
 51
162.400296
  0
LINE
  5
30
  8
0
 62
     7
 10
74.258499999999998
 20
108.9099999999999
 30
0.0
 11
74.258499999999998
 21
104.732
 31
0.0
  0
ARC
  5
31
  8
0
  6
AIGENLINE001
 62
     7
 10
67.091285999999997
 20
136.19274799999999
 30
0.0
 40
23.812488999999999
 50
293.82125300000001
 51
343.1668029999999
  0
ARC
  5
32
  8
0
  6
AIGENLINE001
 62
     7
 10
65.569177999999994
 20
139.18497099999999
 30
0.0
 40
27.165182999999999
 50
284.74802699999998
 51
294.20918699999999
  0
LINE
  5
33
  8
0
  6
AIGENLINE001
 62
     7
 10
71.758499999999998
 20
103.732
 30
0.0
 11
71.758499999999998
 21
111.9529999999999
 31
0.0
  0
ARC
  5
34
  8
0
 62
     7
 10
59.227240999999999
 20
108.88509999999999
 30
0.0
 40
1.0314369999999999
 50
1.3914930000000001
 51
76.959850000000003
  0
ARC
  5
35
  8
0
 62
     7
 10
57.985550000000003
 20
115.0719939999999
 30
0.0
 40
4.6711629999999991
 50
248.297977
 51
253.48216400000001
  0
ARC
  5
36
  8
0
 62
     7
 10
62.827857999999999
 20
130.6170139999999
 30
0.0
 40
20.95257999999999
 50
252.87288100000001
 51
255.8380919999999
  0
ARC
  5
37
  8
0
 62
     7
 10
68.362835000000004
 20
151.89843200000001
 30
0.0
 40
42.941718999999999
 50
255.62463199999991
 51
258.03534899999988
  0
ARC
  5
38
  8
0
  6
AIGENLINE001
 62
     7
 10
61.730111000000001
 20
111.931764
 30
0.0
 40
1.028429
 50
1.17622
 51
72.904281000000012
  0
ARC
  5
39
  8
0
  6
AIGENLINE001
 62
     7
 10
42.671807999999999
 20
128.67497299999991
 30
0.0
 40
2.057671
 50
17.594812000000001
 51
88.821881999999988
  0
LINE
  5
3A
  8
0
 62
     7
 10
61.258299999999998
 20
103.732
 30
0.0
 11
73.258399999999995
 21
103.732
 31
0.0
  0
LINE
  5
3B
  8
0
 62
     7
 10
60.258400000000002
 20
108.9099999999999
 30
0.0
 11
60.258400000000002
 21
104.732
 31
0.0
  0
ARC
  5
3C
  8
0
  6
AIGENLINE001
 62
     7
 10
67.426405000000003
 20
136.19372300000001
 30
0.0
 40
23.813748
 50
196.83475300000001
 51
246.177719
  0
ARC
  5
3D
  8
0
  6
AIGENLINE001
 62
     7
 10
68.947519
 20
139.185
 30
0.0
 40
27.165174
 50
245.79102499999991
 51
255.25230599999989
  0
ARC
  5
3E
  8
0
 62
     7
 10
61.258405000000003
 20
104.73182299999991
 30
0.0
 40
1.000030999999999
 50
179.995036
 51
269.99508500000002
  0
ARC
  5
3F
  8
0
 62
     7
 10
73.258351000000005
 20
104.7319099999999
 30
0.0
 40
1.0001180000000001
 50
270.00002000000001
 51
359.99998999999991
  0
LINE
  5
40
  8
0
 62
     7
 10
94.258600000000001
 20
129.53200000000001
 30
0.0
 11
94.258600000000001
 21
110.732
 31
0.0
  0
LINE
  5
41
  8
0
 62
     7
 10
41.458199999999991
 20
130.732
 30
0.0
 11
93.058499999999995
 21
130.732
 31
0.0
  0
ARC
  5
42
  8
0
 62
     7
 10
93.058387999999994
 20
129.53201599999991
 30
0.0
 40
1.2001930000000001
 50
359.99589800000001
 51
89.995868999999999
  0
LINE
  5
43
  8
0
 62
     7
 10
40.258299999999998
 20
129.53200000000001
 30
0.0
 11
40.258299999999998
 21
110.732
 31
0.0
  0
ARC
  5
44
  8
0
 62
     7
 10
41.45836899999999
 20
129.53210299999989
 30
0.0
 40
1.200107
 50
90.008223999999998
 51
180.00823399999999
  0
LINE
  5
45
  8
0
  6
AIGENLINE001
 62
     7
 10
62.758299999999998
 20
103.732
 30
0.0
 11
62.758299999999998
 21
111.9529999999999
 31
0.0
  0
LINE
  5
46
  8
0
  6
AIGENLINE002
 62
     7
 10
67.258300000000006
 20
100.76600000000001
 30
0.0
 11
67.258300000000006
 21
134.02099999999999
 31
0.0
  0
LINE
  5
47
  8
0
 62
     7
 10
40.258299999999998
 20
110.732
 30
0.0
 11
94.258600000000001
 21
110.732
 31
0.0
  0
ARC
  5
48
  8
0
 62
     7
 10
153.059201
 20
108.884888
 30
0.0
 40
1.0316529999999999
 50
103.03953799999989
 51
178.59697299999991
  0
ARC
  5
49
  8
0
 62
     7
 10
154.30267399999991
 20
115.06696599999989
 30
0.0
 40
4.665754999999999
 50
286.51106600000003
 51
291.70214199999992
  0
ARC
  5
4A
  8
0
 62
     7
 10
149.45468099999991
 20
130.63049499999991
 30
0.0
 40
20.966528
 50
284.16241200000002
 51
287.12573500000002
  0
ARC
  5
4B
  8
0
 62
     7
 10
143.913329
 20
151.93493399999991
 30
0.0
 40
42.979551000000001
 50
281.96793700000001
 51
284.37616800000001
  0
ARC
  5
4C
  8
0
  6
AIGENLINE001
 62
     7
 10
150.55613799999989
 20
111.9316199999999
 30
0.0
 40
1.028621999999999
 50
107.10348999999999
 51
178.815969
  0
ARC
  5
4D
  8
0
  6
AIGENLINE001
 62
     7
 10
169.61442600000001
 20
128.674734
 30
0.0
 40
2.0579099999999988
 50
91.178037000000003
 51
162.400296
  0
LINE
  5
4E
  8
0
 62
     7
 10
152.02799999999991
 20
108.9099999999999
 30
0.0
 11
152.02799999999991
 21
104.732
 31
0.0
  0
ARC
  5
4F
  8
0
  6
AIGENLINE001
 62
     7
 10
144.860679
 20
136.19274599999989
 30
0.0
 40
23.812483
 50
293.8212299999999
 51
343.16680200000002
  0
ARC
  5
50
  8
0
  6
AIGENLINE001
 62
     7
 10
143.33894100000001
 20
139.1838709999999
 30
0.0
 40
27.164023999999991
 50
284.74785299999991
 51
294.20940699999989
  0
LINE
  5
51
  8
0
  6
AIGENLINE001
 62
     7
 10
149.52799999999991
 20
103.732
 30
0.0
 11
149.52799999999991
 21
111.9529999999999
 31
0.0
  0
ARC
  5
52
  8
0
 62
     7
 10
136.996668
 20
108.8853129999999
 30
0.0
 40
1.0312209999999991
 50
1.379958999999999
 51
76.959276000000003
  0
ARC
  5
53
  8
0
 62
     7
 10
135.74767299999991
 20
115.049707
 30
0.0
 40
4.6477059999999986
 50
248.28156299999989
 51
253.49092899999991
  0
ARC
  5
54
  8
0
 62
     7
 10
140.59390500000001
 20
130.6036409999999
 30
0.0
 40
20.938790000000001
 50
252.87106900000001
 51
255.83806200000001
  0
ARC
  5
55
  8
0
 62
     7
 10
146.12922800000001
 20
151.88507399999989
 30
0.0
 40
42.92803
 50
255.62410600000001
 51
258.03556400000002
  0
ARC
  5
56
  8
0
  6
AIGENLINE001
 62
     7
 10
139.49930800000001
 20
111.9316199999999
 30
0.0
 40
1.0286230000000001
 50
1.1840289999999991
 51
72.896472000000003
  0
ARC
  5
57
  8
0
  6
AIGENLINE001
 62
     7
 10
120.44136
 20
128.67519899999991
 30
0.0
 40
2.0574460000000001
 50
17.590215000000001
 51
88.821545999999984
  0
LINE
  5
58
  8
0
 62
     7
 10
135.565
 20
191.9679999999999
 30
0.0
 11
134.42099999999991
 21
189.9859999999999
 31
0.0
  0
LINE
  5
59
  8
0
 62
     7
 10
134.42099999999991
 20
189.9859999999999
 30
0.0
 11
136.40299999999991
 21
191.12999999999991
 31
0.0
  0
LINE
  5
5A
  8
0
 62
     7
 10
136.40299999999991
 20
191.12999999999991
 30
0.0
 11
135.565
 21
191.9679999999999
 31
0.0
  0
LINE
  5
5B
  8
0
 62
     7
 10
154.49000000000001
 20
209.21700000000001
 30
0.0
 11
155.6339999999999
 21
211.19900000000001
 31
0.0
  0
LINE
  5
5C
  8
0
 62
     7
 10
155.6339999999999
 20
211.19900000000001
 30
0.0
 11
153.65199999999999
 21
210.05500000000001
 31
0.0
  0
LINE
  5
5D
  8
0
 62
     7
 10
153.65199999999999
 20
210.05500000000001
 30
0.0
 11
154.49000000000001
 21
209.21700000000001
 31
0.0
  0
LINE
  5
5E
  8
0
 62
     7
 10
134.42099999999991
 20
189.9859999999999
 30
0.0
 11
155.6339999999999
 21
211.19900000000001
 31
0.0
  0
LINE
  5
5F
  8
0
 62
     7
 10
81.247399999999999
 20
208.25200000000001
 30
0.0
 11
74.917900000000003
 21
208.25200000000001
 31
0.0
  0
LINE
  5
60
  8
0
 62
     7
 10
71.579400000000007
 20
205.76099999999991
 30
0.0
 11
70.435100000000006
 21
203.779
 31
0.0
  0
LINE
  5
61
  8
0
 62
     7
 10
70.435100000000006
 20
203.779
 30
0.0
 11
72.417100000000005
 21
204.923
 31
0.0
  0
LINE
  5
62
  8
0
 62
     7
 10
72.417100000000005
 20
204.923
 30
0.0
 11
71.579400000000007
 21
205.76099999999991
 31
0.0
  0
LINE
  5
63
  8
0
 62
     7
 10
62.975900000000003
 20
195.38900000000001
 30
0.0
 11
64.120199999999997
 21
197.37
 31
0.0
  0
LINE
  5
64
  8
0
 62
     7
 10
64.120199999999997
 20
197.37
 30
0.0
 11
62.138199999999998
 21
196.226
 31
0.0
  0
LINE
  5
65
  8
0
 62
     7
 10
62.138199999999998
 20
196.226
 30
0.0
 11
62.975900000000003
 21
195.38900000000001
 31
0.0
  0
LINE
  5
66
  8
0
 62
     7
 10
59.8596
 20
193.19399999999999
 30
0.0
 11
74.917900000000003
 21
208.25200000000001
 31
0.0
  0
LINE
  5
67
  8
0
 62
     7
 10
108.6049999999999
 20
103.732
 30
0.0
 11
76.263199999999983
 21
103.732
 31
0.0
  0
LINE
  5
68
  8
0
 62
     7
 10
107.119
 20
105.943
 30
0.0
 11
107.711
 21
103.732
 31
0.0
  0
LINE
  5
69
  8
0
 62
     7
 10
107.711
 20
103.732
 30
0.0
 11
108.304
 21
105.943
 31
0.0
  0
LINE
  5
6A
  8
0
 62
     7
 10
108.304
 20
105.943
 30
0.0
 11
107.119
 21
105.943
 31
0.0
  0
LINE
  5
6B
  8
0
 62
     7
 10
108.289
 20
128.52099999999999
 30
0.0
 11
107.6969999999999
 21
130.732
 31
0.0
  0
LINE
  5
6C
  8
0
 62
     7
 10
107.6969999999999
 20
130.732
 30
0.0
 11
107.1039999999999
 21
128.52099999999999
 31
0.0
  0
LINE
  5
6D
  8
0
 62
     7
 10
107.1039999999999
 20
128.52099999999999
 30
0.0
 11
108.289
 21
128.52099999999999
 31
0.0
  0
LINE
  5
6E
  8
0
 62
     7
 10
107.70399999999989
 20
103.732
 30
0.0
 11
107.70399999999989
 21
130.732
 31
0.0
  0
LINE
  5
6F
  8
0
 62
     7
 10
95.300700000000006
 20
110.732
 30
0.0
 11
102.361
 21
110.732
 31
0.0
  0
LINE
  5
70
  8
0
 62
     7
 10
95.300700000000006
 20
130.732
 30
0.0
 11
108.6049999999999
 21
130.732
 31
0.0
  0
LINE
  5
71
  8
0
 62
     7
 10
100.875
 20
112.9429999999999
 30
0.0
 11
101.467
 21
110.732
 31
0.0
  0
LINE
  5
72
  8
0
 62
     7
 10
101.467
 20
110.732
 30
0.0
 11
102.0599999999999
 21
112.9429999999999
 31
0.0
  0
LINE
  5
73
  8
0
 62
     7
 10
102.0599999999999
 20
112.9429999999999
 30
0.0
 11
100.875
 21
112.9429999999999
 31
0.0
  0
LINE
  5
74
  8
0
 62
     7
 10
102.045
 20
128.52099999999999
 30
0.0
 11
101.4529999999999
 21
130.732
 31
0.0
  0
LINE
  5
75
  8
0
 62
     7
 10
101.4529999999999
 20
130.732
 30
0.0
 11
100.8599999999999
 21
128.52099999999999
 31
0.0
  0
LINE
  5
76
  8
0
 62
     7
 10
100.8599999999999
 20
128.52099999999999
 30
0.0
 11
102.045
 21
128.52099999999999
 31
0.0
  0
LINE
  5
77
  8
0
 62
     7
 10
101.45999999999989
 20
110.732
 30
0.0
 11
101.45999999999989
 21
130.732
 31
0.0
  0
LINE
  5
78
  8
0
 62
     7
 10
94.258600000000001
 20
156.17099999999991
 30
0.0
 11
94.258600000000001
 21
191.3059999999999
 31
0.0
  0
LINE
  5
79
  8
0
 62
     7
 10
40.258299999999998
 20
156.17099999999991
 30
0.0
 11
40.258299999999998
 21
191.3059999999999
 31
0.0
  0
LINE
  5
7A
  8
0
 62
     7
 10
90.258599999999987
 20
162.79300000000001
 30
0.0
 11
90.258599999999987
 21
192.22599999999991
 31
0.0
  0
LINE
  5
7B
  8
0
 62
     7
 10
44.258200000000002
 20
162.79300000000001
 30
0.0
 11
44.258200000000002
 21
192.22599999999991
 31
0.0
  0
LINE
  5
7C
  8
0
 62
     7
 10
46.468600000000002
 20
164.179
 30
0.0
 11
44.258200000000002
 21
163.58699999999999
 31
0.0
  0
LINE
  5
7D
  8
0
 62
     7
 10
44.258200000000002
 20
163.58699999999999
 30
0.0
 11
46.468600000000002
 21
162.99399999999989
 31
0.0
  0
LINE
  5
7E
  8
0
 62
     7
 10
46.468600000000002
 20
162.99399999999989
 30
0.0
 11
46.468600000000002
 21
164.179
 31
0.0
  0
LINE
  5
7F
  8
0
 62
     7
 10
88.048100000000005
 20
163.0089999999999
 30
0.0
 11
90.258599999999987
 21
163.60099999999991
 31
0.0
  0
LINE
  5
80
  8
0
 62
     7
 10
90.258599999999987
 20
163.60099999999991
 30
0.0
 11
88.048100000000005
 21
164.1929999999999
 31
0.0
  0
LINE
  5
81
  8
0
 62
     7
 10
88.048100000000005
 20
164.1929999999999
 30
0.0
 11
88.048100000000005
 21
163.0089999999999
 31
0.0
  0
LINE
  5
82
  8
0
 62
     7
 10
44.258200000000002
 20
163.59399999999991
 30
0.0
 11
90.258599999999987
 21
163.59399999999991
 31
0.0
  0
LINE
  5
83
  8
0
 62
     7
 10
42.468600000000002
 20
157.55699999999999
 30
0.0
 11
40.258299999999998
 21
156.965
 31
0.0
  0
LINE
  5
84
  8
0
 62
     7
 10
40.258299999999998
 20
156.965
 30
0.0
 11
42.468600000000002
 21
156.37200000000001
 31
0.0
  0
LINE
  5
85
  8
0
 62
     7
 10
42.468600000000002
 20
156.37200000000001
 30
0.0
 11
42.468600000000002
 21
157.55699999999999
 31
0.0
  0
LINE
  5
86
  8
0
 62
     7
 10
92.048199999999994
 20
156.387
 30
0.0
 11
94.258600000000001
 21
156.9789999999999
 31
0.0
  0
LINE
  5
87
  8
0
 62
     7
 10
94.258600000000001
 20
156.9789999999999
 30
0.0
 11
92.048199999999994
 21
157.572
 31
0.0
  0
LINE
  5
88
  8
0
 62
     7
 10
92.048199999999994
 20
157.572
 30
0.0
 11
92.048199999999994
 21
156.387
 31
0.0
  0
LINE
  5
89
  8
0
 62
     7
 10
40.258299999999998
 20
156.97200000000001
 30
0.0
 11
94.258600000000001
 21
156.97200000000001
 31
0.0
  0
LINE
  5
8A
  8
0
 62
     7
 10
139.02799999999991
 20
103.732
 30
0.0
 11
151.02799999999991
 21
103.732
 31
0.0
  0
LINE
  5
8B
  8
0
 62
     7
 10
138.02799999999991
 20
108.9099999999999
 30
0.0
 11
138.02799999999991
 21
104.732
 31
0.0
  0
ARC
  5
8C
  8
0
  6
AIGENLINE001
 62
     7
 10
145.1945649999999
 20
136.19269299999991
 30
0.0
 40
23.812273999999992
 50
196.833235
 51
246.17960899999991
  0
ARC
  5
8D
  8
0
  6
AIGENLINE001
 62
     7
 10
146.71709999999999
 20
139.18570099999999
 30
0.0
 40
27.165856999999988
 50
245.79142599999989
 51
255.25264000000001
  0
ARC
  5
8E
  8
0
 62
     7
 10
139.02770699999991
 20
104.731909
 30
0.0
 40
1.000116999999999
 50
179.99996999999991
 51
270.00002000000001
  0
ARC
  5
8F
  8
0
 62
     7
 10
151.02773899999991
 20
104.7319099999999
 30
0.0
 40
1.0001180000000001
 50
270.00002000000001
 51
359.99998999999991
  0
LINE
  5
90
  8
0
 62
     7
 10
172.02799999999991
 20
129.53200000000001
 30
0.0
 11
172.02799999999991
 21
110.732
 31
0.0
  0
LINE
  5
91
  8
0
 62
     7
 10
119.22799999999999
 20
130.732
 30
0.0
 11
170.828
 21
130.732
 31
0.0
  0
ARC
  5
92
  8
0
 62
     7
 10
170.78162900000001
 20
129.48605499999991
 30
0.0
 40
1.2470110000000001
 50
2.108279
 51
87.875263000000004
  0
LINE
  5
93
  8
0
 62
     7
 10
118.02799999999991
 20
129.53200000000001
 30
0.0
 11
118.02799999999991
 21
110.732
 31
0.0
  0
ARC
  5
94
  8
0
 62
     7
 10
119.2734929999999
 20
129.48637999999991
 30
0.0
 40
1.2466749999999991
 50
92.110357999999977
 51
177.90606
  0
LINE
  5
95
  8
0
  6
AIGENLINE001
 62
     7
 10
140.52799999999991
 20
103.732
 30
0.0
 11
140.52799999999991
 21
111.9529999999999
 31
0.0
  0
LINE
  5
96
  8
0
  6
AIGENLINE002
 62
     7
 10
145.02799999999999
 20
100.76600000000001
 30
0.0
 11
145.02799999999999
 21
134.02099999999999
 31
0.0
  0
LINE
  5
97
  8
0
 62
     7
 10
118.02799999999991
 20
110.732
 30
0.0
 11
172.02799999999991
 21
110.732
 31
0.0
  0
LINE
  5
98
  8
0
  6
AIGENLINE002
 62
     7
 10
145.02799999999999
 20
182.77199999999999
 30
0.0
 11
145.02799999999999
 21
218.10299999999989
 31
0.0
  0
LINE
  5
99
  8
0
  6
AIGENLINE002
 62
     7
 10
163.1579999999999
 20
200.59200000000001
 30
0.0
 11
127.05200000000001
 21
200.59200000000001
 31
0.0
  0
ARC
  5
9A
  8
0
 62
     7
 10
145.0277209999999
 20
200.592467
 30
0.0
 40
15.000043
 50
0.00001
 51
89.999980000000008
  0
ARC
  5
9B
  8
0
 62
     7
 10
145.0275539999999
 20
200.59229499999989
 30
0.0
 40
15.00021499999999
 50
89.999342000000013
 51
179.999312
  0
ARC
  5
9C
  8
0
 62
     7
 10
145.027635
 20
200.59255300000001
 30
0.0
 40
15.00029599999999
 50
180.000339
 51
270.00034900000003
  0
ARC
  5
9D
  8
0
 62
     7
 10
145.027635
 20
200.592386
 30
0.0
 40
15.000128999999999
 50
270.00034900000003
 51
0.000319
  0
LINE
  5
9E
  8
0
  6
AIGENLINE002
 62
     7
 10
67.258300000000006
 20
170.608
 30
0.0
 11
67.258300000000006
 21
230.11199999999999
 31
0.0
  0
LINE
  5
9F
  8
0
 62
     7
 10
156.8179999999999
 20
175.52000000000001
 30
0.0
 11
133.12299999999991
 21
175.52000000000001
 31
0.0
  0
LINE
  5
A0
  8
0
  6
AIGENLINE002
 62
     7
 10
97.243300000000005
 20
200.59200000000001
 30
0.0
 11
37.428400000000003
 21
200.59200000000001
 31
0.0
  0
ARC
  5
A1
  8
0
 62
     7
 10
67.258420999999998
 20
200.5923829999999
 30
0.0
 40
4.5000989999999987
 50
0.001107
 51
90.001076999999995
  0
ARC
  5
A2
  8
0
 62
     7
 10
67.258336
 20
200.59246899999999
 30
0.0
 40
4.500013
 50
90.0
 51
179.99996999999991
  0
ARC
  5
A3
  8
0
 62
     7
 10
67.258335000000002
 20
200.59246899999999
 30
0.0
 40
4.5000109999999989
 50
179.99996999999991
 51
270.00002000000001
  0
ARC
  5
A4
  8
0
 62
     7
 10
67.258420999999998
 20
200.592556
 30
0.0
 40
4.5000989999999987
 50
269.99892299999988
 51
359.99889300000001
  0
ARC
  5
A5
  8
0
 62
     7
 10
67.258420000000001
 20
200.59238199999999
 30
0.0
 40
7.0000489999999997
 50
0.000715
 51
90.000685000000004
  0
ARC
  5
A6
  8
0
 62
     7
 10
67.258336999999983
 20
200.592468
 30
0.0
 40
6.9999630000000002
 50
90.0
 51
179.99996999999991
  0
ARC
  5
A7
  8
0
 62
     7
 10
67.258420000000001
 20
200.59238199999999
 30
0.0
 40
7.0000460000000002
 50
179.99926499999989
 51
269.99931499999991
  0
ARC
  5
A8
  8
0
 62
     7
 10
67.258333999999991
 20
200.5924709999999
 30
0.0
 40
7.0001350000000002
 50
270.00002000000001
 51
359.99998999999991
  0
ARC
  5
A9
  8
0
 62
     7
 10
67.258417000000009
 20
200.59237899999991
 30
0.0
 40
23.000209999999999
 50
0.000224
 51
90.000194999999977
  0
ARC
  5
AA
  8
0
 62
     7
 10
67.258339000000007
 20
200.592466
 30
0.0
 40
23.000123999999989
 50
90.0
 51
179.99996999999991
  0
ARC
  5
AB
  8
0
 62
     7
 10
67.258331000000013
 20
200.592466
 30
0.0
 40
23.000115999999998
 50
179.99996999999991
 51
270.00002000000001
  0
ARC
  5
AC
  8
0
 62
     7
 10
67.258417000000009
 20
200.59255999999999
 30
0.0
 40
23.000209999999999
 50
269.99980499999998
 51
359.999776
  0
ARC
  5
AD
  8
0
 62
     7
 10
67.258417000000009
 20
200.59237899999991
 30
0.0
 40
27.000164000000002
 50
0.000193
 51
90.000163000000015
  0
ARC
  5
AE
  8
0
 62
     7
 10
67.258340000000004
 20
200.59246499999989
 30
0.0
 40
27.000077999999998
 50
90.0
 51
179.99996999999991
  0
ARC
  5
AF
  8
0
 62
     7
 10
67.258417000000009
 20
200.59237899999991
 30
0.0
 40
27.000153999999991
 50
179.999787
 51
269.99983700000001
  0
ARC
  5
B0
  8
0
 62
     7
 10
67.258331000000013
 20
200.59247400000001
 30
0.0
 40
27.000250000000001
 50
270.00002000000001
 51
359.99998999999991
  0
LINE
  5
B1
  8
_________2
 62
     7
 10
210.24000000000001
 20
148.93100000000001
 30
0.0
 11
188.49000000000001
 21
148.93100000000001
 31
0.0
  0
LINE
  5
B2
  8
_________2
 62
     7
 10
105.2389999999999
 20
17.428499999999989
 30
0.0
 11
105.2389999999999
 21
0.4482100000000001
 31
0.0
  0
LINE
  5
B3
  8
_________2
 62
     7
 10
105.2389999999999
 20
297.44999999999987
 30
0.0
 11
105.2389999999999
 21
280.42999999999989
 31
0.0
  0
LINE
  5
B4
  8
_________2
 62
     7
 10
21.988499999999991
 20
148.93100000000001
 30
0.0
 11
0.238058
 21
148.93100000000001
 31
0.0
  0
LINE
  5
B5
  8
_________2
 62
     7
 10
81.679900000000004
 20
51.324300000000001
 30
0.0
 11
79.493700000000004
 21
51.324300000000001
 31
0.0
  0
LINE
  5
B6
  8
_________2
 62
     7
 10
82.172600000000017
 20
51.324300000000001
 30
0.0
 11
81.920400000000001
 21
51.324300000000001
 31
0.0
  0
LINE
  5
B7
  8
_________2
 62
     7
 10
82.665199999999984
 20
51.324300000000001
 30
0.0
 11
85.590100000000007
 21
51.324300000000001
 31
0.0
  0
LINE
  5
B8
  8
_________2
 62
     7
 10
82.172600000000017
 20
51.324300000000001
 30
0.0
 11
82.424800000000005
 21
51.324300000000001
 31
0.0
  0
LINE
  5
B9
  8
_________2
 62
     7
 10
75.776399999999995
 20
51.324300000000001
 30
0.0
 11
73.589399999999998
 21
51.324300000000001
 31
0.0
  0
LINE
  5
BA
  8
_________2
 62
     7
 10
76.2684
 20
51.324300000000001
 30
0.0
 11
76.016900000000007
 21
51.324300000000001
 31
0.0
  0
LINE
  5
BB
  8
_________2
 62
     7
 10
76.2684
 20
51.817
 30
0.0
 11
76.2684
 21
54.003900000000002
 31
0.0
  0
LINE
  5
BC
  8
_________2
 62
     7
 10
76.2684
 20
51.324300000000001
 30
0.0
 11
76.2684
 21
51.576500000000003
 31
0.0
  0
LINE
  5
BD
  8
_________2
 62
     7
 10
76.76100000000001
 20
51.324300000000001
 30
0.0
 11
78.947999999999993
 21
51.324300000000001
 31
0.0
  0
LINE
  5
BE
  8
_________2
 62
     7
 10
76.2684
 20
51.324300000000001
 30
0.0
 11
76.520499999999998
 21
51.324300000000001
 31
0.0
  0
LINE
  5
BF
  8
_________2
 62
     7
 10
76.2684
 20
50.832399999999993
 30
0.0
 11
76.2684
 21
48.645400000000002
 31
0.0
  0
LINE
  5
C0
  8
_________2
 62
     7
 10
76.2684
 20
51.324300000000001
 30
0.0
 11
76.2684
 21
51.072800000000001
 31
0.0
  0
LINE
  5
C1
  8
_________2
 62
     7
 10
79.979399999999984
 20
50.104799999999997
 30
0.0
 11
85.157399999999996
 21
49.240000000000002
 31
0.0
  0
LINE
  5
C2
  8
_________2
 62
     7
 10
79.979399999999984
 20
52.543900000000001
 30
0.0
 11
85.157399999999996
 21
53.409300000000002
 31
0.0
  0
LINE
  5
C3
  8
_________2
 62
     7
 10
85.157399999999996
 20
49.240000000000002
 30
0.0
 11
85.157399999999996
 21
53.409300000000002
 31
0.0
  0
LINE
  5
C4
  8
_________2
 62
     7
 10
79.979399999999984
 20
50.104799999999997
 30
0.0
 11
79.979399999999984
 21
52.543900000000001
 31
0.0
  0
ARC
  5
C5
  8
_________2
 62
     7
 10
76.222110000000001
 20
51.277366999999991
 30
0.0
 40
1.2673709999999989
 50
2.1232950000000002
 51
87.909056000000007
  0
ARC
  5
C6
  8
_________2
 62
     7
 10
76.315273000000005
 20
51.277400999999998
 30
0.0
 40
1.267363
 50
92.121785999999986
 51
177.878185
  0
ARC
  5
C7
  8
_________2
 62
     7
 10
76.315273000000005
 20
51.371245999999992
 30
0.0
 40
1.267363
 50
182.12181499999991
 51
267.87821400000001
  0
ARC
  5
C8
  8
_________2
 62
     7
 10
76.221461000000005
 20
51.371928999999987
 30
0.0
 40
1.2680439999999991
 50
272.11916400000001
 51
357.84848499999993
  0
ARC
  5
C9
  8
_________2
 62
     7
 10
76.268349999999984
 20
51.324323
 30
0.0
 40
2.0849849999999992
 50
0.00001
 51
89.999980000000008
  0
ARC
  5
CA
  8
_________2
 62
     7
 10
76.348388
 20
51.245001999999992
 30
0.0
 40
2.1657860000000002
 50
92.117855000000034
 51
177.90105299999991
  0
ARC
  5
CB
  8
_________2
 62
     7
 10
76.348354
 20
51.404327000000002
 30
0.0
 40
2.1657779999999991
 50
182.11700400000001
 51
267.88302499999992
  0
ARC
  5
CC
  8
_________2
 62
     7
 10
76.188378999999983
 20
51.405009999999997
 30
0.0
 40
2.1664590000000001
 50
272.11546800000002
 51
357.86560400000002
  0
TEXT
  5
CD
  8
_________2
 62
     7
 10
109.5439999999999
 20
23.199100000000001
 30
0.0
 40
3.0923400000000001
  1
図番
 41
0.5
  0
LINE
  5
CE
  8
_________2
 62
     7
 10
108.4889999999999
 20
27.4283
 30
0.0
 11
188.49000000000001
 21
27.4283
 31
0.0
  0
TEXT
  5
CF
  8
_________2
 62
     7
 10
109.5439999999999
 20
33.198900000000002
 30
0.0
 40
3.0923400000000001
  1
品番
 41
0.5
  0
TEXT
  5
D0
  8
_________2
 62
     7
 10
109.5439999999999
 20
53.337699999999998
 30
0.0
 40
3.0923400000000001
  1
名称
 41
0.5
  0
TEXT
  5
D1
  8
_________2
 62
     7
 10
96.784058333333334
 20
48.341500000000011
 30
0.0
 40
3.6545800000000002
  1
mm
 41
0.5
 72
     1
 11
98.306799999999996
 21
48.341500000000011
 31
0.0
  0
TEXT
  5
D2
  8
_________2
 62
     7
 10
90.582099999999997
 20
53.337699999999998
 30
0.0
 40
3.0923400000000001
  1
単位
 41
0.5
  0
TEXT
  5
D3
  8
_________2
 62
     7
 10
90.582099999999997
 20
40.930399999999999
 30
0.0
 40
3.0923400000000001
  1
尺度
 41
0.5
  0
TEXT
  5
D4
  8
_________2
 62
     7
 10
95.487658666666675
 20
34.73749999999999
 30
0.0
 40
3.6545800000000002
  1
1 ： 5
 41
0.5
 72
     1
 11
98.898600000000002
 21
34.73749999999999
 31
0.0
  0
TEXT
  5
D5
  8
_________2
 62
     7
 10
140.12563750000001
 20
30.627400000000002
 30
0.0
 40
3.9357000000000002
  1
FL5059-22
 41
0.5
 72
     1
 11
148.489
 21
30.627400000000002
 31
0.0
  0
TEXT
  5
D6
  8
_________2
 62
     7
 10
140.12563750000001
 20
20.626999999999988
 30
0.0
 40
3.9357000000000002
  1
FL5059-22
 41
0.5
 72
     1
 11
148.489
 21
20.626999999999988
 31
0.0
  0
TEXT
  5
D7
  8
_________2
 62
     7
 10
114.11799999999999
 20
45.7453
 30
0.0
 40
3.9357000000000002
  1
カウンター式手洗器
 41
0.5
  0
TEXT
  5
D8
  8
_________2
 62
     7
 10
44.364200333333329
 20
35.122599999999991
 30
0.0
 40
3.6545800000000002
  1
福田
 41
0.5
 72
     1
 11
46.252400000000002
 21
35.122599999999991
 31
0.0
  0
TEXT
  5
D9
  8
_________2
 62
     7
 10
25.72929066666666
 20
35.122599999999991
 30
0.0
 40
3.6545800000000002
  1
石原
 41
0.5
 72
     1
 11
27.6784
 21
35.122599999999991
 31
0.0
  0
TEXT
  5
DA
  8
_________2
 62
     7
 10
72.724699999999999
 20
34.73749999999999
 30
0.0
 40
3.6545800000000002
  1
05.06.16
 41
0.5
  0
TEXT
  5
DB
  8
_________2
 62
     7
 10
71.531999999999996
 20
40.930399999999999
 30
0.0
 40
3.0923400000000001
  1
日付
 41
0.5
  0
TEXT
  5
DC
  8
_________2
 62
     7
 10
34.578299999999992
 20
40.930399999999999
 30
0.0
 40
3.0923400000000001
  1
検図
 41
0.5
  0
TEXT
  5
DD
  8
_________2
 62
     7
 10
22.960000000000001
 20
26.730999999999991
 30
0.0
 40
3.0923400000000001
  1
備考
 41
0.5
  0
TEXT
  5
DE
  8
_________2
 62
     7
 10
22.960000000000001
 20
40.930399999999999
 30
0.0
 40
3.0923400000000001
  1
製図
 41
0.5
  0
TEXT
  5
DF
  8
_________2
 62
     7
 10
28.727365333333339
 20
49.456400000000002
 30
0.0
 40
4.4979399999999989
  1
セラトレーディング株式会社
 41
0.5
 72
     1
 11
46.119399999999992
 21
49.456400000000002
 31
0.0
  0
LINE
  5
E0
  8
_________2
 62
     7
 10
188.49000000000001
 20
17.428499999999989
 30
0.0
 11
21.988499999999991
 21
17.428499999999989
 31
0.0
  0
LINE
  5
E1
  8
_________2
 62
     7
 10
21.988499999999991
 20
17.428499999999989
 30
0.0
 11
21.988499999999991
 21
280.42999999999989
 31
0.0
  0
LINE
  5
E2
  8
_________2
 62
     7
 10
21.988499999999991
 20
280.42999999999989
 30
0.0
 11
188.49000000000001
 21
280.42999999999989
 31
0.0
  0
LINE
  5
E3
  8
_________2
 62
     7
 10
188.49000000000001
 20
280.42999999999989
 30
0.0
 11
188.49000000000001
 21
17.428499999999989
 31
0.0
  0
LINE
  5
E4
  8
_________2
 62
     7
 10
70.488799999999998
 20
30.9285
 30
0.0
 11
70.488799999999998
 21
57.428400000000011
 31
0.0
  0
LINE
  5
E5
  8
_________2
 62
     7
 10
89.488600000000005
 20
30.9285
 30
0.0
 11
89.488600000000005
 21
57.428400000000011
 31
0.0
  0
LINE
  5
E6
  8
_________2
 62
     7
 10
108.4889999999999
 20
17.428499999999989
 30
0.0
 11
108.4889999999999
 21
57.428400000000011
 31
0.0
  0
LINE
  5
E7
  8
_________2
 62
     7
 10
33.488300000000002
 20
30.9285
 30
0.0
 11
33.488300000000002
 21
44.928800000000003
 31
0.0
  0
LINE
  5
E8
  8
_________2
 62
     7
 10
21.988499999999991
 20
30.9285
 30
0.0
 11
108.4889999999999
 21
30.9285
 31
0.0
  0
LINE
  5
E9
  8
_________2
 62
     7
 10
21.988499999999991
 20
44.928800000000003
 30
0.0
 11
108.4889999999999
 21
44.928800000000003
 31
0.0
  0
LINE
  5
EA
  8
_________2
 62
     7
 10
108.4889999999999
 20
37.428100000000001
 30
0.0
 11
188.49000000000001
 21
37.428100000000001
 31
0.0
  0
LINE
  5
EB
  8
_________2
 62
     7
 10
21.988499999999991
 20
57.428400000000011
 30
0.0
 11
188.49000000000001
 21
57.428400000000011
 31
0.0
  0
ENDSEC
  0
EOF
