  0
SECTION
  2
HEADER
  9
$ACADVER
  1
AC1009
  9
$INSBASE
 10
0.0
 20
0.0
 30
0.0
  9
$EXTMIN
 10
-104.794
 20
0.176045
 30
0.0
  9
$EXTMAX
 10
315.209
 20
297.178
 30
0.0
  9
$LIMMIN
 10
0.0
 20
0.0
  9
$LIMMAX
 10
12.0
 20
9.0
  9
$ORTHOMODE
 70
     0
  9
$REGENMODE
 70
     1
  9
$FILLMODE
 70
     1
  9
$QTEXTMODE
 70
     0
  9
$MIRRTEXT
 70
     1
  9
$DRAGMODE
 70
     2
  9
$LTSCALE
 40
1.0
  9
$OSMODE
 70
    37
  9
$ATTMODE
 70
     1
  9
$TEXTSIZE
 40
0.0
  9
$TRACEWID
 40
0.05
  9
$TEXTSTYLE
  7
STANDARD
  9
$CLAYER
  8
0
  9
$CELTYPE
  6
CONTINUOUS
  9
$CECOLOR
 62
   256
  9
$DIMSCALE
 40
1.0
  9
$DIMASZ
 40
0.18
  9
$DIMEXO
 40
0.0625
  9
$DIMDLI
 40
0.38
  9
$DIMRND
 40
0.0
  9
$DIMDLE
 40
0.0
  9
$DIMEXE
 40
0.18
  9
$DIMTP
 40
0.0
  9
$DIMTM
 40
0.0
  9
$DIMTXT
 40
0.18
  9
$DIMCEN
 40
0.09
  9
$DIMTSZ
 40
0.0
  9
$DIMTOL
 70
     0
  9
$DIMLIM
 70
     0
  9
$DIMTIH
 70
     1
  9
$DIMTOH
 70
     1
  9
$DIMSE1
 70
     0
  9
$DIMSE2
 70
     0
  9
$DIMTAD
 70
     0
  9
$DIMZIN
 70
     0
  9
$DIMBLK
  1

  9
$DIMASO
 70
     1
  9
$DIMSHO
 70
     1
  9
$DIMPOST
  1

  9
$DIMAPOST
  1

  9
$DIMALT
 70
     0
  9
$DIMALTD
 70
     2
  9
$DIMALTF
 40
25.399999999999999
  9
$DIMLFAC
 40
1.0
  9
$DIMTOFL
 70
     0
  9
$DIMTVP
 40
0.0
  9
$DIMTIX
 70
     0
  9
$DIMSOXD
 70
     0
  9
$DIMSAH
 70
     0
  9
$DIMBLK1
  1

  9
$DIMBLK2
  1

  9
$DIMSTYLE
  2
STANDARD
  9
$DIMCLRD
 70
     0
  9
$DIMCLRE
 70
     0
  9
$DIMCLRT
 70
     0
  9
$DIMTFAC
 40
1.0
  9
$DIMGAP
 40
0.09
  9
$LUNITS
 70
     2
  9
$LUPREC
 70
     4
  9
$SKETCHINC
 40
0.1
  9
$FILLETRAD
 40
0.0
  9
$AUNITS
 70
     0
  9
$AUPREC
 70
     0
  9
$MENU
  1
.
  9
$ELEVATION
 40
0.0
  9
$PELEVATION
 40
0.0
  9
$THICKNESS
 40
0.0
  9
$LIMCHECK
 70
     0
  9
$BLIPMODE
 70
     0
  9
$CHAMFERA
 40
0.0
  9
$CHAMFERB
 40
0.0
  9
$SKPOLY
 70
     0
  9
$TDCREATE
 40
2444972.375
  9
$TDUPDATE
 40
2459326.2067601969
  9
$TDINDWG
 40
0.0000426389
  9
$TDUSRTIMER
 40
0.0000426389
  9
$USRTIMER
 70
     1
  9
$ANGBASE
 50
0.0
  9
$ANGDIR
 70
     0
  9
$PDMODE
 70
     0
  9
$PDSIZE
 40
0.0
  9
$PLINEWID
 40
0.0
  9
$COORDS
 70
     1
  9
$SPLFRAME
 70
     0
  9
$SPLINETYPE
 70
     6
  9
$SPLINESEGS
 70
     8
  9
$ATTDIA
 70
     1
  9
$ATTREQ
 70
     1
  9
$HANDLING
 70
     1
  9
$HANDSEED
  5
1FD
  9
$SURFTAB1
 70
     6
  9
$SURFTAB2
 70
     6
  9
$SURFTYPE
 70
     6
  9
$SURFU
 70
     6
  9
$SURFV
 70
     6
  9
$UCSNAME
  2

  9
$UCSORG
 10
0.0
 20
0.0
 30
0.0
  9
$UCSXDIR
 10
1.0
 20
0.0
 30
0.0
  9
$UCSYDIR
 10
0.0
 20
1.0
 30
0.0
  9
$PUCSNAME
  2

  9
$PUCSORG
 10
0.0
 20
0.0
 30
0.0
  9
$PUCSXDIR
 10
1.0
 20
0.0
 30
0.0
  9
$PUCSYDIR
 10
0.0
 20
1.0
 30
0.0
  9
$USERI1
 70
     0
  9
$USERI2
 70
     0
  9
$USERI3
 70
     0
  9
$USERI4
 70
     0
  9
$USERI5
 70
     0
  9
$USERR1
 40
0.0
  9
$USERR2
 40
0.0
  9
$USERR3
 40
0.0
  9
$USERR4
 40
0.0
  9
$USERR5
 40
0.0
  9
$WORLDVIEW
 70
     1
  9
$SHADEDGE
 70
     3
  9
$SHADEDIF
 70
    70
  9
$TILEMODE
 70
     1
  9
$MAXACTVP
 70
    48
  9
$PLIMCHECK
 70
     0
  9
$PEXTMIN
 10
1.0000000000000000E+020
 20
1.0000000000000000E+020
 30
1.0000000000000000E+020
  9
$PEXTMAX
 10
-1.0000000000000000E+020
 20
-1.0000000000000000E+020
 30
-1.0000000000000000E+020
  9
$PLIMMIN
 10
0.0
 20
0.0
  9
$PLIMMAX
 10
12.0
 20
9.0
  9
$UNITMODE
 70
     0
  9
$VISRETAIN
 70
     1
  9
$PLINEGEN
 70
     0
  9
$PSLTSCALE
 70
     1
  0
ENDSEC
  0
SECTION
  2
TABLES
  0
TABLE
  2
VPORT
 70
     1
  0
VPORT
  2
*ACTIVE
 70
     0
 10
0.0
 20
0.0
 11
1.0
 21
1.0
 12
159.5855372518389
 22
148.589
 13
0.0
 23
0.0
 14
1.0
 24
1.0
 15
0.0
 25
0.0
 16
0.0
 26
0.0
 36
1.0
 17
0.0
 27
0.0
 37
0.0
 40
257.34758213707039
 41
2.2294736842105261
 42
50.0
 43
0.0
 44
0.0
 50
0.0
 51
0.0
 71
     0
 72
   100
 73
     1
 74
     1
 75
     0
 76
     0
 77
     0
 78
     0
  0
ENDTAB
  0
TABLE
  2
LTYPE
 70
     3
  0
LTYPE
  2
CONTINUOUS
 70
     0
  3
Solid line
 72
    65
 73
     0
 40
0.0
  0
LTYPE
  2
AIGENLINE001
 70
     0
  3
generate AI->DXF Converter
 72
    65
 73
     2
 40
1.5522299999999991
 49
0.776115
 49
-0.776115
  0
LTYPE
  2
AIGENLINE002
 70
     0
  3
generate AI->DXF Converter
 72
    65
 73
     4
 40
5.8561449999999988
 49
3.5278
 49
-0.776115
 49
0.776115
 49
-0.776115
  0
ENDTAB
  0
TABLE
  2
LAYER
 70
     4
  0
LAYER
  2
0
 70
     0
 62
     7
  6
CONTINUOUS
  0
LAYER
  2
____
 70
     0
 62
     7
  6
CONTINUOUS
  0
LAYER
  2
_________1
 70
     0
 62
     7
  6
CONTINUOUS
  0
LAYER
  2
_________2
 70
     0
 62
     7
  6
CONTINUOUS
  0
ENDTAB
  0
TABLE
  2
STYLE
 70
     1
  0
STYLE
  2
STANDARD
 70
     0
 40
0.0
 41
0.0
 50
0.0
 71
     0
 42
0.0
  3
TXT
  4
EXTFONT.SHX
  0
ENDTAB
  0
TABLE
  2
VIEW
 70
     0
  0
ENDTAB
  0
TABLE
  2
UCS
 70
     0
  0
ENDTAB
  0
TABLE
  2
APPID
 70
     3
  0
APPID
  2
ACAD
 70
     0
  0
APPID
  2
ACAD_NAV_VCDISPLAY
 70
     0
  0
APPID
  2
ACAD_MLEADERVER
 70
     0
  0
ENDTAB
  0
TABLE
  2
DIMSTYLE
 70
     1
  0
DIMSTYLE
  2
STANDARD
 70
     0
  3

  4

  5

  6

  7

 40
1.0
 41
0.18
 42
0.0625
 43
0.38
 44
0.18
 45
0.0
 46
0.0
 47
0.0
 48
0.0
140
0.18
141
0.09
142
0.0
143
25.399999999999999
144
1.0
145
0.0
146
1.0
147
0.09
 71
     0
 72
     0
 73
     1
 74
     1
 75
     0
 76
     0
 77
     0
 78
     0
170
     0
171
     2
172
     0
173
     0
174
     0
175
     0
176
     0
177
     0
178
     0
  0
ENDTAB
  0
ENDSEC
  0
SECTION
  2
BLOCKS
  0
BLOCK
  8
0
  2
$MODEL_SPACE
 70
     0
 10
0.0
 20
0.0
 30
0.0
  3
$MODEL_SPACE
  1

  0
ENDBLK
  5
1A
  8
0
  0
BLOCK
 67
     1
  8
0
  2
$PAPER_SPACE
 70
     0
 10
0.0
 20
0.0
 30
0.0
  3
$PAPER_SPACE
  1

  0
ENDBLK
  5
17
 67
     1
  8
0
  0
BLOCK
  8
_________1
  2
AIGNBL02010002
 70
     0
 10
0.0
 20
0.0
 30
0.0
  3
AIGNBL02010002
  1

  0
LINE
  5
27
  8
_________1
 62
     7
 10
-62.404699999999998
 20
207.059
 30
0.0
 11
-61.078999999999994
 21
205.19300000000001
 31
0.0
  0
LINE
  5
28
  8
_________1
 62
     7
 10
-61.078999999999994
 20
205.19300000000001
 30
0.0
 11
-61.2943
 21
207.47200000000001
 31
0.0
  0
LINE
  5
29
  8
_________1
 62
     7
 10
-61.2943
 20
207.47200000000001
 30
0.0
 11
-62.404699999999998
 21
207.059
 31
0.0
  0
LINE
  5
2A
  8
_________1
 62
     7
 10
-61.078999999999994
 20
205.19300000000001
 30
0.0
 11
-71.680099999999996
 21
233.68799999999999
 31
0.0
  0
LINE
  5
2B
  8
_________1
 62
     7
 10
61.5002
 20
193.917
 30
0.0
 11
60.355699999999992
 21
191.935
 31
0.0
  0
LINE
  5
2C
  8
_________1
 62
     7
 10
60.355699999999992
 20
191.935
 30
0.0
 11
62.337699999999991
 21
193.07900000000001
 31
0.0
  0
LINE
  5
2D
  8
_________1
 62
     7
 10
62.337699999999991
 20
193.07900000000001
 30
0.0
 11
61.5002
 21
193.917
 31
0.0
  0
LINE
  5
2E
  8
_________1
 62
     7
 10
85.728099999999998
 20
216.47
 30
0.0
 11
86.872200000000007
 21
218.452
 31
0.0
  0
LINE
  5
2F
  8
_________1
 62
     7
 10
86.872200000000007
 20
218.452
 30
0.0
 11
84.890299999999996
 21
217.30699999999999
 31
0.0
  0
LINE
  5
30
  8
_________1
 62
     7
 10
84.890299999999996
 20
217.30699999999999
 30
0.0
 11
85.728099999999998
 21
216.47
 31
0.0
  0
LINE
  5
31
  8
_________1
 62
     7
 10
60.355699999999992
 20
191.935
 30
0.0
 11
86.872200000000007
 21
218.452
 31
0.0
  0
ENDBLK
  5
32
  8
_________1
  0
BLOCK
  8
_________1
  2
AIGNBL02010003
 70
     0
 10
0.0
 20
0.0
 30
0.0
  3
AIGNBL02010003
  1

  0
LINE
  5
35
  8
_________1
 62
     7
 10
-21.927800000000001
 20
211.654
 30
0.0
 11
-23.3581
 21
209.17699999999999
 31
0.0
  0
LINE
  5
36
  8
_________1
 62
     7
 10
-23.3581
 20
209.17699999999999
 30
0.0
 11
-20.880500000000001
 21
210.607
 31
0.0
  0
LINE
  5
37
  8
_________1
 62
     7
 10
-20.880500000000001
 20
210.607
 30
0.0
 11
-21.927800000000001
 21
211.654
 31
0.0
  0
LINE
  5
38
  8
_________1
 62
     7
 10
-32.681800000000003
 20
198.68899999999999
 30
0.0
 11
-31.2517
 21
201.166
 31
0.0
  0
LINE
  5
39
  8
_________1
 62
     7
 10
-31.2517
 20
201.166
 30
0.0
 11
-33.729100000000003
 21
199.73599999999999
 31
0.0
  0
LINE
  5
3A
  8
_________1
 62
     7
 10
-33.729100000000003
 20
199.73599999999999
 30
0.0
 11
-32.681800000000003
 21
198.68899999999999
 31
0.0
  0
LINE
  5
3B
  8
_________1
 62
     7
 10
-36.577300000000001
 20
195.94499999999999
 30
0.0
 11
-17.7546
 21
214.768
 31
0.0
  0
ENDBLK
  5
3C
  8
_________1
  0
BLOCK
  8
_________1
  2
AIGNBL02010004
 70
     0
 10
0.0
 20
0.0
 30
0.0
  3
AIGNBL02010004
  1

  0
LINE
  5
3F
  8
_________1
 62
     7
 10
22.645099999999999
 20
77.527500000000003
 30
0.0
 11
23.237100000000002
 21
75.316500000000005
 31
0.0
  0
LINE
  5
40
  8
_________1
 62
     7
 10
23.237100000000002
 20
75.316500000000005
 30
0.0
 11
23.829699999999999
 21
77.527500000000003
 31
0.0
  0
LINE
  5
41
  8
_________1
 62
     7
 10
23.829699999999999
 20
77.527500000000003
 30
0.0
 11
22.645099999999999
 21
77.527500000000003
 31
0.0
  0
LINE
  5
42
  8
_________1
 62
     7
 10
23.811599999999999
 20
106.85599999999999
 30
0.0
 11
23.219100000000001
 21
109.06699999999999
 31
0.0
  0
LINE
  5
43
  8
_________1
 62
     7
 10
23.219100000000001
 20
109.06699999999999
 30
0.0
 11
22.6265
 21
106.85599999999999
 31
0.0
  0
LINE
  5
44
  8
_________1
 62
     7
 10
22.6265
 20
106.85599999999999
 30
0.0
 11
23.811599999999999
 21
106.85599999999999
 31
0.0
  0
LINE
  5
45
  8
_________1
 62
     7
 10
23.228200000000001
 20
75.316500000000005
 30
0.0
 11
23.228200000000001
 21
109.06699999999999
 31
0.0
  0
ENDBLK
  5
46
  8
_________1
  0
BLOCK
  8
_________1
  2
AIGNBL02010005
 70
     0
 10
0.0
 20
0.0
 30
0.0
  3
AIGNBL02010005
  1

  0
LINE
  5
49
  8
_________1
 62
     7
 10
14.840199999999999
 20
86.277400000000014
 30
0.0
 11
15.4322
 21
84.066699999999997
 31
0.0
  0
LINE
  5
4A
  8
_________1
 62
     7
 10
15.4322
 20
84.066699999999997
 30
0.0
 11
16.0246
 21
86.277400000000014
 31
0.0
  0
LINE
  5
4B
  8
_________1
 62
     7
 10
16.0246
 20
86.277400000000014
 30
0.0
 11
14.840199999999999
 21
86.277400000000014
 31
0.0
  0
LINE
  5
4C
  8
_________1
 62
     7
 10
16.006399999999999
 20
106.85599999999999
 30
0.0
 11
15.414099999999999
 21
109.06699999999999
 31
0.0
  0
LINE
  5
4D
  8
_________1
 62
     7
 10
15.414099999999999
 20
109.06699999999999
 30
0.0
 11
14.821899999999999
 21
106.85599999999999
 31
0.0
  0
LINE
  5
4E
  8
_________1
 62
     7
 10
14.821899999999999
 20
106.85599999999999
 30
0.0
 11
16.006399999999999
 21
106.85599999999999
 31
0.0
  0
LINE
  5
4F
  8
_________1
 62
     7
 10
15.423299999999999
 20
84.066699999999997
 30
0.0
 11
15.423299999999999
 21
109.06699999999999
 31
0.0
  0
ENDBLK
  5
50
  8
_________1
  0
BLOCK
  8
_________1
  2
AIGNBL02010006
 70
     0
 10
0.0
 20
0.0
 30
0.0
  3
AIGNBL02010006
  1

  0
LINE
  5
53
  8
_________1
 62
     7
 10
-53.868899999999996
 20
159.52799999999999
 30
0.0
 11
-56.079300000000003
 21
158.93600000000001
 31
0.0
  0
LINE
  5
54
  8
_________1
 62
     7
 10
-56.079300000000003
 20
158.93600000000001
 30
0.0
 11
-53.868899999999996
 21
158.34399999999999
 31
0.0
  0
LINE
  5
55
  8
_________1
 62
     7
 10
-53.868899999999996
 20
158.34399999999999
 30
0.0
 11
-53.868899999999996
 21
159.52799999999999
 31
0.0
  0
LINE
  5
56
  8
_________1
 62
     7
 10
-0.788932
 20
158.36199999999999
 30
0.0
 11
1.4214599999999991
 21
158.95400000000001
 31
0.0
  0
LINE
  5
57
  8
_________1
 62
     7
 10
1.4214599999999991
 20
158.95400000000001
 30
0.0
 11
-0.788932
 21
159.54599999999999
 31
0.0
  0
LINE
  5
58
  8
_________1
 62
     7
 10
-0.788932
 20
159.54599999999999
 30
0.0
 11
-0.788932
 21
158.36199999999999
 31
0.0
  0
LINE
  5
59
  8
_________1
 62
     7
 10
-71.680099999999996
 20
233.68799999999999
 30
0.0
 11
-53.53329999999999
 21
233.68799999999999
 31
0.0
  0
LINE
  5
5A
  8
_________1
 62
     7
 10
-56.079300000000003
 20
158.94499999999999
 30
0.0
 11
1.4214599999999991
 21
158.94499999999999
 31
0.0
  0
ENDBLK
  5
5B
  8
_________1
  0
BLOCK
  8
_________1
  2
AIGNBL02010007
 70
     0
 10
0.0
 20
0.0
 30
0.0
  3
AIGNBL02010007
  1

  0
LINE
  5
5E
  8
_________1
 62
     7
 10
-58.868600000000001
 20
151.251
 30
0.0
 11
-61.078999999999994
 21
150.65899999999999
 31
0.0
  0
LINE
  5
5F
  8
_________1
 62
     7
 10
-61.078999999999994
 20
150.65899999999999
 30
0.0
 11
-58.868600000000001
 21
150.066
 31
0.0
  0
LINE
  5
60
  8
_________1
 62
     7
 10
-58.868600000000001
 20
150.066
 30
0.0
 11
-58.868600000000001
 21
151.251
 31
0.0
  0
LINE
  5
61
  8
_________1
 62
     7
 10
4.2107900000000003
 20
150.08500000000001
 30
0.0
 11
6.4211799999999997
 21
150.67699999999999
 31
0.0
  0
LINE
  5
62
  8
_________1
 62
     7
 10
6.4211799999999997
 20
150.67699999999999
 30
0.0
 11
4.2107900000000003
 21
151.26900000000001
 31
0.0
  0
LINE
  5
63
  8
_________1
 62
     7
 10
4.2107900000000003
 20
151.26900000000001
 30
0.0
 11
4.2107900000000003
 21
150.08500000000001
 31
0.0
  0
LINE
  5
64
  8
_________1
 62
     7
 10
-61.078999999999994
 20
150.66800000000001
 30
0.0
 11
6.4211799999999997
 21
150.66800000000001
 31
0.0
  0
ENDBLK
  5
65
  8
_________1
  0
BLOCK
  8
_________2
  2
AIGNBL03010002
 70
     0
 10
0.0
 20
0.0
 30
0.0
  3
AIGNBL03010002
  1

  0
LINE
  5
68
  8
_________2
 62
     7
 10
186.649
 20
51.052199999999999
 30
0.0
 11
184.46299999999999
 21
51.052199999999999
 31
0.0
  0
LINE
  5
69
  8
_________2
 62
     7
 10
187.142
 20
51.052199999999999
 30
0.0
 11
186.88900000000001
 21
51.052199999999999
 31
0.0
  0
LINE
  5
6A
  8
_________2
 62
     7
 10
187.63399999999999
 20
51.052199999999999
 30
0.0
 11
190.559
 21
51.052199999999999
 31
0.0
  0
LINE
  5
6B
  8
_________2
 62
     7
 10
187.142
 20
51.052199999999999
 30
0.0
 11
187.39400000000001
 21
51.052199999999999
 31
0.0
  0
LINE
  5
6C
  8
_________2
 62
     7
 10
180.745
 20
51.052199999999999
 30
0.0
 11
178.55799999999999
 21
51.052199999999999
 31
0.0
  0
LINE
  5
6D
  8
_________2
 62
     7
 10
181.23699999999999
 20
51.052199999999999
 30
0.0
 11
180.98599999999999
 21
51.052199999999999
 31
0.0
  0
LINE
  5
6E
  8
_________2
 62
     7
 10
181.23699999999999
 20
51.544800000000002
 30
0.0
 11
181.23699999999999
 21
53.7318
 31
0.0
  0
LINE
  5
6F
  8
_________2
 62
     7
 10
181.23699999999999
 20
51.052199999999999
 30
0.0
 11
181.23699999999999
 21
51.304299999999998
 31
0.0
  0
LINE
  5
70
  8
_________2
 62
     7
 10
181.72999999999999
 20
51.052199999999999
 30
0.0
 11
183.917
 21
51.052199999999999
 31
0.0
  0
LINE
  5
71
  8
_________2
 62
     7
 10
181.23699999999999
 20
51.052199999999999
 30
0.0
 11
181.489
 21
51.052199999999999
 31
0.0
  0
LINE
  5
72
  8
_________2
 62
     7
 10
181.23699999999999
 20
50.560200000000002
 30
0.0
 11
181.23699999999999
 21
48.373199999999997
 31
0.0
  0
LINE
  5
73
  8
_________2
 62
     7
 10
181.23699999999999
 20
51.052199999999999
 30
0.0
 11
181.23699999999999
 21
50.800699999999999
 31
0.0
  0
LINE
  5
74
  8
_________2
 62
     7
 10
184.94799999999989
 20
49.832599999999999
 30
0.0
 11
190.12599999999989
 21
48.9679
 31
0.0
  0
LINE
  5
75
  8
_________2
 62
     7
 10
184.94799999999989
 20
52.271700000000003
 30
0.0
 11
190.12599999999989
 21
53.137099999999997
 31
0.0
  0
LINE
  5
76
  8
_________2
 62
     7
 10
190.12599999999989
 20
48.9679
 30
0.0
 11
190.12599999999989
 21
53.137099999999997
 31
0.0
  0
LINE
  5
77
  8
_________2
 62
     7
 10
184.94799999999989
 20
49.832599999999999
 30
0.0
 11
184.94799999999989
 21
52.271700000000003
 31
0.0
  0
ARC
  5
78
  8
_________2
 62
     7
 10
181.190651
 20
51.004810999999989
 30
0.0
 40
1.2677780000000001
 50
2.1403449999999991
 51
87.892005999999995
  0
ARC
  5
79
  8
_________2
 62
     7
 10
181.28420199999999
 20
51.005241999999988
 30
0.0
 40
1.2673579999999991
 50
92.121564999999975
 51
177.87840600000001
  0
ARC
  5
7A
  8
_________2
 62
     7
 10
181.28381400000001
 20
51.098689
 30
0.0
 40
1.2669559999999991
 50
182.10473099999999
 51
267.89529900000002
  0
ARC
  5
7B
  8
_________2
 62
     7
 10
181.19038399999999
 20
51.099775000000001
 30
0.0
 40
1.268054
 50
272.11960599999998
 51
357.84804300000002
  0
ARC
  5
7C
  8
_________2
 62
     7
 10
181.23728399999999
 20
51.05215900000001
 30
0.0
 40
2.0849849999999992
 50
0.00001
 51
89.999980000000008
  0
ARC
  5
7D
  8
_________2
 62
     7
 10
181.317331
 20
50.972827000000002
 30
0.0
 40
2.1657969999999991
 50
92.118111999999996
 51
177.90079600000001
  0
ARC
  5
7E
  8
_________2
 62
     7
 10
181.31728799999999
 20
51.132162999999998
 30
0.0
 40
2.1657779999999991
 50
182.11700400000001
 51
267.88302499999998
  0
ARC
  5
7F
  8
_________2
 62
     7
 10
181.15730300000001
 20
51.132855999999997
 30
0.0
 40
2.166469999999999
 50
272.115725
 51
357.86534699999999
  0
ENDBLK
  5
80
  8
_________2
  0
ENDSEC
  0
SECTION
  2
ENTITIES
  0
TEXT
  5
81
  8
____
 62
     7
 10
-47.355111999999998
 20
118.705
 30
0.0
 40
3.0923400000000001
  1
メーカーロゴ
 41
0.5
 72
     2
 11
-36.634999999999998
 21
118.705
 31
0.0
  0
TEXT
  5
82
  8
____
 62
     7
 10
65.039830121210244
 20
197.71393012121021
 30
0.0
 40
3.0923400000000001
  1
%%c150
 50
45.0
 41
0.5
 72
     1
 11
66.770899999999983
 21
199.44499999999999
 31
0.0
  0
TEXT
  5
83
  8
____
 62
     7
 10
-14.035410000000001
 20
215.46799999999999
 30
0.0
 40
3.0923400000000001
  1
%%c45
 41
0.5
 72
     2
 11
-9.9122899999999987
 21
215.46799999999999
 31
0.0
  0
TEXT
  5
84
  8
____
 62
     7
 10
65.367959999999997
 20
175.136
 30
0.0
 40
3.0923400000000001
  1
カウンター切込寸法
 41
0.5
 72
     1
 11
73.614199999999997
 21
175.136
 31
0.0
  0
TEXT
  5
85
  8
____
 62
     7
 10
-30.0346975
 20
151.36799999999999
 30
0.0
 40
3.0923400000000001
  1
%%c270
 41
0.5
 72
     1
 11
-27.328900000000001
 21
151.36799999999999
 31
0.0
  0
TEXT
  5
86
  8
____
 62
     7
 10
-64.253411999999997
 20
234.38800000000001
 30
0.0
 40
3.0923400000000001
  1
メーカーロゴ
 41
0.5
 72
     2
 11
-53.53329999999999
 21
234.38800000000001
 31
0.0
  0
TEXT
  5
87
  8
____
 62
     7
 10
-30.0346975
 20
159.64500000000001
 30
0.0
 40
3.0923400000000001
  1
%%c230
 41
0.5
 72
     1
 11
-27.328900000000001
 21
159.64500000000001
 31
0.0
  0
TEXT
  5
88
  8
____
 62
     7
 10
22.528099999999998
 20
90.252034999999992
 30
0.0
 40
3.0923400000000001
  1
135
 50
90.0
 41
0.5
 72
     1
 11
22.528099999999998
 21
92.055899999999994
 31
0.0
  0
TEXT
  5
89
  8
____
 62
     7
 10
14.755599999999999
 20
94.761429999999976
 30
0.0
 40
3.0923400000000001
  1
100
 50
90.0
 41
0.5
 72
     1
 11
14.755599999999999
 21
96.307599999999994
 31
0.0
  0
LINE
  5
8A
  8
_________1
 62
     7
 10
-59.64929999999999
 20
109.65900000000001
 30
0.0
 11
-60.074599999999997
 21
107.40900000000001
 31
0.0
  0
LINE
  5
8B
  8
_________1
 62
     7
 10
-60.074599999999997
 20
107.40900000000001
 30
0.0
 11
-58.581299999999999
 21
109.145
 31
0.0
  0
LINE
  5
8C
  8
_________1
 62
     7
 10
-58.581299999999999
 20
109.145
 30
0.0
 11
-59.64929999999999
 21
109.65900000000001
 31
0.0
  0
LINE
  5
8D
  8
_________1
 62
     7
 10
-60.074599999999997
 20
107.40900000000001
 30
0.0
 11
-54.974899999999991
 21
118.005
 31
0.0
  0
LINE
  5
8E
  8
_________1
 62
     7
 10
-54.974899999999991
 20
118.005
 30
0.0
 11
-36.634999999999998
 21
118.005
 31
0.0
  0
LINE
  5
8F
  8
_________1
 62
     7
 10
-61.078999999999994
 20
105.59399999999999
 30
0.0
 11
-59.024500000000003
 21
105.59399999999999
 31
0.0
  0
LINE
  5
90
  8
_________1
 62
     7
 10
-59.024500000000003
 20
105.59399999999999
 30
0.0
 11
-59.024500000000003
 21
107.40900000000001
 31
0.0
  0
LINE
  5
91
  8
_________1
 62
     7
 10
-59.024500000000003
 20
107.40900000000001
 30
0.0
 11
-61.078999999999994
 21
107.40900000000001
 31
0.0
  0
ARC
  5
92
  8
_________1
 62
     7
 10
-17.290232
 20
81.758477999999997
 30
0.0
 40
1.2889699999999999
 50
103.03480500000001
 51
178.62107700000001
  0
ARC
  5
93
  8
_________1
 62
     7
 10
-15.230332999999989
 20
88.214277999999993
 30
0.0
 40
4.4643610000000002
 50
289.214313
 51
291.71471700000001
  0
ARC
  5
94
  8
_________1
 62
     7
 10
-16.918051999999999
 20
93.001463999999999
 30
0.0
 40
9.5403229999999972
 50
287.32092399999999
 51
289.32378999999997
  0
ARC
  5
95
  8
_________1
 62
     7
 10
-19.581143000000001
 20
101.497545
 30
0.0
 40
18.443994
 50
285.852261
 51
287.36081899999999
  0
ARC
  5
96
  8
_________1
 62
     7
 10
-24.366745000000002
 20
118.36654299999999
 30
0.0
 40
35.978677000000012
 50
283.58941299999998
 51
285.84542299999998
  0
ARC
  5
97
  8
_________1
 62
     7
 10
-28.859762
 20
136.223502
 30
0.0
 40
54.391680999999998
 50
281.96693199999999
 51
283.77008999999998
  0
ARC
  5
98
  8
_________1
  6
AIGENLINE001
 62
     7
 10
-20.417736999999999
 20
85.565706999999989
 30
0.0
 40
1.2864450000000001
 50
107.104765
 51
178.78854899999999
  0
ARC
  5
99
  8
_________1
  6
AIGENLINE001
 62
     7
 10
3.4049399999999999
 20
106.49423400000001
 30
0.0
 40
2.573218999999999
 50
91.188144999999992
 51
162.38293899999999
  0
LINE
  5
9A
  8
_________1
 62
     7
 10
-18.578800000000001
 20
81.789500000000004
 30
0.0
 11
-18.578800000000001
 21
76.566699999999997
 31
0.0
  0
ARC
  5
9B
  8
_________1
  6
AIGENLINE001
 62
     7
 10
-27.361474000000001
 20
115.769802
 30
0.0
 40
29.561305000000001
 50
300.03715799999998
 51
343.29591099999999
  0
ARC
  5
9C
  8
_________1
  6
AIGENLINE001
 62
     7
 10
-29.012633000000001
 20
118.492943
 30
0.0
 40
32.745305999999999
 50
284.53210300000001
 51
300.15318400000001
  0
LINE
  5
9D
  8
_________1
  6
AIGENLINE001
 62
     7
 10
-21.703900000000001
 20
75.316500000000005
 30
0.0
 11
-21.703900000000001
 21
85.5929
 31
0.0
  0
ARC
  5
9E
  8
_________1
 62
     7
 10
-37.367665000000002
 20
81.758052000000006
 30
0.0
 40
1.289401999999999
 50
1.3973729999999991
 51
76.966076000000001
  0
ARC
  5
9F
  8
_________1
 62
     7
 10
-39.436939000000002
 20
88.189063000000004
 30
0.0
 40
4.4374379999999993
 50
248.27823699999999
 51
250.793879
  0
ARC
  5
A0
  8
_________1
 62
     7
 10
-37.738165000000009
 20
93.006868000000011
 30
0.0
 40
9.5459509999999987
 50
250.677922
 51
252.67973000000001
  0
ARC
  5
A1
  8
_________1
 62
     7
 10
-35.074126
 20
101.507571
 30
0.0
 40
18.454317
 50
252.64100999999999
 51
254.148853
  0
ARC
  5
A2
  8
_________1
 62
     7
 10
-30.287654
 20
118.38119399999999
 30
0.0
 40
35.993685999999997
 50
254.155835
 51
256.41102899999998
  0
ARC
  5
A3
  8
_________1
 62
     7
 10
-25.781469000000001
 20
136.29098999999999
 30
0.0
 40
54.461142000000002
 50
256.23003299999999
 51
258.03073699999999
  0
ARC
  5
A4
  8
_________1
  6
AIGENLINE001
 62
     7
 10
-34.239809000000001
 20
85.566022000000004
 30
0.0
 40
1.286165
 50
1.1976690000000001
 51
72.888062000000005
  0
ARC
  5
A5
  8
_________1
  6
AIGENLINE001
 62
     7
 10
-58.062756000000007
 20
106.494474
 30
0.0
 40
2.5729799999999989
 50
17.613142
 51
88.811789000000005
  0
LINE
  5
A6
  8
_________1
 62
     7
 10
-34.828899999999997
 20
75.316500000000005
 30
0.0
 11
-19.828900000000001
 21
75.316500000000005
 31
0.0
  0
LINE
  5
A7
  8
_________1
 62
     7
 10
-36.078600000000002
 20
81.789500000000004
 30
0.0
 11
-36.078600000000002
 21
76.566699999999997
 31
0.0
  0
ARC
  5
A8
  8
_________1
  6
AIGENLINE001
 62
     7
 10
-27.295324999999998
 20
115.77082799999999
 30
0.0
 40
29.562742
 50
196.70535100000001
 51
239.96202
  0
ARC
  5
A9
  8
_________1
  6
AIGENLINE001
 62
     7
 10
-25.64651700000001
 20
118.490072
 30
0.0
 40
32.742192000000003
 50
239.84621200000001
 51
255.46890999999999
  0
ARC
  5
AA
  8
_________1
 62
     7
 10
-34.780521999999998
 20
76.614568999999989
 30
0.0
 40
1.299005999999999
 50
182.11196200000001
 51
267.86438099999998
  0
ARC
  5
AB
  8
_________1
 62
     7
 10
-19.876797
 20
76.614425999999995
 30
0.0
 40
1.298845
 50
272.11382200000003
 51
357.89408300000002
  0
LINE
  5
AC
  8
_________1
 62
     7
 10
6.4211799999999997
 20
107.56699999999999
 30
0.0
 11
6.4211799999999997
 21
84.066699999999997
 31
0.0
  0
LINE
  5
AD
  8
_________1
 62
     7
 10
-59.5792
 20
109.06699999999999
 30
0.0
 11
4.9211799999999997
 21
109.06699999999999
 31
0.0
  0
ARC
  5
AE
  8
_________1
 62
     7
 10
4.8636099999999987
 20
107.50932899999999
 30
0.0
 40
1.5586349999999991
 50
2.1166839999999998
 51
87.883306000000005
  0
LINE
  5
AF
  8
_________1
 62
     7
 10
-61.078999999999994
 20
107.56699999999999
 30
0.0
 11
-61.078999999999994
 21
84.066699999999997
 31
0.0
  0
ARC
  5
B0
  8
_________1
 62
     7
 10
-59.521988999999998
 20
107.509895
 30
0.0
 40
1.5580540000000001
 50
92.103183000000001
 51
177.903367
  0
LINE
  5
B1
  8
_________1
  6
AIGENLINE001
 62
     7
 10
-32.953899999999997
 20
75.316500000000005
 30
0.0
 11
-32.953899999999997
 21
85.5929
 31
0.0
  0
LINE
  5
B2
  8
_________1
  6
AIGENLINE002
 62
     7
 10
-27.328900000000001
 20
71.608800000000002
 30
0.0
 11
-27.328900000000001
 21
113.178
 31
0.0
  0
LINE
  5
B3
  8
_________1
 62
     7
 10
-61.078999999999994
 20
84.066699999999997
 30
0.0
 11
6.4211799999999997
 21
84.066699999999997
 31
0.0
  0
ARC
  5
B4
  8
_________1
 62
     7
 10
83.653207999999992
 20
81.758151999999995
 30
0.0
 40
1.2892760000000001
 50
103.029563
 51
178.60694799999999
  0
ARC
  5
B5
  8
_________1
 62
     7
 10
85.723005000000001
 20
88.187185000000014
 30
0.0
 40
4.4354180000000003
 50
289.20498199999997
 51
291.721835
  0
ARC
  5
B6
  8
_________1
 62
     7
 10
84.026335999999986
 20
92.998540000000006
 30
0.0
 40
9.5371480000000002
 50
287.31875400000001
 51
289.322472
  0
ARC
  5
B7
  8
_________1
 62
     7
 10
81.358800999999985
 20
101.51007799999999
 30
0.0
 40
18.456897999999999
 50
285.8508930000001
 51
287.35855699999991
  0
ARC
  5
B8
  8
_________1
 62
     7
 10
76.568539999999999
 20
118.39697099999999
 30
0.0
 40
36.010066999999999
 50
283.58997999999991
 51
285.84408100000002
  0
ARC
  5
B9
  8
_________1
 62
     7
 10
72.045681999999999
 20
136.373706
 30
0.0
 40
54.546508999999993
 50
281.97330899999997
 51
283.77085800000009
  0
ARC
  5
BA
  8
_________1
  6
AIGENLINE001
 62
     7
 10
80.525281000000007
 20
85.565962999999996
 30
0.0
 40
1.286316
 50
107.124852
 51
178.79983799999999
  0
ARC
  5
BB
  8
_________1
  6
AIGENLINE001
 62
     7
 10
104.34808700000001
 20
106.494227
 30
0.0
 40
2.5732270000000002
 50
91.188256999999993
 51
162.38282699999999
  0
LINE
  5
BC
  8
_________1
 62
     7
 10
82.3643
 20
81.789500000000004
 30
0.0
 11
82.3643
 21
76.566699999999997
 31
0.0
  0
ARC
  5
BD
  8
_________1
  6
AIGENLINE001
 62
     7
 10
73.581668000000008
 20
115.769802
 30
0.0
 40
29.561305000000001
 50
300.03715799999998
 51
343.29591099999999
  0
ARC
  5
BE
  8
_________1
  6
AIGENLINE001
 62
     7
 10
71.931503000000006
 20
118.49052500000001
 30
0.0
 40
32.742715000000011
 50
284.53148199999998
 51
300.15380600000009
  0
LINE
  5
BF
  8
_________1
  6
AIGENLINE001
 62
     7
 10
79.239199999999997
 20
75.316500000000005
 30
0.0
 11
79.239199999999997
 21
85.5929
 31
0.0
  0
ARC
  5
C0
  8
_________1
 62
     7
 10
63.575593000000012
 20
81.758690000000001
 30
0.0
 40
1.288754
 50
1.369693
 51
76.964697999999999
  0
ARC
  5
C1
  8
_________1
 62
     7
 10
61.508317000000012
 20
88.192187000000004
 30
0.0
 40
4.440995
 50
248.27194800000001
 51
250.78466399999999
  0
ARC
  5
C2
  8
_________1
 62
     7
 10
63.20108900000001
 20
92.992128000000008
 30
0.0
 40
9.5306669999999993
 50
250.67218500000001
 51
252.67674299999999
  0
ARC
  5
C3
  8
_________1
 62
     7
 10
65.861902999999998
 20
101.480159
 30
0.0
 40
18.425975000000001
 50
252.637248
 51
254.14716999999999
  0
ARC
  5
C4
  8
_________1
 62
     7
 10
70.650443999999993
 20
118.359436
 30
0.0
 40
35.971347999999999
 50
254.15426500000001
 51
256.41071799999997
  0
ARC
  5
C5
  8
_________1
 62
     7
 10
75.160714999999996
 20
136.28625
 30
0.0
 40
54.456306000000012
 50
256.22984100000002
 51
258.030689
  0
ARC
  5
C6
  8
_________1
  6
AIGENLINE001
 62
     7
 10
66.702950000000001
 20
85.565732999999994
 30
0.0
 40
1.286554
 50
1.2101759999999999
 51
72.875555000000006
  0
ARC
  5
C7
  8
_________1
  6
AIGENLINE001
 62
     7
 10
42.880710000000001
 20
106.494918
 30
0.0
 40
2.5725370000000001
 50
17.605903000000001
 51
88.811134999999993
  0
INSERT
  5
C8
  8
_________1
 62
     7
  2
AIGNBL02010002
 10
0.0
 20
0.0
 30
0.0
  0
LINE
  5
C9
  8
_________1
 62
     7
 10
-9.9122899999999987
 20
214.768
 30
0.0
 11
-17.7546
 21
214.768
 31
0.0
  0
INSERT
  5
CA
  8
_________1
 62
     7
  2
AIGNBL02010003
 10
0.0
 20
0.0
 30
0.0
  0
LINE
  5
CB
  8
_________1
 62
     7
 10
24.354199999999999
 20
75.316500000000005
 30
0.0
 11
-16.072900000000001
 21
75.316500000000005
 31
0.0
  0
INSERT
  5
CC
  8
_________1
 62
     7
  2
AIGNBL02010004
 10
0.0
 20
0.0
 30
0.0
  0
LINE
  5
CD
  8
_________1
 62
     7
 10
7.7243000000000004
 20
84.066699999999997
 30
0.0
 11
16.548999999999999
 21
84.066699999999997
 31
0.0
  0
LINE
  5
CE
  8
_________1
 62
     7
 10
7.7243000000000004
 20
109.06699999999999
 30
0.0
 11
24.354199999999999
 21
109.06699999999999
 31
0.0
  0
INSERT
  5
CF
  8
_________1
 62
     7
  2
AIGNBL02010005
 10
0.0
 20
0.0
 30
0.0
  0
LINE
  5
D0
  8
_________1
 62
     7
 10
6.4211799999999997
 20
149.667
 30
0.0
 11
6.4211799999999997
 21
193.58500000000001
 31
0.0
  0
LINE
  5
D1
  8
_________1
 62
     7
 10
-61.078999999999994
 20
149.667
 30
0.0
 11
-61.078999999999994
 21
193.58500000000001
 31
0.0
  0
LINE
  5
D2
  8
_________1
 62
     7
 10
1.4214599999999991
 20
157.94399999999999
 30
0.0
 11
1.4214599999999991
 21
194.73500000000001
 31
0.0
  0
LINE
  5
D3
  8
_________1
 62
     7
 10
-56.079300000000003
 20
157.94399999999999
 30
0.0
 11
-56.079300000000003
 21
194.73500000000001
 31
0.0
  0
INSERT
  5
D4
  8
_________1
 62
     7
  2
AIGNBL02010006
 10
0.0
 20
0.0
 30
0.0
  0
INSERT
  5
D5
  8
_________1
 62
     7
  2
AIGNBL02010007
 10
0.0
 20
0.0
 30
0.0
  0
LINE
  5
D6
  8
_________1
 62
     7
 10
66.114199999999997
 20
75.316500000000005
 30
0.0
 11
81.1143
 21
75.316500000000005
 31
0.0
  0
LINE
  5
D7
  8
_________1
 62
     7
 10
64.86399999999999
 20
81.789500000000004
 30
0.0
 11
64.86399999999999
 21
76.566699999999997
 31
0.0
  0
ARC
  5
D8
  8
_________1
  6
AIGENLINE001
 62
     7
 10
73.647587999999999
 20
115.770764
 30
0.0
 40
29.562505000000002
 50
196.70535899999999
 51
239.96256700000001
  0
ARC
  5
D9
  8
_________1
  6
AIGENLINE001
 62
     7
 10
75.297025000000005
 20
118.491229
 30
0.0
 40
32.74332600000001
 50
239.84682599999999
 51
255.469323
  0
ARC
  5
DA
  8
_________1
 62
     7
 10
66.114211999999995
 20
76.566696999999991
 30
0.0
 40
1.250232999999999
 50
179.99996999999999
 51
270.00002000000001
  0
ARC
  5
DB
  8
_________1
 62
     7
 10
81.066334999999995
 20
76.614435999999998
 30
0.0
 40
1.298856
 50
272.11424799999998
 51
357.89365700000002
  0
LINE
  5
DC
  8
_________1
 62
     7
 10
107.364
 20
107.56699999999999
 30
0.0
 11
107.364
 21
84.066699999999997
 31
0.0
  0
LINE
  5
DD
  8
_________1
 62
     7
 10
41.363999999999997
 20
109.06699999999999
 30
0.0
 11
105.864
 21
109.06699999999999
 31
0.0
  0
ARC
  5
DE
  8
_________1
 62
     7
 10
105.80714399999999
 20
107.509721
 30
0.0
 40
1.5582290000000001
 50
2.102806999999999
 51
87.897182999999998
  0
LINE
  5
DF
  8
_________1
 62
     7
 10
39.864100000000001
 20
107.56699999999999
 30
0.0
 11
39.864100000000001
 21
84.066699999999997
 31
0.0
  0
ARC
  5
E0
  8
_________1
 62
     7
 10
41.421143000000001
 20
107.509905
 30
0.0
 40
1.5580439999999991
 50
92.102833999999987
 51
177.903716
  0
LINE
  5
E1
  8
_________1
  6
AIGENLINE001
 62
     7
 10
67.989199999999997
 20
75.316500000000005
 30
0.0
 11
67.989199999999997
 21
85.5929
 31
0.0
  0
LINE
  5
E2
  8
_________1
  6
AIGENLINE002
 62
     7
 10
73.614199999999997
 20
71.608800000000002
 30
0.0
 11
73.614199999999997
 21
113.178
 31
0.0
  0
LINE
  5
E3
  8
_________1
 62
     7
 10
39.864100000000001
 20
84.066699999999997
 30
0.0
 11
107.364
 21
84.066699999999997
 31
0.0
  0
LINE
  5
E4
  8
_________1
  6
AIGENLINE002
 62
     7
 10
73.614199999999997
 20
182.91800000000001
 30
0.0
 11
73.614199999999997
 21
227.08199999999999
 31
0.0
  0
LINE
  5
E5
  8
_________1
  6
AIGENLINE002
 62
     7
 10
96.277100000000004
 20
205.19300000000001
 30
0.0
 11
51.1447
 21
205.19300000000001
 31
0.0
  0
ARC
  5
E6
  8
_________1
 62
     7
 10
73.614228999999995
 20
205.19342
 30
0.0
 40
18.750053999999999
 50
0.00001
 51
89.999980000000008
  0
ARC
  5
E7
  8
_________1
 62
     7
 10
73.613977000000006
 20
205.193162
 30
0.0
 40
18.750312000000001
 50
89.999209999999977
 51
179.99918099999999
  0
ARC
  5
E8
  8
_________1
 62
     7
 10
73.614056999999974
 20
205.19359299999999
 30
0.0
 40
18.750392000000002
 50
180.00053600000001
 51
270.00054599999999
  0
ARC
  5
E9
  8
_________1
 62
     7
 10
73.614142999999984
 20
205.193341
 30
0.0
 40
18.750139999999998
 50
270.00028300000002
 51
0.000253
  0
LINE
  5
EA
  8
_________1
  6
AIGENLINE002
 62
     7
 10
-27.328900000000001
 20
167.71199999999999
 30
0.0
 11
-27.328900000000001
 21
242.09299999999999
 31
0.0
  0
LINE
  5
EB
  8
_________1
  6
AIGENLINE002
 62
     7
 10
10.152200000000001
 20
205.19300000000001
 30
0.0
 11
-64.616299999999995
 21
205.19300000000001
 31
0.0
  0
ARC
  5
EC
  8
_________1
 62
     7
 10
-27.32891
 20
205.193423
 30
0.0
 40
5.6250159999999996
 50
0.00001
 51
89.999980000000008
  0
ARC
  5
ED
  8
_________1
 62
     7
 10
-27.328907999999998
 20
205.193423
 30
0.0
 40
5.6250159999999996
 50
90.0
 51
179.99996999999999
  0
ARC
  5
EE
  8
_________1
 62
     7
 10
-27.32891
 20
205.193423
 30
0.0
 40
5.6250140000000002
 50
179.99996999999999
 51
270.00002000000001
  0
ARC
  5
EF
  8
_________1
 62
     7
 10
-27.32891
 20
205.19342499999999
 30
0.0
 40
5.6250159999999996
 50
270.00002000000001
 51
359.99999000000003
  0
ARC
  5
F0
  8
_________1
 62
     7
 10
-27.328824999999998
 20
205.19333599999999
 30
0.0
 40
8.7499960000000012
 50
0.000574
 51
90.000543999999991
  0
ARC
  5
F1
  8
_________1
 62
     7
 10
-27.328821999999999
 20
205.19350800000001
 30
0.0
 40
8.7498240000000003
 50
90.000563999999997
 51
180.000574
  0
ARC
  5
F2
  8
_________1
 62
     7
 10
-27.328738999999999
 20
205.19325000000001
 30
0.0
 40
8.7499070000000003
 50
179.998842
 51
269.99889200000001
  0
ARC
  5
F3
  8
_________1
 62
     7
 10
-27.328911000000002
 20
205.19342499999999
 30
0.0
 40
8.7500830000000001
 50
270.00002000000001
 51
359.99999000000003
  0
ARC
  5
F4
  8
_________1
 62
     7
 10
-27.328828000000001
 20
205.193332
 30
0.0
 40
28.750284000000011
 50
0.000182
 51
90.000151999999986
  0
ARC
  5
F5
  8
_________1
 62
     7
 10
-27.328990999999998
 20
205.193332
 30
0.0
 40
28.750284000000011
 50
89.999828000000008
 51
179.999799
  0
ARC
  5
F6
  8
_________1
 62
     7
 10
-27.329001000000002
 20
205.19350499999999
 30
0.0
 40
28.750274000000001
 50
180.00018199999991
 51
270.00019100000009
  0
ARC
  5
F7
  8
_________1
 62
     7
 10
-27.328828000000001
 20
205.19351499999999
 30
0.0
 40
28.750284000000011
 50
269.99984799999999
 51
359.999818
  0
ARC
  5
F8
  8
_________1
 62
     7
 10
-27.328914999999999
 20
205.19341800000001
 30
0.0
 40
33.750096999999997
 50
0.00001
 51
89.999980000000008
  0
ARC
  5
F9
  8
_________1
 62
     7
 10
-27.328904000000001
 20
205.19341800000001
 30
0.0
 40
33.750096999999997
 50
90.0
 51
179.99996999999999
  0
ARC
  5
FA
  8
_________1
 62
     7
 10
-27.328828999999999
 20
205.193332
 30
0.0
 40
33.750171999999999
 50
179.99982399999999
 51
269.99987399999998
  0
ARC
  5
FB
  8
_________1
 62
     7
 10
-27.329001000000002
 20
205.193343
 30
0.0
 40
33.750183
 50
270.00016599999998
 51
0.000136
  0
TEXT
  5
FC
  8
_________2
 62
     7
 10
251.6417625
 20
268.30900000000003
 30
0.0
 40
3.3734599999999988
  1
FL505922
 41
0.5
 72
     1
 11
257.96699999999998
 21
268.30900000000003
 31
0.0
  0
TEXT
  5
FD
  8
_________2
 62
     7
 10
276.35170733333342
 20
254.309
 30
0.0
 40
3.3734599999999988
  1
ラバグレー
 41
0.5
 72
     1
 11
281.18700000000001
 21
254.309
 31
0.0
  0
TEXT
  5
FE
  8
_________2
 62
     7
 10
249.11166750000001
 20
254.309
 30
0.0
 40
3.3734599999999988
  1
FL505922-LG
 41
0.5
 72
     1
 11
257.96699999999998
 21
254.309
 31
0.0
  0
LINE
  5
FF
  8
_________2
 62
     7
 10
246.91800000000001
 20
252.15799999999999
 30
0.0
 11
293.459
 21
252.15799999999999
 31
0.0
  0
TEXT
  5
100
  8
_________2
 62
     7
 10
274.3838556666667
 20
261.30900000000003
 30
0.0
 40
3.3734599999999988
  1
マットホワイト
 41
0.5
 72
     1
 11
281.18700000000001
 21
261.30900000000003
 31
0.0
  0
TEXT
  5
101
  8
_________2
 62
     7
 10
249.11166750000001
 20
261.30900000000003
 30
0.0
 40
3.3734599999999988
  1
FL505922-LA
 41
0.5
 72
     1
 11
257.96699999999998
 21
261.30900000000003
 31
0.0
  0
LINE
  5
102
  8
_________2
 62
     7
 10
246.91800000000001
 20
280.15800000000002
 30
0.0
 11
246.91800000000001
 21
252.15799999999999
 31
0.0
  0
LINE
  5
103
  8
_________2
 62
     7
 10
246.91800000000001
 20
259.15800000000002
 30
0.0
 11
293.459
 21
259.15800000000002
 31
0.0
  0
LINE
  5
104
  8
_________2
 62
     7
 10
269.20999999999998
 20
280.15800000000002
 30
0.0
 11
269.20999999999998
 21
252.15799999999999
 31
0.0
  0
TEXT
  5
105
  8
_________2
 62
     7
 10
277.4199696666667
 20
268.30900000000003
 30
0.0
 40
3.3734599999999988
  1
ホワイト
 41
0.5
 72
     1
 11
281.18700000000001
 21
268.30900000000003
 31
0.0
  0
TEXT
  5
106
  8
_________2
 62
     7
 10
280.39985933333332
 20
275.30900000000003
 30
0.0
 40
3.3734599999999988
  1
色
 41
0.5
 72
     1
 11
281.18700000000001
 21
275.30900000000003
 31
0.0
  0
TEXT
  5
107
  8
_________2
 62
     7
 10
256.16782133333328
 20
275.30900000000003
 30
0.0
 40
3.3734599999999988
  1
品番
 41
0.5
 72
     1
 11
257.96699999999998
 21
275.30900000000003
 31
0.0
  0
LINE
  5
108
  8
_________2
 62
     7
 10
246.91800000000001
 20
266.15800000000002
 30
0.0
 11
293.459
 21
266.15800000000002
 31
0.0
  0
LINE
  5
109
  8
_________2
 62
     7
 10
246.91800000000001
 20
273.15800000000002
 30
0.0
 11
293.459
 21
273.15800000000002
 31
0.0
  0
TEXT
  5
10A
  8
_________2
 62
     7
 10
129.49600000000001
 20
102.901
 30
0.0
 40
3.9357000000000002
  1
分類
 41
0.5
  0
TEXT
  5
10B
  8
_________2
 62
     7
 10
159.49600000000001
 20
64.088499999999996
 30
0.0
 40
3.9357000000000002
  1
破損するおそれがありますので、60℃以上の熱湯を流さないでください。
 41
0.5
  0
LINE
  5
10C
  8
_________2
 62
     7
 10
126.95699999999999
 20
61.980400000000003
 30
0.0
 11
290.16199999999998
 21
61.980400000000003
 31
0.0
  0
TEXT
  5
10D
  8
_________2
 62
     7
 10
159.49600000000001
 20
71.850999999999999
 30
0.0
 40
3.9357000000000002
  1
水はねや水があふれるおそれがありますので、止水栓で適切な流量に調整してください。
 41
0.5
  0
LINE
  5
10E
  8
_________2
 62
     7
 10
156.95699999999999
 20
69.742999999999995
 30
0.0
 11
290.16199999999998
 21
69.742999999999995
 31
0.0
  0
TEXT
  5
10F
  8
_________2
 62
     7
 10
159.49600000000001
 20
79.613600000000005
 30
0.0
 40
3.9357000000000002
  1
陶器製品は製造の過程で寸法公差や反りが生じます。
 41
0.5
  0
LINE
  5
110
  8
_________2
 62
     7
 10
156.95699999999999
 20
77.505499999999998
 30
0.0
 11
290.16199999999998
 21
77.505499999999998
 31
0.0
  0
TEXT
  5
111
  8
_________2
 62
     7
 10
159.49600000000001
 20
102.901
 30
0.0
 40
3.9357000000000002
  1
ベッセル
 41
0.5
  0
LINE
  5
112
  8
_________2
 62
     7
 10
126.95699999999999
 20
100.79300000000001
 30
0.0
 11
290.16199999999998
 21
100.79300000000001
 31
0.0
  0
TEXT
  5
113
  8
_________2
 62
     7
 10
129.49600000000001
 20
95.138599999999997
 30
0.0
 40
3.9357000000000002
  1
オーバーフロー
 41
0.5
  0
TEXT
  5
114
  8
_________2
 62
     7
 10
159.49600000000001
 20
95.138599999999997
 30
0.0
 40
3.9357000000000002
  1
なし
 41
0.5
  0
LINE
  5
115
  8
_________2
 62
     7
 10
126.95699999999999
 20
93.030600000000007
 30
0.0
 11
290.16199999999998
 21
93.030600000000007
 31
0.0
  0
TEXT
  5
116
  8
_________2
 62
     7
 10
129.49600000000001
 20
110.664
 30
0.0
 40
3.9357000000000002
  1
用途
 41
0.5
  0
TEXT
  5
117
  8
_________2
 62
     7
 10
159.49600000000001
 20
110.664
 30
0.0
 40
3.9357000000000002
  1
一般住宅用（屋内用）
 41
0.5
  0
LINE
  5
118
  8
_________2
 62
     7
 10
156.95699999999999
 20
116.318
 30
0.0
 11
156.95699999999999
 21
61.980800000000002
 31
0.0
  0
LINE
  5
119
  8
_________2
 62
     7
 10
290.16199999999998
 20
116.318
 30
0.0
 11
126.95699999999999
 21
116.318
 31
0.0
  0
LINE
  5
11A
  8
_________2
 62
     7
 10
126.95699999999999
 20
116.318
 30
0.0
 11
126.95699999999999
 21
61.980800000000002
 31
0.0
  0
LINE
  5
11B
  8
_________2
 62
     7
 10
126.95699999999999
 20
61.980800000000002
 30
0.0
 11
290.16199999999998
 21
61.980800000000002
 31
0.0
  0
LINE
  5
11C
  8
_________2
 62
     7
 10
290.16199999999998
 20
61.980800000000002
 30
0.0
 11
290.16199999999998
 21
116.318
 31
0.0
  0
TEXT
  5
11D
  8
_________2
 62
     7
 10
129.49600000000001
 20
87.376099999999994
 30
0.0
 40
3.9357000000000002
  1
本体重量
 41
0.5
  0
TEXT
  5
11E
  8
_________2
 62
     7
 10
159.49600000000001
 20
87.376099999999994
 30
0.0
 40
3.9357000000000002
  1
6.0kg
 41
0.5
  0
LINE
  5
11F
  8
_________2
 62
     7
 10
126.95699999999999
 20
108.556
 30
0.0
 11
290.16199999999998
 21
108.556
 31
0.0
  0
TEXT
  5
120
  8
_________2
 62
     7
 10
129.49600000000001
 20
79.625600000000006
 30
0.0
 40
3.9357000000000002
  1
特記事項
 41
0.5
  0
LINE
  5
121
  8
_________2
 62
     7
 10
126.95699999999999
 20
85.267999999999986
 30
0.0
 11
290.16199999999998
 21
85.267999999999986
 31
0.0
  0
TEXT
  5
122
  8
_________2
 62
     7
 10
200.4570586666666
 20
34.465299999999999
 30
0.0
 40
3.6545800000000002
  1
1 ： 4
 41
0.5
 72
     1
 11
203.86799999999999
 21
34.465299999999999
 31
0.0
  0
TEXT
  5
123
  8
_________2
 62
     7
 10
246.570525
 20
30.3553
 30
0.0
 40
3.9357000000000002
  1
図中の表参照
 41
0.5
 72
     1
 11
253.458
 21
30.3553
 31
0.0
  0
TEXT
  5
124
  8
_________2
 62
     7
 10
149.27189066666671
 20
34.850499999999997
 30
0.0
 40
3.6545800000000002
  1
井伊
 41
0.5
 72
     1
 11
151.221
 21
34.850499999999997
 31
0.0
  0
TEXT
  5
125
  8
_________2
 62
     7
 10
130.75880033333331
 20
34.850499999999997
 30
0.0
 40
3.6545800000000002
  1
福田
 41
0.5
 72
     1
 11
132.64699999999999
 21
34.850499999999997
 31
0.0
  0
TEXT
  5
126
  8
_________2
 62
     7
 10
177.69399999999999
 20
34.465299999999999
 30
0.0
 40
3.6545800000000002
  1
21.04.14
 41
0.5
  0
TEXT
  5
127
  8
_________2
 62
     7
 10
290.64778333333328
 20
12.808299999999999
 30
0.0
 40
3.3734599999999988
  1
A3
 41
0.5
 72
     2
 11
293.459
 21
12.808299999999999
 31
0.0
  0
LINE
  5
128
  8
_________2
 62
     7
 10
315.209
 20
148.65899999999999
 30
0.0
 11
293.459
 21
148.65899999999999
 31
0.0
  0
LINE
  5
129
  8
_________2
 62
     7
 10
105.20699999999999
 20
17.156300000000002
 30
0.0
 11
105.20699999999999
 21
0.176045
 31
0.0
  0
LINE
  5
12A
  8
_________2
 62
     7
 10
105.20699999999999
 20
297.178
 30
0.0
 11
105.20699999999999
 21
280.15800000000002
 31
0.0
  0
LINE
  5
12B
  8
_________2
 62
     7
 10
-83.043899999999994
 20
148.65899999999999
 30
0.0
 11
-104.794
 21
148.65899999999999
 31
0.0
  0
INSERT
  5
12C
  8
_________2
 62
     7
  2
AIGNBL03010002
 10
0.0
 20
0.0
 30
0.0
  0
TEXT
  5
12D
  8
_________2
 62
     7
 10
214.51300000000001
 20
22.9269
 30
0.0
 40
3.0923400000000001
  1
図番
 41
0.5
  0
LINE
  5
12E
  8
_________2
 62
     7
 10
213.458
 20
27.156099999999999
 30
0.0
 11
293.459
 21
27.156099999999999
 31
0.0
  0
TEXT
  5
12F
  8
_________2
 62
     7
 10
214.51300000000001
 20
32.926699999999997
 30
0.0
 40
3.0923400000000001
  1
品番
 41
0.5
  0
TEXT
  5
130
  8
_________2
 62
     7
 10
214.51300000000001
 20
53.0655
 30
0.0
 40
3.0923400000000001
  1
名称
 41
0.5
  0
TEXT
  5
131
  8
_________2
 62
     7
 10
201.75325833333329
 20
48.069400000000002
 30
0.0
 40
3.6545800000000002
  1
mm
 41
0.5
 72
     1
 11
203.27600000000001
 21
48.069400000000002
 31
0.0
  0
TEXT
  5
132
  8
_________2
 62
     7
 10
195.55099999999999
 20
53.0655
 30
0.0
 40
3.0923400000000001
  1
単位
 41
0.5
  0
TEXT
  5
133
  8
_________2
 62
     7
 10
195.55099999999999
 20
40.658200000000001
 30
0.0
 40
3.0923400000000001
  1
尺度
 41
0.5
  0
TEXT
  5
134
  8
_________2
 62
     7
 10
246.0785625
 20
20.354800000000001
 30
0.0
 40
3.9357000000000002
  1
FL505922
 41
0.5
 72
     1
 11
253.458
 21
20.354800000000001
 31
0.0
  0
TEXT
  5
135
  8
_________2
 62
     7
 10
219.08699999999999
 20
45.473100000000002
 30
0.0
 40
3.9357000000000002
  1
ミニツイン 手洗器
 41
0.5
  0
TEXT
  5
136
  8
_________2
 62
     7
 10
176.501
 20
40.658200000000001
 30
0.0
 40
3.0923400000000001
  1
日付
 41
0.5
  0
TEXT
  5
137
  8
_________2
 62
     7
 10
139.547
 20
40.658200000000001
 30
0.0
 40
3.0923400000000001
  1
検図
 41
0.5
  0
TEXT
  5
138
  8
_________2
 62
     7
 10
127.929
 20
26.4588
 30
0.0
 40
3.0923400000000001
  1
備考
 41
0.5
  0
TEXT
  5
139
  8
_________2
 62
     7
 10
127.929
 20
40.658200000000001
 30
0.0
 40
3.0923400000000001
  1
製図
 41
0.5
  0
TEXT
  5
13A
  8
_________2
 62
     7
 10
133.69596533333331
 20
49.184199999999997
 30
0.0
 40
4.4979399999999989
  1
セラトレーディング株式会社
 41
0.5
 72
     1
 11
151.08799999999999
 21
49.184199999999997
 31
0.0
  0
LINE
  5
13B
  8
_________2
 62
     7
 10
293.459
 20
17.156300000000002
 30
0.0
 11
-83.043899999999994
 21
17.156300000000002
 31
0.0
  0
LINE
  5
13C
  8
_________2
 62
     7
 10
-83.043899999999994
 20
17.156300000000002
 30
0.0
 11
-83.043899999999994
 21
280.15800000000002
 31
0.0
  0
LINE
  5
13D
  8
_________2
 62
     7
 10
-83.043899999999994
 20
280.15800000000002
 30
0.0
 11
293.459
 21
280.15800000000002
 31
0.0
  0
LINE
  5
13E
  8
_________2
 62
     7
 10
293.459
 20
280.15800000000002
 30
0.0
 11
293.459
 21
17.156300000000002
 31
0.0
  0
LINE
  5
13F
  8
_________2
 62
     7
 10
175.458
 20
30.656400000000001
 30
0.0
 11
175.458
 21
57.156199999999998
 31
0.0
  0
LINE
  5
140
  8
_________2
 62
     7
 10
194.458
 20
30.656400000000001
 30
0.0
 11
194.458
 21
57.156199999999998
 31
0.0
  0
LINE
  5
141
  8
_________2
 62
     7
 10
126.95699999999999
 20
17.156300000000002
 30
0.0
 11
126.95699999999999
 21
57.156199999999998
 31
0.0
  0
LINE
  5
142
  8
_________2
 62
     7
 10
213.458
 20
17.156300000000002
 30
0.0
 11
213.458
 21
57.156199999999998
 31
0.0
  0
LINE
  5
143
  8
_________2
 62
     7
 10
138.45699999999999
 20
30.656400000000001
 30
0.0
 11
138.45699999999999
 21
44.65659999999999
 31
0.0
  0
LINE
  5
144
  8
_________2
 62
     7
 10
126.95699999999999
 20
30.656400000000001
 30
0.0
 11
213.458
 21
30.656400000000001
 31
0.0
  0
LINE
  5
145
  8
_________2
 62
     7
 10
126.95699999999999
 20
44.65659999999999
 30
0.0
 11
213.458
 21
44.65659999999999
 31
0.0
  0
LINE
  5
146
  8
_________2
 62
     7
 10
213.458
 20
37.15590000000001
 30
0.0
 11
293.459
 21
37.15590000000001
 31
0.0
  0
LINE
  5
147
  8
_________2
 62
     7
 10
126.95699999999999
 20
57.156199999999998
 30
0.0
 11
293.459
 21
57.156199999999998
 31
0.0
  0
ENDSEC
  0
EOF
