  0
SECTION
  2
HEADER
  9
$ACADVER
  1
AC1009
  9
$INSBASE
 10
0.0
 20
0.0
 30
0.0
  9
$EXTMIN
 10
0.238058
 20
0.4482100000000001
 30
0.0
  9
$EXTMAX
 10
210.24000000000001
 20
297.44999999999987
 30
0.0
  9
$LIMMIN
 10
0.0
 20
0.0
  9
$LIMMAX
 10
12.0
 20
9.0
  9
$ORTHOMODE
 70
     0
  9
$REGENMODE
 70
     1
  9
$FILLMODE
 70
     1
  9
$QTEXTMODE
 70
     0
  9
$MIRRTEXT
 70
     1
  9
$DRAGMODE
 70
     2
  9
$LTSCALE
 40
1.0
  9
$OSMODE
 70
    37
  9
$ATTMODE
 70
     1
  9
$TEXTSIZE
 40
0.0
  9
$TRACEWID
 40
0.05
  9
$TEXTSTYLE
  7
STANDARD
  9
$CLAYER
  8
0
  9
$CELTYPE
  6
CONTINUOUS
  9
$CECOLOR
 62
   256
  9
$DIMSCALE
 40
1.0
  9
$DIMASZ
 40
0.18
  9
$DIMEXO
 40
0.0625
  9
$DIMDLI
 40
0.38
  9
$DIMRND
 40
0.0
  9
$DIMDLE
 40
0.0
  9
$DIMEXE
 40
0.18
  9
$DIMTP
 40
0.0
  9
$DIMTM
 40
0.0
  9
$DIMTXT
 40
0.18
  9
$DIMCEN
 40
0.09
  9
$DIMTSZ
 40
0.0
  9
$DIMTOL
 70
     0
  9
$DIMLIM
 70
     0
  9
$DIMTIH
 70
     1
  9
$DIMTOH
 70
     1
  9
$DIMSE1
 70
     0
  9
$DIMSE2
 70
     0
  9
$DIMTAD
 70
     0
  9
$DIMZIN
 70
     0
  9
$DIMBLK
  1

  9
$DIMASO
 70
     1
  9
$DIMSHO
 70
     1
  9
$DIMPOST
  1

  9
$DIMAPOST
  1

  9
$DIMALT
 70
     0
  9
$DIMALTD
 70
     2
  9
$DIMALTF
 40
25.399999999999999
  9
$DIMLFAC
 40
1.0
  9
$DIMTOFL
 70
     0
  9
$DIMTVP
 40
0.0
  9
$DIMTIX
 70
     0
  9
$DIMSOXD
 70
     0
  9
$DIMSAH
 70
     0
  9
$DIMBLK1
  1

  9
$DIMBLK2
  1

  9
$DIMSTYLE
  2
STANDARD
  9
$DIMCLRD
 70
     0
  9
$DIMCLRE
 70
     0
  9
$DIMCLRT
 70
     0
  9
$DIMTFAC
 40
1.0
  9
$DIMGAP
 40
0.09
  9
$LUNITS
 70
     2
  9
$LUPREC
 70
     4
  9
$SKETCHINC
 40
0.1
  9
$FILLETRAD
 40
0.0
  9
$AUNITS
 70
     0
  9
$AUPREC
 70
     0
  9
$MENU
  1
.
  9
$ELEVATION
 40
0.0
  9
$PELEVATION
 40
0.0
  9
$THICKNESS
 40
0.0
  9
$LIMCHECK
 70
     0
  9
$BLIPMODE
 70
     0
  9
$CHAMFERA
 40
0.0
  9
$CHAMFERB
 40
0.0
  9
$SKPOLY
 70
     0
  9
$TDCREATE
 40
2444972.375
  9
$TDUPDATE
 40
2454735.2812489122
  9
$TDINDWG
 40
0.0046269213
  9
$TDUSRTIMER
 40
0.0046269213
  9
$USRTIMER
 70
     1
  9
$ANGBASE
 50
0.0
  9
$ANGDIR
 70
     0
  9
$PDMODE
 70
     0
  9
$PDSIZE
 40
0.0
  9
$PLINEWID
 40
0.0
  9
$COORDS
 70
     1
  9
$SPLFRAME
 70
     0
  9
$SPLINETYPE
 70
     6
  9
$SPLINESEGS
 70
     8
  9
$ATTDIA
 70
     0
  9
$ATTREQ
 70
     1
  9
$HANDLING
 70
     1
  9
$HANDSEED
  5
278
  9
$SURFTAB1
 70
     6
  9
$SURFTAB2
 70
     6
  9
$SURFTYPE
 70
     6
  9
$SURFU
 70
     6
  9
$SURFV
 70
     6
  9
$UCSNAME
  2

  9
$UCSORG
 10
0.0
 20
0.0
 30
0.0
  9
$UCSXDIR
 10
1.0
 20
0.0
 30
0.0
  9
$UCSYDIR
 10
0.0
 20
1.0
 30
0.0
  9
$PUCSNAME
  2

  9
$PUCSORG
 10
0.0
 20
0.0
 30
0.0
  9
$PUCSXDIR
 10
1.0
 20
0.0
 30
0.0
  9
$PUCSYDIR
 10
0.0
 20
1.0
 30
0.0
  9
$USERI1
 70
     0
  9
$USERI2
 70
     0
  9
$USERI3
 70
     0
  9
$USERI4
 70
     0
  9
$USERI5
 70
     0
  9
$USERR1
 40
0.0
  9
$USERR2
 40
0.0
  9
$USERR3
 40
0.0
  9
$USERR4
 40
0.0
  9
$USERR5
 40
0.0
  9
$WORLDVIEW
 70
     1
  9
$SHADEDGE
 70
     3
  9
$SHADEDIF
 70
    70
  9
$TILEMODE
 70
     1
  9
$MAXACTVP
 70
    48
  9
$PLIMCHECK
 70
     0
  9
$PEXTMIN
 10
1.0000000000000000E+020
 20
1.0000000000000000E+020
 30
1.0000000000000000E+020
  9
$PEXTMAX
 10
-1.0000000000000000E+020
 20
-1.0000000000000000E+020
 30
-1.0000000000000000E+020
  9
$PLIMMIN
 10
0.0
 20
0.0
  9
$PLIMMAX
 10
12.0
 20
9.0
  9
$UNITMODE
 70
     0
  9
$VISRETAIN
 70
     1
  9
$PLINEGEN
 70
     0
  9
$PSLTSCALE
 70
     1
  0
ENDSEC
  0
SECTION
  2
TABLES
  0
TABLE
  2
VPORT
 70
     2
  0
VPORT
  2
*ACTIVE
 70
     0
 10
0.0
 20
0.0
 11
1.0
 21
1.0
 12
220.01794543421639
 22
152.97455443656139
 13
0.0
 23
0.0
 14
1.0
 24
1.0
 15
0.0
 25
0.0
 16
0.0
 26
0.0
 36
1.0
 17
0.0
 27
0.0
 37
0.0
 40
308.19684187060398
 41
2.2894736842105261
 42
50.0
 43
0.0
 44
0.0
 50
0.0
 51
0.0
 71
     0
 72
   100
 73
     1
 74
     1
 75
     0
 76
     0
 77
     0
 78
     0
  0
ENDTAB
  0
TABLE
  2
LTYPE
 70
     4
  0
LTYPE
  2
CONTINUOUS
 70
     0
  3
Solid line
 72
    65
 73
     0
 40
0.0
  0
LTYPE
  2
AIGENLINE001
 70
     0
  3
generate AI->DXF Converter
 72
    65
 73
     4
 40
5.8561449999999988
 49
3.5278
 49
-0.776115
 49
0.776115
 49
-0.776115
  0
LTYPE
  2
AIGENLINE002
 70
     0
  3
generate AI->DXF Converter
 72
    65
 73
     6
 40
7.4083750000000004
 49
3.5278
 49
-0.776115
 49
0.776115
 49
-0.776115
 49
0.776115
 49
-0.776115
  0
LTYPE
  2
AIGENLINE003
 70
     0
  3
generate AI->DXF Converter
 72
    65
 73
     2
 40
1.5522299999999991
 49
0.776115
 49
-0.776115
  0
ENDTAB
  0
TABLE
  2
LAYER
 70
     2
  0
LAYER
  2
0
 70
     0
 62
     7
  6
CONTINUOUS
  0
LAYER
  2
_________2
 70
     0
 62
     7
  6
CONTINUOUS
  0
ENDTAB
  0
TABLE
  2
STYLE
 70
     1
  0
STYLE
  2
STANDARD
 70
     0
 40
0.0
 41
0.0
 50
0.0
 71
     0
 42
0.0
  3
TXT
  4
EXTFONT.SHX
  0
ENDTAB
  0
TABLE
  2
VIEW
 70
     0
  0
ENDTAB
  0
TABLE
  2
UCS
 70
     0
  0
ENDTAB
  0
TABLE
  2
APPID
 70
     1
  0
APPID
  2
ACAD
 70
     0
  0
ENDTAB
  0
TABLE
  2
DIMSTYLE
 70
     1
  0
DIMSTYLE
  2
STANDARD
 70
     0
  3

  4

  5

  6

  7

 40
1.0
 41
0.18
 42
0.0625
 43
0.38
 44
0.18
 45
0.0
 46
0.0
 47
0.0
 48
0.0
140
0.18
141
0.09
142
0.0
143
25.399999999999999
144
1.0
145
0.0
146
1.0
147
0.09
 71
     0
 72
     0
 73
     1
 74
     1
 75
     0
 76
     0
 77
     0
 78
     0
170
     0
171
     2
172
     0
173
     0
174
     0
175
     0
176
     0
177
     0
178
     0
  0
ENDTAB
  0
ENDSEC
  0
SECTION
  2
BLOCKS
  0
BLOCK
  8
0
  2
$MODEL_SPACE
 70
     0
 10
0.0
 20
0.0
 30
0.0
  3
$MODEL_SPACE
  1

  0
ENDBLK
  5
1A
  8
0
  0
BLOCK
 67
     1
  8
0
  2
$PAPER_SPACE
 70
     0
 10
0.0
 20
0.0
 30
0.0
  3
$PAPER_SPACE
  1

  0
ENDBLK
  5
17
 67
     1
  8
0
  0
ENDSEC
  0
SECTION
  2
ENTITIES
  0
LINE
  5
24
  8
0
 62
     7
 10
133.006
 20
177.26300000000001
 30
0.0
 11
156.64199999999991
 21
177.26300000000001
 31
0.0
  0
TEXT
  5
25
  8
0
 62
     7
 10
119.6099999999999
 20
219.35037249999991
 30
0.0
 40
3.0923400000000001
  1
30
 50
90.0
 41
0.5
 72
     1
 11
119.6099999999999
 21
220.50999999999991
 31
0.0
  0
TEXT
  5
26
  8
0
 62
     7
 10
143.19498250000001
 20
186.374
 30
0.0
 40
3.0923400000000001
  1
150
 41
0.5
 72
     1
 11
144.87
 21
186.374
 31
0.0
  0
TEXT
  5
27
  8
0
 62
     7
 10
125.06699999999999
 20
206.99998249999999
 30
0.0
 40
3.0923400000000001
  1
150
 50
90.0
 41
0.5
 72
     1
 11
125.06699999999999
 21
208.67500000000001
 31
0.0
  0
TEXT
  5
28
  8
0
 62
     7
 10
119.6099999999999
 20
202.06128749999999
 30
0.0
 40
3.0923400000000001
  1
305
 50
90.0
 41
0.5
 72
     1
 11
119.6099999999999
 21
203.994
 31
0.0
  0
TEXT
  5
29
  8
0
 62
     7
 10
133.71911499999999
 20
172.15700000000001
 30
0.0
 40
3.0923400000000001
  1
※カウンターを設ける場合
 41
0.5
 72
     1
 11
144.80000000000001
 21
172.15700000000001
 31
0.0
  0
TEXT
  5
2A
  8
0
 62
     7
 10
136.55376000000001
 20
178.27399999999989
 30
0.0
 40
3.0923400000000001
  1
カウンター切込寸法
 41
0.5
 72
     1
 11
144.80000000000001
 21
178.27399999999989
 31
0.0
  0
TEXT
  5
2B
  8
0
 62
     7
 10
159.47368899999989
 20
218.80199999999999
 30
0.0
 40
3.0923400000000001
  1
洗面器後端（壁面）
 41
0.5
 72
     1
 11
167.15299999999991
 21
218.80199999999999
 31
0.0
  0
TEXT
  5
2C
  8
0
 62
     7
 10
142.9251349999999
 20
223.715
 30
0.0
 40
3.0923400000000001
  1
400
 41
0.5
 72
     1
 11
144.7289999999999
 21
223.715
 31
0.0
  0
TEXT
  5
2D
  8
0
 62
     7
 10
135.31228749999991
 20
206.72499999999999
 30
0.0
 40
3.0923400000000001
  1
R20
 41
0.5
 72
     1
 11
137.245
 21
206.72499999999999
 31
0.0
  0
TEXT
  5
2E
  8
0
 62
     7
 10
27.0731
 20
60.899999999999991
 30
0.0
 40
4.4979399999999989
  1
※壁取付部には厚さ30mm以上の補強木を入れてください。
 41
0.5
  0
TEXT
  5
2F
  8
0
 62
     7
 10
51.857639999999989
 20
206.89199999999991
 30
0.0
 40
3.0923400000000001
  1
%%c37
 41
0.5
 72
     1
 11
53.919199999999989
 21
206.89199999999991
 31
0.0
  0
TEXT
  5
30
  8
0
 62
     7
 10
41.042340000000003
 20
230.6579999999999
 30
0.0
 40
3.0923400000000001
  1
%%c35
 41
0.5
 72
     1
 11
43.103900000000003
 21
230.6579999999999
 31
0.0
  0
TEXT
  5
31
  8
0
 62
     7
 10
51.320540000000001
 20
195.07599999999999
 30
0.0
 40
3.0923400000000001
  1
%%c45
 41
0.5
 72
     1
 11
53.382100000000001
 21
195.07599999999999
 31
0.0
  0
TEXT
  5
32
  8
0
 62
     7
 10
183.05299999999991
 20
118.7059825
 30
0.0
 40
3.0923400000000001
  1
180
 50
90.0
 41
0.5
 72
     1
 11
183.05299999999991
 21
120.381
 31
0.0
  0
TEXT
  5
33
  8
0
 62
     7
 10
174.4379999999999
 20
121.6188299999999
 30
0.0
 40
3.0923400000000001
  1
100
 50
90.0
 41
0.5
 72
     1
 11
174.4379999999999
 21
123.16500000000001
 31
0.0
  0
TEXT
  5
34
  8
0
 62
     7
 10
166.614
 20
128.546525
 30
0.0
 40
3.0923400000000001
  1
35
 50
90.0
 41
0.5
 72
     1
 11
166.614
 21
129.83500000000001
 31
0.0
  0
TEXT
  5
35
  8
0
 62
     7
 10
166.614
 20
117.8061349999999
 30
0.0
 40
3.0923400000000001
  1
145
 50
90.0
 41
0.5
 72
     1
 11
166.614
 21
119.6099999999999
 31
0.0
  0
TEXT
  5
36
  8
0
 62
     7
 10
82.371499999999983
 20
211.96937249999999
 30
0.0
 40
3.0923400000000001
  1
80
 50
90.0
 41
0.5
 72
     1
 11
82.371499999999983
 21
213.12899999999999
 31
0.0
  0
TEXT
  5
37
  8
0
 62
     7
 10
82.371499999999983
 20
217.42852500000001
 30
0.0
 40
3.0923400000000001
  1
95
 50
90.0
 41
0.5
 72
     1
 11
82.371499999999983
 21
218.71700000000001
 31
0.0
  0
TEXT
  5
38
  8
0
 62
     7
 10
82.371499999999983
 20
225.3270675
 30
0.0
 40
3.0923400000000001
  1
10
 50
90.0
 41
0.5
 72
     1
 11
82.371499999999983
 21
226.22900000000001
 31
0.0
  0
TEXT
  5
39
  8
0
 62
     7
 10
32.746400000000001
 20
121.4218299999999
 30
0.0
 40
3.0923400000000001
  1
100
 50
90.0
 41
0.5
 72
     1
 11
32.746400000000001
 21
122.9679999999999
 31
0.0
  0
TEXT
  5
3A
  8
0
 62
     7
 10
28.3657
 20
208.81328749999989
 30
0.0
 40
3.0923400000000001
  1
360
 50
90.0
 41
0.5
 72
     1
 11
28.3657
 21
210.7459999999999
 31
0.0
  0
TEXT
  5
3B
  8
0
 62
     7
 10
34.40229999999999
 20
211.36228749999989
 30
0.0
 40
3.0923400000000001
  1
280
 50
90.0
 41
0.5
 72
     1
 11
34.40229999999999
 21
213.29499999999999
 31
0.0
  0
TEXT
  5
3C
  8
0
 62
     7
 10
111.48999999999999
 20
118.455135
 30
0.0
 40
3.0923400000000001
  1
185
 50
90.0
 41
0.5
 72
     1
 11
111.48999999999999
 21
120.259
 31
0.0
  0
TEXT
  5
3D
  8
0
 62
     7
 10
105.69199999999999
 20
118.6549824999999
 30
0.0
 40
3.0923400000000001
  1
180
 50
90.0
 41
0.5
 72
     1
 11
105.69199999999999
 21
120.33
 31
0.0
  0
TEXT
  5
3F
  8
0
 62
     7
 10
101.27200000000001
 20
214.743135
 30
0.0
 40
3.0923400000000001
  1
185
 50
90.0
 41
0.5
 72
     1
 11
101.27200000000001
 21
216.547
 31
0.0
  0
TEXT
  5
40
  8
0
 62
     7
 10
108.7939999999999
 20
200.89528749999991
 30
0.0
 40
3.0923400000000001
  1
580
 50
90.0
 41
0.5
 72
     1
 11
108.7939999999999
 21
202.828
 31
0.0
  0
TEXT
  5
41
  8
0
 62
     7
 10
69.172629999999998
 20
231.923
 30
0.0
 40
3.0923400000000001
  1
100
 41
0.5
 72
     1
 11
70.718800000000002
 21
231.923
 31
0.0
  0
TEXT
  5
42
  8
0
 62
     7
 10
62.15513
 20
231.923
 30
0.0
 40
3.0923400000000001
  1
100
 41
0.5
 72
     1
 11
63.701300000000003
 21
231.923
 31
0.0
  0
TEXT
  5
43
  8
0
 62
     7
 10
65.417787500000003
 20
105.18300000000001
 30
0.0
 40
3.0923400000000001
  1
550
 41
0.5
 72
     1
 11
67.350499999999997
 21
105.18300000000001
 31
0.0
  0
TEXT
  5
44
  8
0
 62
     7
 10
65.417787500000003
 20
134.77000000000001
 30
0.0
 40
3.0923400000000001
  1
330
 41
0.5
 72
     1
 11
67.350499999999997
 21
134.77000000000001
 31
0.0
  0
TEXT
  5
45
  8
0
 62
     7
 10
65.417787500000003
 20
239.405
 30
0.0
 40
3.0923400000000001
  1
550
 41
0.5
 72
     1
 11
67.350499999999997
 21
239.405
 31
0.0
  0
TEXT
  5
46
  8
0
 62
     7
 10
65.417787500000003
 20
142.04799999999989
 30
0.0
 40
3.0923400000000001
  1
860
 41
0.5
 72
     1
 11
67.350499999999997
 21
142.04799999999989
 31
0.0
  0
TEXT
  5
47
  8
0
 62
     7
 10
65.417787500000003
 20
174.428
 30
0.0
 40
3.0923400000000001
  1
860
 41
0.5
 72
     1
 11
67.350499999999997
 21
174.428
 31
0.0
  0
TEXT
  5
48
  8
0
 62
     7
 10
145.71028749999991
 20
103.54600000000001
 30
0.0
 40
3.0923400000000001
  1
360
 41
0.5
 72
     1
 11
147.643
 21
103.54600000000001
 31
0.0
  0
TEXT
  5
49
  8
0
 62
     7
 10
148.3962875
 20
108.532
 30
0.0
 40
3.0923400000000001
  1
280
 41
0.5
 72
     1
 11
150.32899999999989
 21
108.532
 31
0.0
  0
TEXT
  5
4A
  8
0
 62
     7
 10
137.8812874999999
 20
146.958
 30
0.0
 40
3.0923400000000001
  1
580
 41
0.5
 72
     1
 11
139.81399999999991
 21
146.958
 31
0.0
  0
TEXT
  5
4B
  8
0
 62
     7
 10
154.4229824999999
 20
140.29300000000001
 30
0.0
 40
3.0923400000000001
  1
105
 41
0.5
 72
     1
 11
156.0979999999999
 21
140.29300000000001
 31
0.0
  0
TEXT
  5
4C
  8
0
 62
     7
 10
163.3160675
 20
133.76400000000001
 30
0.0
 40
3.0923400000000001
  1
10
 41
0.5
 72
     1
 11
164.2179999999999
 21
133.76400000000001
 31
0.0
  0
LINE
  5
4D
  8
0
 62
     7
 10
158.1339999999999
 20
204.04400000000001
 30
0.0
 11
149.80000000000001
 21
193.7109999999999
 31
0.0
  0
LINE
  5
4E
  8
0
 62
     7
 10
139.80000000000001
 20
193.7109999999999
 30
0.0
 11
131.46600000000001
 21
204.04400000000001
 31
0.0
  0
ARC
  5
4F
  8
0
 62
     7
 10
132.85029399999991
 20
212.66053599999989
 30
0.0
 40
1.3848510000000001
 50
92.111101000000005
 51
177.911078
  0
LINE
  5
50
  8
0
 62
     7
 10
131.46600000000001
 20
212.71100000000001
 30
0.0
 11
131.46600000000001
 21
204.04400000000001
 31
0.0
  0
ARC
  5
51
  8
0
 62
     7
 10
156.749708
 20
212.66053599999989
 30
0.0
 40
1.3848510000000001
 50
2.0889189999999989
 51
87.888862000000003
  0
LINE
  5
52
  8
0
 62
     7
 10
165.9909999999999
 20
217.96299999999991
 30
0.0
 11
167.09899999999999
 21
216.0449999999999
 31
0.0
  0
LINE
  5
53
  8
0
 62
     7
 10
167.09899999999999
 20
216.0449999999999
 30
0.0
 11
168.20699999999991
 21
217.96299999999991
 31
0.0
  0
LINE
  5
54
  8
0
 62
     7
 10
168.20699999999991
 20
217.96299999999991
 30
0.0
 11
165.9909999999999
 21
217.96299999999991
 31
0.0
  0
LINE
  5
55
  8
0
  6
AIGENLINE001
 62
     7
 10
144.80000000000001
 20
192.262
 30
0.0
 11
144.80000000000001
 21
217.78499999999991
 31
0.0
  0
LINE
  5
56
  8
0
 62
     7
 10
149.80000000000001
 20
184.8829999999999
 30
0.0
 11
149.80000000000001
 21
192.24700000000001
 31
0.0
  0
LINE
  5
57
  8
0
 62
     7
 10
139.79900000000001
 20
184.72799999999989
 30
0.0
 11
139.79900000000001
 21
192.54699999999991
 31
0.0
  0
LINE
  5
58
  8
0
 62
     7
 10
147.58899999999991
 20
184.9729999999999
 30
0.0
 11
149.80000000000001
 21
185.56499999999991
 31
0.0
  0
LINE
  5
59
  8
0
 62
     7
 10
149.80000000000001
 20
185.56499999999991
 30
0.0
 11
147.58899999999991
 21
186.15700000000001
 31
0.0
  0
LINE
  5
5A
  8
0
 62
     7
 10
147.58899999999991
 20
186.15700000000001
 30
0.0
 11
147.58899999999991
 21
184.9729999999999
 31
0.0
  0
LINE
  5
5B
  8
0
 62
     7
 10
142.00999999999991
 20
186.143
 30
0.0
 11
139.79900000000001
 21
185.5509999999999
 31
0.0
  0
LINE
  5
5C
  8
0
 62
     7
 10
139.79900000000001
 20
185.5509999999999
 30
0.0
 11
142.00999999999991
 21
184.959
 31
0.0
  0
LINE
  5
5D
  8
0
 62
     7
 10
142.00999999999991
 20
184.959
 30
0.0
 11
142.00999999999991
 21
186.143
 31
0.0
  0
LINE
  5
5E
  8
0
 62
     7
 10
149.80000000000001
 20
185.55799999999991
 30
0.0
 11
139.79900000000001
 21
185.55799999999991
 31
0.0
  0
LINE
  5
5F
  8
0
 62
     7
 10
125.354
 20
204.04400000000001
 30
0.0
 11
130.62
 21
204.04400000000001
 31
0.0
  0
LINE
  5
60
  8
0
 62
     7
 10
119.4989999999999
 20
193.7109999999999
 30
0.0
 11
138.5739999999999
 21
193.7109999999999
 31
0.0
  0
LINE
  5
61
  8
0
 62
     7
 10
119.4989999999999
 20
214.04400000000001
 30
0.0
 11
130.9199999999999
 21
214.04400000000001
 31
0.0
  0
LINE
  5
62
  8
0
 62
     7
 10
139.80000000000001
 20
193.7109999999999
 30
0.0
 11
149.80000000000001
 21
193.7109999999999
 31
0.0
  0
LINE
  5
63
  8
0
 62
     7
 10
132.79900000000001
 20
214.04400000000001
 30
0.0
 11
156.80099999999999
 21
214.04400000000001
 31
0.0
  0
LINE
  5
64
  8
0
  6
AIGENLINE002
 62
     7
 10
116.792
 20
216.0449999999999
 30
0.0
 11
168.46199999999999
 21
216.0449999999999
 31
0.0
  0
LINE
  5
65
  8
0
 62
     7
 10
133.756
 20
212.41799999999989
 30
0.0
 11
131.774
 21
213.56200000000001
 31
0.0
  0
LINE
  5
66
  8
0
 62
     7
 10
131.774
 20
213.56200000000001
 30
0.0
 11
132.91800000000001
 21
211.58000000000001
 31
0.0
  0
LINE
  5
67
  8
0
 62
     7
 10
132.91800000000001
 20
211.58000000000001
 30
0.0
 11
133.756
 21
212.41799999999989
 31
0.0
  0
LINE
  5
68
  8
0
 62
     7
 10
131.774
 20
213.56200000000001
 30
0.0
 11
135.31700000000001
 21
210.01900000000001
 31
0.0
  0
LINE
  5
69
  8
0
 62
     7
 10
119.61199999999999
 20
218.25499999999991
 30
0.0
 11
120.205
 21
216.0449999999999
 31
0.0
  0
LINE
  5
6A
  8
0
 62
     7
 10
120.205
 20
216.0449999999999
 30
0.0
 11
120.797
 21
218.25499999999991
 31
0.0
  0
LINE
  5
6B
  8
0
 62
     7
 10
120.797
 20
218.25499999999991
 30
0.0
 11
119.61199999999999
 21
218.25499999999991
 31
0.0
  0
LINE
  5
6C
  8
0
 62
     7
 10
125.4439999999999
 20
206.25499999999991
 30
0.0
 11
126.036
 21
204.04400000000001
 31
0.0
  0
LINE
  5
6D
  8
0
 62
     7
 10
126.036
 20
204.04400000000001
 30
0.0
 11
126.6279999999999
 21
206.25499999999991
 31
0.0
  0
LINE
  5
6E
  8
0
 62
     7
 10
126.6279999999999
 20
206.25499999999991
 30
0.0
 11
125.4439999999999
 21
206.25499999999991
 31
0.0
  0
LINE
  5
6F
  8
0
 62
     7
 10
126.6139999999999
 20
211.83399999999989
 30
0.0
 11
126.021
 21
214.04400000000001
 31
0.0
  0
LINE
  5
70
  8
0
 62
     7
 10
126.021
 20
214.04400000000001
 30
0.0
 11
125.429
 21
211.83399999999989
 31
0.0
  0
LINE
  5
71
  8
0
 62
     7
 10
125.429
 20
211.83399999999989
 30
0.0
 11
126.6139999999999
 21
211.83399999999989
 31
0.0
  0
LINE
  5
72
  8
0
 62
     7
 10
126.0289999999999
 20
204.04400000000001
 30
0.0
 11
126.0289999999999
 21
214.04400000000001
 31
0.0
  0
LINE
  5
73
  8
0
 62
     7
 10
119.62
 20
195.922
 30
0.0
 11
120.212
 21
193.7109999999999
 31
0.0
  0
LINE
  5
74
  8
0
 62
     7
 10
120.212
 20
193.7109999999999
 30
0.0
 11
120.804
 21
195.922
 31
0.0
  0
LINE
  5
75
  8
0
 62
     7
 10
120.804
 20
195.922
 30
0.0
 11
119.62
 21
195.922
 31
0.0
  0
LINE
  5
76
  8
0
 62
     7
 10
120.79000000000001
 20
211.83399999999989
 30
0.0
 11
120.1969999999999
 21
214.04400000000001
 31
0.0
  0
LINE
  5
77
  8
0
 62
     7
 10
120.1969999999999
 20
214.04400000000001
 30
0.0
 11
119.605
 21
211.83399999999989
 31
0.0
  0
LINE
  5
78
  8
0
 62
     7
 10
119.605
 20
211.83399999999989
 30
0.0
 11
120.79000000000001
 21
211.83399999999989
 31
0.0
  0
LINE
  5
79
  8
0
 62
     7
 10
120.205
 20
193.7109999999999
 30
0.0
 11
120.205
 21
222.499
 31
0.0
  0
LINE
  5
7A
  8
0
 62
     7
 10
133.67699999999999
 20
223.47099999999989
 30
0.0
 11
131.46600000000001
 21
222.87899999999999
 31
0.0
  0
LINE
  5
7B
  8
0
 62
     7
 10
131.46600000000001
 20
222.87899999999999
 30
0.0
 11
133.67699999999999
 21
222.28599999999989
 31
0.0
  0
LINE
  5
7C
  8
0
 62
     7
 10
133.67699999999999
 20
222.28599999999989
 30
0.0
 11
133.67699999999999
 21
223.47099999999989
 31
0.0
  0
LINE
  5
7D
  8
0
 62
     7
 10
155.923
 20
222.3009999999999
 30
0.0
 11
158.1339999999999
 21
222.893
 31
0.0
  0
LINE
  5
7E
  8
0
 62
     7
 10
158.1339999999999
 20
222.893
 30
0.0
 11
155.923
 21
223.48500000000001
 31
0.0
  0
LINE
  5
7F
  8
0
 62
     7
 10
155.923
 20
223.48500000000001
 30
0.0
 11
155.923
 21
222.3009999999999
 31
0.0
  0
LINE
  5
80
  8
0
 62
     7
 10
131.46600000000001
 20
222.886
 30
0.0
 11
158.1339999999999
 21
222.886
 31
0.0
  0
LINE
  5
81
  8
0
 62
     7
 10
158.1339999999999
 20
223.70599999999999
 30
0.0
 11
158.1339999999999
 21
213.95400000000001
 31
0.0
  0
LINE
  5
82
  8
0
 62
     7
 10
131.46600000000001
 20
223.70599999999999
 30
0.0
 11
131.46600000000001
 21
214.15000000000001
 31
0.0
  0
LINE
  5
83
  8
0
 62
     7
 10
158.1339999999999
 20
212.71100000000001
 30
0.0
 11
158.1339999999999
 21
204.04400000000001
 31
0.0
  0
LINE
  5
84
  8
0
 62
     7
 10
51.2273
 20
239.13499999999999
 30
0.0
 11
49.016999999999989
 21
238.54199999999989
 31
0.0
  0
LINE
  5
85
  8
0
 62
     7
 10
49.016999999999989
 20
238.54199999999989
 30
0.0
 11
51.2273
 21
237.9499999999999
 31
0.0
  0
LINE
  5
86
  8
0
 62
     7
 10
51.2273
 20
237.9499999999999
 30
0.0
 11
51.2273
 21
239.13499999999999
 31
0.0
  0
LINE
  5
87
  8
0
 62
     7
 10
83.473500000000001
 20
237.965
 30
0.0
 11
85.683999999999997
 21
238.55699999999999
 31
0.0
  0
LINE
  5
88
  8
0
 62
     7
 10
85.683999999999997
 20
238.55699999999999
 30
0.0
 11
83.473500000000001
 21
239.149
 31
0.0
  0
LINE
  5
89
  8
0
 62
     7
 10
83.473500000000001
 20
239.149
 30
0.0
 11
83.473500000000001
 21
237.965
 31
0.0
  0
LINE
  5
8A
  8
0
 62
     7
 10
49.016999999999989
 20
238.5499999999999
 30
0.0
 11
85.683999999999997
 21
238.5499999999999
 31
0.0
  0
LINE
  5
8B
  8
0
 62
     7
 10
65.139899999999983
 20
230.29499999999999
 30
0.0
 11
67.350499999999997
 21
230.887
 31
0.0
  0
LINE
  5
8C
  8
0
 62
     7
 10
67.350499999999997
 20
230.887
 30
0.0
 11
65.139899999999983
 21
231.4799999999999
 31
0.0
  0
LINE
  5
8D
  8
0
 62
     7
 10
65.139899999999983
 20
231.4799999999999
 30
0.0
 11
65.139899999999983
 21
230.29499999999999
 31
0.0
  0
LINE
  5
8E
  8
0
 62
     7
 10
71.806899999999999
 20
230.29499999999999
 30
0.0
 11
74.017499999999984
 21
230.887
 31
0.0
  0
LINE
  5
8F
  8
0
 62
     7
 10
74.017499999999984
 20
230.887
 30
0.0
 11
71.806899999999999
 21
231.4799999999999
 31
0.0
  0
LINE
  5
90
  8
0
 62
     7
 10
71.806899999999999
 20
231.4799999999999
 30
0.0
 11
71.806899999999999
 21
230.29499999999999
 31
0.0
  0
LINE
  5
91
  8
0
 62
     7
 10
69.560900000000004
 20
231.46499999999989
 30
0.0
 11
67.350499999999997
 21
230.87299999999999
 31
0.0
  0
LINE
  5
92
  8
0
 62
     7
 10
67.350499999999997
 20
230.87299999999999
 30
0.0
 11
69.560900000000004
 21
230.27999999999989
 31
0.0
  0
LINE
  5
93
  8
0
 62
     7
 10
69.560900000000004
 20
230.27999999999989
 30
0.0
 11
69.560900000000004
 21
231.46499999999989
 31
0.0
  0
LINE
  5
94
  8
0
 62
     7
 10
62.894199999999991
 20
231.46499999999989
 30
0.0
 11
60.683799999999998
 21
230.87299999999999
 31
0.0
  0
LINE
  5
95
  8
0
 62
     7
 10
60.683799999999998
 20
230.87299999999999
 30
0.0
 11
62.894199999999991
 21
230.27999999999989
 31
0.0
  0
LINE
  5
96
  8
0
 62
     7
 10
62.894199999999991
 20
230.27999999999989
 30
0.0
 11
62.894199999999991
 21
231.46499999999989
 31
0.0
  0
LINE
  5
97
  8
0
 62
     7
 10
74.017499999999984
 20
230.88
 30
0.0
 11
60.683799999999998
 21
230.88
 31
0.0
  0
LINE
  5
98
  8
0
 62
     7
 10
76.140000000000001
 20
133.1989999999999
 30
0.0
 11
78.350800000000007
 21
133.79099999999991
 31
0.0
  0
LINE
  5
99
  8
0
 62
     7
 10
78.350800000000007
 20
133.79099999999991
 30
0.0
 11
76.140000000000001
 21
134.3829999999999
 31
0.0
  0
LINE
  5
9A
  8
0
 62
     7
 10
76.140000000000001
 20
134.3829999999999
 30
0.0
 11
76.140000000000001
 21
133.1989999999999
 31
0.0
  0
LINE
  5
9B
  8
0
 62
     7
 10
58.561000000000007
 20
134.369
 30
0.0
 11
56.350200000000001
 21
133.77699999999999
 31
0.0
  0
LINE
  5
9C
  8
0
 62
     7
 10
56.350200000000001
 20
133.77699999999999
 30
0.0
 11
58.561000000000007
 21
133.18399999999991
 31
0.0
  0
LINE
  5
9D
  8
0
 62
     7
 10
58.561000000000007
 20
133.18399999999991
 30
0.0
 11
58.561000000000007
 21
134.369
 31
0.0
  0
LINE
  5
9E
  8
0
 62
     7
 10
78.350800000000007
 20
133.78399999999991
 30
0.0
 11
56.350200000000001
 21
133.78399999999991
 31
0.0
  0
LINE
  5
9F
  8
0
 62
     7
 10
85.683999999999997
 20
239.1109999999999
 30
0.0
 11
85.683999999999997
 21
223.49999999999989
 31
0.0
  0
LINE
  5
A0
  8
0
 62
     7
 10
49.016999999999989
 20
239.1109999999999
 30
0.0
 11
49.016999999999989
 21
223.49999999999989
 31
0.0
  0
LINE
  5
A1
  8
0
 62
     7
 10
85.683999999999997
 20
222.76899999999989
 30
0.0
 11
85.683999999999997
 21
219.56999999999991
 31
0.0
  0
LINE
  5
A2
  8
0
  6
AIGENLINE003
 62
     7
 10
85.683999999999997
 20
219.56999999999991
 30
0.0
 11
85.683999999999997
 21
206.75899999999999
 31
0.0
  0
ARC
  5
A3
  8
0
  6
AIGENLINE003
 62
     7
 10
78.103053000000003
 20
206.97513799999999
 30
0.0
 40
7.5840439999999996
 50
279.504345
 51
358.36993799999999
  0
ARC
  5
A4
  8
0
  6
AIGENLINE003
 62
     7
 10
67.330388999999997
 20
295.98516599999988
 30
0.0
 40
97.216887999999997
 50
270.01185800000002
 51
272.69053300000002
  0
ARC
  5
A5
  8
0
  6
AIGENLINE003
 62
     7
 10
67.560787000000005
 20
301.69292999999999
 30
0.0
 40
102.9087499999999
 50
272.41322300000002
 51
275.379932
  0
ARC
  5
A6
  8
0
  6
AIGENLINE003
 62
     7
 10
72.546879000000004
 20
247.12758799999989
 30
0.0
 40
48.116522000000003
 50
275.56079699999998
 51
278.13464099999987
  0
LINE
  5
A7
  8
0
 62
     7
 10
49.016999999999989
 20
222.76899999999989
 30
0.0
 11
49.016999999999989
 21
219.56999999999991
 31
0.0
  0
LINE
  5
A8
  8
0
 62
     7
 10
135.66800000000001
 20
113.52500000000001
 30
0.0
 11
135.66800000000001
 21
102.035
 31
0.0
  0
LINE
  5
A9
  8
0
 62
     7
 10
159.66800000000001
 20
114.06100000000001
 30
0.0
 11
159.66800000000001
 21
102.035
 31
0.0
  0
LINE
  5
AA
  8
0
 62
     7
 10
137.8779999999999
 20
103.32899999999999
 30
0.0
 11
135.66800000000001
 21
102.7379999999999
 31
0.0
  0
LINE
  5
AB
  8
0
 62
     7
 10
135.66800000000001
 20
102.7379999999999
 30
0.0
 11
137.8779999999999
 21
102.1449999999999
 31
0.0
  0
LINE
  5
AC
  8
0
 62
     7
 10
137.8779999999999
 20
102.1449999999999
 30
0.0
 11
137.8779999999999
 21
103.32899999999999
 31
0.0
  0
LINE
  5
AD
  8
0
 62
     7
 10
157.45699999999999
 20
102.15899999999991
 30
0.0
 11
159.66800000000001
 21
102.752
 31
0.0
  0
LINE
  5
AE
  8
0
 62
     7
 10
159.66800000000001
 20
102.752
 30
0.0
 11
157.45699999999999
 21
103.34399999999989
 31
0.0
  0
LINE
  5
AF
  8
0
 62
     7
 10
157.45699999999999
 20
103.34399999999989
 30
0.0
 11
157.45699999999999
 21
102.15899999999991
 31
0.0
  0
LINE
  5
B0
  8
0
 62
     7
 10
135.66800000000001
 20
102.7439999999999
 30
0.0
 11
159.66800000000001
 21
102.7439999999999
 31
0.0
  0
LINE
  5
B1
  8
0
 62
     7
 10
143.21199999999999
 20
108.244
 30
0.0
 11
141.00099999999989
 21
107.652
 31
0.0
  0
LINE
  5
B2
  8
0
 62
     7
 10
141.00099999999989
 20
107.652
 30
0.0
 11
143.21199999999999
 21
107.0599999999999
 31
0.0
  0
LINE
  5
B3
  8
0
 62
     7
 10
143.21199999999999
 20
107.0599999999999
 30
0.0
 11
143.21199999999999
 21
108.244
 31
0.0
  0
LINE
  5
B4
  8
0
 62
     7
 10
157.45699999999999
 20
107.074
 30
0.0
 11
159.66800000000001
 21
107.667
 31
0.0
  0
LINE
  5
B5
  8
0
 62
     7
 10
159.66800000000001
 20
107.667
 30
0.0
 11
157.45699999999999
 21
108.2589999999999
 31
0.0
  0
LINE
  5
B6
  8
0
 62
     7
 10
157.45699999999999
 20
108.2589999999999
 30
0.0
 11
157.45699999999999
 21
107.074
 31
0.0
  0
LINE
  5
B7
  8
0
 62
     7
 10
141.00099999999989
 20
107.65899999999991
 30
0.0
 11
159.66800000000001
 21
107.65899999999991
 31
0.0
  0
LINE
  5
B8
  8
0
 62
     7
 10
141.00099999999989
 20
112.0209999999999
 30
0.0
 11
141.00099999999989
 21
106.95
 31
0.0
  0
LINE
  5
B9
  8
0
 62
     7
 10
135.33399999999989
 20
116.249
 30
0.0
 11
149.27000000000001
 21
116.249
 31
0.0
  0
LINE
  5
BA
  8
0
 62
     7
 10
121.0
 20
146.6689999999999
 30
0.0
 11
121.0
 21
127.221
 31
0.0
  0
LINE
  5
BB
  8
0
 62
     7
 10
159.66800000000001
 20
146.6689999999999
 30
0.0
 11
159.66800000000001
 21
127.221
 31
0.0
  0
LINE
  5
BC
  8
0
 62
     7
 10
161.87899999999991
 20
133.57699999999991
 30
0.0
 11
159.66800000000001
 21
132.98500000000001
 31
0.0
  0
LINE
  5
BD
  8
0
 62
     7
 10
159.66800000000001
 20
132.98500000000001
 30
0.0
 11
161.87899999999991
 21
132.39199999999991
 31
0.0
  0
LINE
  5
BE
  8
0
 62
     7
 10
161.87899999999991
 20
132.39199999999991
 30
0.0
 11
161.87899999999991
 21
133.57699999999991
 31
0.0
  0
LINE
  5
BF
  8
0
 62
     7
 10
156.78999999999991
 20
132.40700000000001
 30
0.0
 11
159.001
 21
132.999
 31
0.0
  0
LINE
  5
C0
  8
0
 62
     7
 10
159.001
 20
132.999
 30
0.0
 11
156.78999999999991
 21
133.59100000000001
 31
0.0
  0
LINE
  5
C1
  8
0
 62
     7
 10
156.78999999999991
 20
133.59100000000001
 30
0.0
 11
156.78999999999991
 21
132.40700000000001
 31
0.0
  0
LINE
  5
C2
  8
0
 62
     7
 10
155.113
 20
132.99199999999999
 30
0.0
 11
166.321
 21
132.99199999999999
 31
0.0
  0
LINE
  5
C3
  8
0
 62
     7
 10
154.8779999999999
 20
139.90600000000001
 30
0.0
 11
152.667
 21
139.31399999999999
 31
0.0
  0
LINE
  5
C4
  8
0
 62
     7
 10
152.667
 20
139.31399999999999
 30
0.0
 11
154.8779999999999
 21
138.721
 31
0.0
  0
LINE
  5
C5
  8
0
 62
     7
 10
154.8779999999999
 20
138.721
 30
0.0
 11
154.8779999999999
 21
139.90600000000001
 31
0.0
  0
LINE
  5
C6
  8
0
 62
     7
 10
157.45699999999999
 20
138.7359999999999
 30
0.0
 11
159.66800000000001
 21
139.328
 31
0.0
  0
LINE
  5
C7
  8
0
 62
     7
 10
159.66800000000001
 20
139.328
 30
0.0
 11
157.45699999999999
 21
139.9199999999999
 31
0.0
  0
LINE
  5
C8
  8
0
 62
     7
 10
157.45699999999999
 20
139.9199999999999
 30
0.0
 11
157.45699999999999
 21
138.7359999999999
 31
0.0
  0
LINE
  5
C9
  8
0
 62
     7
 10
152.667
 20
139.321
 30
0.0
 11
159.66800000000001
 21
139.321
 31
0.0
  0
LINE
  5
CA
  8
0
 62
     7
 10
123.212
 20
146.5439999999999
 30
0.0
 11
121.0
 21
145.95199999999991
 31
0.0
  0
LINE
  5
CB
  8
0
 62
     7
 10
121.0
 20
145.95199999999991
 30
0.0
 11
123.212
 21
145.35900000000001
 31
0.0
  0
LINE
  5
CC
  8
0
 62
     7
 10
123.212
 20
145.35900000000001
 30
0.0
 11
123.212
 21
146.5439999999999
 31
0.0
  0
LINE
  5
CD
  8
0
 62
     7
 10
157.45699999999999
 20
145.37399999999991
 30
0.0
 11
159.66800000000001
 21
145.965
 31
0.0
  0
LINE
  5
CE
  8
0
 62
     7
 10
159.66800000000001
 20
145.965
 30
0.0
 11
157.45699999999999
 21
146.55799999999991
 31
0.0
  0
LINE
  5
CF
  8
0
 62
     7
 10
157.45699999999999
 20
146.55799999999991
 30
0.0
 11
157.45699999999999
 21
145.37399999999991
 31
0.0
  0
LINE
  5
D0
  8
0
 62
     7
 10
121.0
 20
145.959
 30
0.0
 11
159.66800000000001
 21
145.959
 31
0.0
  0
LINE
  5
D1
  8
0
 62
     7
 10
121.334
 20
126.649
 30
0.0
 11
158.46700000000001
 21
126.649
 31
0.0
  0
ARC
  5
D2
  8
0
 62
     7
 10
121.3465139999999
 20
126.30261400000001
 30
0.0
 40
0.346327
 50
92.082351000000017
 51
177.79911699999991
  0
LINE
  5
D3
  8
0
  6
AIGENLINE001
 62
     7
 10
152.667
 20
128.27099999999999
 30
0.0
 11
152.667
 21
124.702
 31
0.0
  0
LINE
  5
D4
  8
0
 62
     7
 10
152.667
 20
140.03
 30
0.0
 11
152.667
 21
128.69099999999989
 31
0.0
  0
LINE
  5
D5
  8
0
 62
     7
 10
159.001
 20
133.702
 30
0.0
 11
159.001
 21
127.221
 31
0.0
  0
LINE
  5
D6
  8
0
 62
     7
 10
176.107
 20
124.4379999999999
 30
0.0
 11
175.5149999999999
 21
126.649
 31
0.0
  0
LINE
  5
D7
  8
0
 62
     7
 10
175.5149999999999
 20
126.649
 30
0.0
 11
174.923
 21
124.4379999999999
 31
0.0
  0
LINE
  5
D8
  8
0
 62
     7
 10
174.923
 20
124.4379999999999
 30
0.0
 11
176.107
 21
124.4379999999999
 31
0.0
  0
LINE
  5
D9
  8
0
 62
     7
 10
174.93700000000001
 20
122.1929999999999
 30
0.0
 11
175.53
 21
119.982
 31
0.0
  0
LINE
  5
DA
  8
0
 62
     7
 10
175.53
 20
119.982
 30
0.0
 11
176.12200000000001
 21
122.1929999999999
 31
0.0
  0
LINE
  5
DB
  8
0
 62
     7
 10
176.12200000000001
 20
122.1929999999999
 30
0.0
 11
174.93700000000001
 21
122.1929999999999
 31
0.0
  0
LINE
  5
DC
  8
0
 62
     7
 10
175.52199999999999
 20
126.649
 30
0.0
 11
175.52199999999999
 21
119.982
 31
0.0
  0
LINE
  5
DD
  8
0
  6
AIGENLINE001
 62
     7
 10
157.79099999999991
 20
119.982
 30
0.0
 11
161.78100000000001
 21
119.982
 31
0.0
  0
LINE
  5
DE
  8
0
 62
     7
 10
168.11500000000001
 20
122.1049999999999
 30
0.0
 11
167.52299999999991
 21
124.316
 31
0.0
  0
LINE
  5
DF
  8
0
 62
     7
 10
167.52299999999991
 20
124.316
 30
0.0
 11
166.9309999999999
 21
122.1049999999999
 31
0.0
  0
LINE
  5
E0
  8
0
 62
     7
 10
166.9309999999999
 20
122.1049999999999
 30
0.0
 11
168.11500000000001
 21
122.1049999999999
 31
0.0
  0
LINE
  5
E1
  8
0
 62
     7
 10
166.94499999999991
 20
128.86000000000001
 30
0.0
 11
167.53700000000001
 21
126.649
 31
0.0
  0
LINE
  5
E2
  8
0
 62
     7
 10
167.53700000000001
 20
126.649
 30
0.0
 11
168.13
 21
128.86000000000001
 31
0.0
  0
LINE
  5
E3
  8
0
 62
     7
 10
168.13
 20
128.86000000000001
 30
0.0
 11
166.94499999999991
 21
128.86000000000001
 31
0.0
  0
LINE
  5
E4
  8
0
 62
     7
 10
166.94499999999991
 20
116.86
 30
0.0
 11
167.53700000000001
 21
114.649
 31
0.0
  0
LINE
  5
E5
  8
0
 62
     7
 10
167.53700000000001
 20
114.649
 30
0.0
 11
168.13
 21
116.86
 31
0.0
  0
LINE
  5
E6
  8
0
 62
     7
 10
168.13
 20
116.86
 30
0.0
 11
166.94499999999991
 21
116.86
 31
0.0
  0
LINE
  5
E7
  8
0
 62
     7
 10
167.53
 20
131.88699999999989
 30
0.0
 11
167.53
 21
114.649
 31
0.0
  0
LINE
  5
E8
  8
0
 62
     7
 10
184.61500000000001
 20
114.649
 30
0.0
 11
160.33500000000001
 21
114.649
 31
0.0
  0
LINE
  5
E9
  8
0
 62
     7
 10
176.233
 20
119.982
 30
0.0
 11
168.28200000000001
 21
119.982
 31
0.0
  0
LINE
  5
EA
  8
0
 62
     7
 10
168.72399999999999
 20
124.316
 30
0.0
 11
160.33500000000001
 21
124.316
 31
0.0
  0
LINE
  5
EB
  8
0
 62
     7
 10
159.001
 20
124.9829999999999
 30
0.0
 11
159.001
 21
126.1149999999999
 31
0.0
  0
ARC
  5
EC
  8
0
 62
     7
 10
158.447181
 20
126.0951179999999
 30
0.0
 40
0.553966
 50
2.0990120000000001
 51
87.900978000000009
  0
ARC
  5
ED
  8
0
 62
     7
 10
159.693129
 20
125.008033
 30
0.0
 40
0.692819
 50
182.0993499999999
 51
267.90067900000003
  0
LINE
  5
EE
  8
0
 62
     7
 10
156.334
 20
119.48099999999999
 30
0.0
 11
156.334
 21
124.316
 31
0.0
  0
LINE
  5
EF
  8
0
 62
     7
 10
159.66800000000001
 20
114.649
 30
0.0
 11
159.66800000000001
 21
124.316
 31
0.0
  0
LINE
  5
F0
  8
0
 62
     7
 10
184.4909999999999
 20
124.4379999999999
 30
0.0
 11
183.898
 21
126.649
 31
0.0
  0
LINE
  5
F1
  8
0
 62
     7
 10
183.898
 20
126.649
 30
0.0
 11
183.3059999999999
 21
124.4379999999999
 31
0.0
  0
LINE
  5
F2
  8
0
 62
     7
 10
183.3059999999999
 20
124.4379999999999
 30
0.0
 11
184.4909999999999
 21
124.4379999999999
 31
0.0
  0
LINE
  5
F3
  8
0
 62
     7
 10
183.321
 20
116.86
 30
0.0
 11
183.91200000000001
 21
114.649
 31
0.0
  0
LINE
  5
F4
  8
0
 62
     7
 10
183.91200000000001
 20
114.649
 30
0.0
 11
184.505
 21
116.86
 31
0.0
  0
LINE
  5
F5
  8
0
 62
     7
 10
184.505
 20
116.86
 30
0.0
 11
183.321
 21
116.86
 31
0.0
  0
LINE
  5
F6
  8
0
 62
     7
 10
183.90599999999989
 20
126.649
 30
0.0
 11
183.90599999999989
 21
114.649
 31
0.0
  0
LINE
  5
F7
  8
0
 62
     7
 10
184.61500000000001
 20
126.649
 30
0.0
 11
160.33500000000001
 21
126.649
 31
0.0
  0
LINE
  5
F8
  8
0
  6
AIGENLINE001
 62
     7
 10
141.00099999999989
 20
112.5179999999999
 30
0.0
 11
141.00099999999989
 21
128.59100000000001
 31
0.0
  0
LINE
  5
F9
  8
0
 62
     7
 10
135.66800000000001
 20
114.649
 30
0.0
 11
135.66800000000001
 21
115.9159999999999
 31
0.0
  0
ARC
  5
FA
  8
0
 62
     7
 10
135.32227299999991
 20
115.9031549999999
 30
0.0
 40
0.345643
 50
2.0955049999999988
 51
88.022986999999986
  0
LINE
  5
FB
  8
0
 62
     7
 10
143.501
 20
114.51600000000001
 30
0.0
 11
143.501
 21
114.649
 31
0.0
  0
LINE
  5
FC
  8
0
 62
     7
 10
138.70099999999991
 20
114.3159999999999
 30
0.0
 11
143.30099999999999
 21
114.3159999999999
 31
0.0
  0
ARC
  5
FD
  8
0
 62
     7
 10
143.2933909999999
 20
114.523708
 30
0.0
 40
0.207955
 50
272.01034199999998
 51
357.79243600000001
  0
LINE
  5
FE
  8
0
 62
     7
 10
138.501
 20
114.51600000000001
 30
0.0
 11
138.501
 21
114.649
 31
0.0
  0
ARC
  5
FF
  8
0
 62
     7
 10
138.7083199999999
 20
114.5232519999999
 30
0.0
 40
0.207509
 50
182.08635100000001
 51
267.913679
  0
LINE
  5
100
  8
0
 62
     7
 10
135.66800000000001
 20
114.649
 30
0.0
 11
159.66800000000001
 21
114.649
 31
0.0
  0
LINE
  5
101
  8
0
 62
     7
 10
85.683999999999997
 20
103.444
 30
0.0
 11
85.683999999999997
 21
113.849
 31
0.0
  0
LINE
  5
102
  8
0
 62
     7
 10
49.016999999999989
 20
103.444
 30
0.0
 11
49.016999999999989
 21
113.849
 31
0.0
  0
LINE
  5
103
  8
0
 62
     7
 10
51.227699999999999
 20
104.7389999999999
 30
0.0
 11
49.016999999999989
 21
104.14700000000001
 31
0.0
  0
LINE
  5
104
  8
0
 62
     7
 10
49.016999999999989
 20
104.14700000000001
 30
0.0
 11
51.227699999999999
 21
103.55500000000001
 31
0.0
  0
LINE
  5
105
  8
0
 62
     7
 10
51.227699999999999
 20
103.55500000000001
 30
0.0
 11
51.227699999999999
 21
104.7389999999999
 31
0.0
  0
LINE
  5
106
  8
0
 62
     7
 10
83.473299999999995
 20
103.5689999999999
 30
0.0
 11
85.683999999999997
 21
104.16199999999991
 31
0.0
  0
LINE
  5
107
  8
0
 62
     7
 10
85.683999999999997
 20
104.16199999999991
 30
0.0
 11
83.473299999999995
 21
104.75399999999991
 31
0.0
  0
LINE
  5
108
  8
0
 62
     7
 10
83.473299999999995
 20
104.75399999999991
 30
0.0
 11
83.473299999999995
 21
103.5689999999999
 31
0.0
  0
LINE
  5
109
  8
0
 62
     7
 10
49.016999999999989
 20
104.1539999999999
 30
0.0
 11
85.683999999999997
 21
104.1539999999999
 31
0.0
  0
LINE
  5
10A
  8
0
 62
     7
 10
96.017300000000006
 20
141.72999999999999
 30
0.0
 11
96.017300000000006
 21
127.96899999999989
 31
0.0
  0
LINE
  5
10B
  8
0
 62
     7
 10
38.683700000000002
 20
141.72999999999999
 30
0.0
 11
38.683700000000002
 21
127.96899999999989
 31
0.0
  0
LINE
  5
10C
  8
0
 62
     7
 10
40.89439999999999
 20
141.60499999999999
 30
0.0
 11
38.683700000000002
 21
141.01300000000001
 31
0.0
  0
LINE
  5
10D
  8
0
 62
     7
 10
38.683700000000002
 20
141.01300000000001
 30
0.0
 11
40.89439999999999
 21
140.4199999999999
 31
0.0
  0
LINE
  5
10E
  8
0
 62
     7
 10
40.89439999999999
 20
140.4199999999999
 30
0.0
 11
40.89439999999999
 21
141.60499999999999
 31
0.0
  0
LINE
  5
10F
  8
0
 62
     7
 10
93.806600000000003
 20
140.43499999999989
 30
0.0
 11
96.017300000000006
 21
141.02699999999999
 31
0.0
  0
LINE
  5
110
  8
0
 62
     7
 10
96.017300000000006
 20
141.02699999999999
 30
0.0
 11
93.806600000000003
 21
141.62
 31
0.0
  0
LINE
  5
111
  8
0
 62
     7
 10
93.806600000000003
 20
141.62
 30
0.0
 11
93.806600000000003
 21
140.43499999999989
 31
0.0
  0
LINE
  5
112
  8
0
 62
     7
 10
38.683700000000002
 20
141.02000000000001
 30
0.0
 11
96.017300000000006
 21
141.02000000000001
 31
0.0
  0
LINE
  5
113
  8
0
 62
     7
 10
53.868400000000001
 20
119.982
 30
0.0
 11
33.0991
 21
119.982
 31
0.0
  0
LINE
  5
114
  8
0
 62
     7
 10
38.253
 20
126.649
 30
0.0
 11
33.0991
 21
126.649
 31
0.0
  0
LINE
  5
115
  8
0
 62
     7
 10
33.224200000000003
 20
122.1929999999999
 30
0.0
 11
33.816400000000002
 21
119.982
 31
0.0
  0
LINE
  5
116
  8
0
 62
     7
 10
33.816400000000002
 20
119.982
 30
0.0
 11
34.4086
 21
122.1929999999999
 31
0.0
  0
LINE
  5
117
  8
0
 62
     7
 10
34.4086
 20
122.1929999999999
 30
0.0
 11
33.224200000000003
 21
122.1929999999999
 31
0.0
  0
LINE
  5
118
  8
0
 62
     7
 10
34.394199999999998
 20
124.4379999999999
 30
0.0
 11
33.801900000000003
 21
126.649
 31
0.0
  0
LINE
  5
119
  8
0
 62
     7
 10
33.801900000000003
 20
126.649
 30
0.0
 11
33.209699999999991
 21
124.4379999999999
 31
0.0
  0
LINE
  5
11A
  8
0
 62
     7
 10
33.209699999999991
 20
124.4379999999999
 30
0.0
 11
34.394199999999998
 21
124.4379999999999
 31
0.0
  0
LINE
  5
11B
  8
0
 62
     7
 10
33.80919999999999
 20
119.982
 30
0.0
 11
33.80919999999999
 21
126.649
 31
0.0
  0
LINE
  5
123
  8
0
 62
     7
 10
107.2079999999999
 20
124.4379999999999
 30
0.0
 11
106.6159999999999
 21
126.649
 31
0.0
  0
LINE
  5
124
  8
0
 62
     7
 10
106.6159999999999
 20
126.649
 30
0.0
 11
106.023
 21
124.4379999999999
 31
0.0
  0
LINE
  5
125
  8
0
 62
     7
 10
106.023
 20
124.4379999999999
 30
0.0
 11
107.2079999999999
 21
124.4379999999999
 31
0.0
  0
LINE
  5
126
  8
0
 62
     7
 10
106.0379999999999
 20
116.86
 30
0.0
 11
106.63
 21
114.649
 31
0.0
  0
LINE
  5
127
  8
0
 62
     7
 10
106.63
 20
114.649
 30
0.0
 11
107.22199999999999
 21
116.86
 31
0.0
  0
LINE
  5
128
  8
0
 62
     7
 10
107.22199999999999
 20
116.86
 30
0.0
 11
106.0379999999999
 21
116.86
 31
0.0
  0
LINE
  5
129
  8
0
 62
     7
 10
106.623
 20
126.649
 30
0.0
 11
106.623
 21
114.649
 31
0.0
  0
LINE
  5
12A
  8
0
 62
     7
 10
112.88200000000001
 20
124.4379999999999
 30
0.0
 11
112.2889999999999
 21
126.649
 31
0.0
  0
LINE
  5
12B
  8
0
 62
     7
 10
112.2889999999999
 20
126.649
 30
0.0
 11
111.697
 21
124.4379999999999
 31
0.0
  0
LINE
  5
12C
  8
0
 62
     7
 10
111.697
 20
124.4379999999999
 30
0.0
 11
112.88200000000001
 21
124.4379999999999
 31
0.0
  0
LINE
  5
12D
  8
0
 62
     7
 10
111.712
 20
116.526
 30
0.0
 11
112.304
 21
114.3159999999999
 31
0.0
  0
LINE
  5
12E
  8
0
 62
     7
 10
112.304
 20
114.3159999999999
 30
0.0
 11
112.8959999999999
 21
116.526
 31
0.0
  0
LINE
  5
12F
  8
0
 62
     7
 10
112.8959999999999
 20
116.526
 30
0.0
 11
111.712
 21
116.526
 31
0.0
  0
LINE
  5
130
  8
0
 62
     7
 10
112.297
 20
126.649
 30
0.0
 11
112.297
 21
114.3159999999999
 31
0.0
  0
LINE
  5
131
  8
0
 62
     7
 10
113.006
 20
114.3159999999999
 30
0.0
 11
70.628200000000007
 21
114.3159999999999
 31
0.0
  0
LINE
  5
132
  8
0
 62
     7
 10
107.187
 20
114.649
 30
0.0
 11
86.298599999999979
 21
114.649
 31
0.0
  0
LINE
  5
134
  8
0
 62
     7
 10
113.006
 20
126.649
 30
0.0
 11
96.556799999999996
 21
126.649
 31
0.0
  0
LINE
  5
135
  8
0
  6
AIGENLINE001
 62
     7
 10
67.350499999999997
 20
112.1129999999999
 30
0.0
 11
67.350499999999997
 21
128.59100000000001
 31
0.0
  0
ARC
  5
136
  8
0
 62
     7
 10
136.92441199999999
 20
135.5547719999999
 30
0.0
 40
19.371561
 50
242.10334599999999
 51
265.29129199999988
  0
ARC
  5
137
  8
0
 62
     7
 10
135.831918
 20
132.91815700000001
 30
0.0
 40
16.532359
 50
216.35048900000001
 51
241.174238
  0
ARC
  5
138
  8
0
 62
     7
 10
131.896648
 20
129.866512
 30
0.0
 40
11.554767
 50
203.599951
 51
215.72921099999991
  0
ARC
  5
139
  8
0
 62
     7
 10
125.5656979999999
 20
127.0411159999999
 30
0.0
 40
4.6224970000000001
 50
189.026184
 51
202.9243359999999
  0
ARC
  5
13A
  8
0
 62
     7
 10
153.0130969999999
 20
120.09177800000001
 30
0.0
 40
3.3768879999999988
 50
292.62273699999997
 51
349.57612899999992
  0
ARC
  5
13B
  8
0
 62
     7
 10
151.78674199999989
 20
122.573215
 30
0.0
 40
6.1416949999999986
 50
282.66150299999993
 51
294.278706
  0
ARC
  5
13C
  8
0
 62
     7
 10
150.6376129999999
 20
127.287459
 30
0.0
 40
10.993527
 50
273.98404599999992
 51
283.11944899999997
  0
ARC
  5
13D
  8
0
 62
     7
 10
149.522086
 20
140.40089399999991
 30
0.0
 40
24.15362099999999
 50
269.401295
 51
274.462581
  0
ARC
  5
13E
  8
0
 62
     7
 10
86.135152000000005
 20
126.861294
 30
0.0
 40
9.8971990000000005
 50
319.394699
 51
356.84114099999988
  0
ARC
  5
13F
  8
0
 62
     7
 10
84.109373999999988
 20
128.4772419999999
 30
0.0
 40
12.487258000000001
 50
286.84210000000002
 51
319.81509199999988
  0
ARC
  5
140
  8
0
 62
     7
 10
85.769621000000015
 20
123.19433100000001
 30
0.0
 40
6.9501619999999988
 50
272.04403600000001
 51
286.36074300000001
  0
ARC
  5
141
  8
0
 62
     7
 10
48.56676199999999
 20
126.8616879999999
 30
0.0
 40
9.8981490000000001
 50
183.16085899999999
 51
220.60361099999989
  0
ARC
  5
142
  8
0
 62
     7
 10
50.591617999999997
 20
128.477405
 30
0.0
 40
12.487358
 50
220.18552299999999
 51
253.158998
  0
ARC
  5
143
  8
0
 62
     7
 10
48.931666
 20
123.1950639999999
 30
0.0
 40
6.950892999999998
 50
253.64019999999991
 51
267.95654100000002
  0
ARC
  5
144
  8
0
  6
AIGENLINE003
 62
     7
 10
67.325450000000004
 20
124.623766
 30
0.0
 40
0.692138
 50
2.1030570000000002
 51
87.926551000000003
  0
ARC
  5
145
  8
0
  6
AIGENLINE003
 62
     7
 10
67.375860000000003
 20
124.6234399999999
 30
0.0
 40
0.692476
 50
92.099420999999992
 51
177.87093100000001
  0
ARC
  5
146
  8
0
  6
AIGENLINE003
 62
     7
 10
67.376204999999999
 20
124.674521
 30
0.0
 40
0.692807
 50
182.0973709999999
 51
267.87305600000002
  0
ARC
  5
147
  8
0
  6
AIGENLINE003
 62
     7
 10
67.325594999999993
 20
124.673706
 30
0.0
 40
0.691963
 50
272.06198499999988
 51
357.96762799999999
  0
LINE
  5
148
  8
0
 62
     7
 10
78.350800000000007
 20
122.2949999999999
 30
0.0
 11
78.350800000000007
 21
134.49299999999991
 31
0.0
  0
LINE
  5
149
  8
0
 62
     7
 10
56.350200000000001
 20
122.2949999999999
 30
0.0
 11
56.350200000000001
 21
134.49299999999991
 31
0.0
  0
LINE
  5
14A
  8
0
  6
AIGENLINE001
 62
     7
 10
78.350800000000007
 20
118.252
 30
0.0
 11
78.350800000000007
 21
121.8059999999999
 31
0.0
  0
LINE
  5
14B
  8
0
  6
AIGENLINE003
 62
     7
 10
77.683800000000005
 20
119.3149999999999
 30
0.0
 11
79.016999999999996
 21
119.3149999999999
 31
0.0
  0
LINE
  5
14C
  8
0
  6
AIGENLINE003
 62
     7
 10
77.683800000000005
 20
120.649
 30
0.0
 11
79.016999999999996
 21
120.649
 31
0.0
  0
ARC
  5
14D
  8
0
  6
AIGENLINE003
 62
     7
 10
78.992245999999994
 20
120.00720200000001
 30
0.0
 40
0.6922100000000001
 50
272.052505
 51
357.94750499999992
  0
ARC
  5
14E
  8
0
  6
AIGENLINE003
 62
     7
 10
78.992328000000001
 20
119.956986
 30
0.0
 40
0.6921510000000001
 50
2.1050379999999991
 51
87.954172999999997
  0
ARC
  5
14F
  8
0
  6
AIGENLINE003
 62
     7
 10
77.683777000000006
 20
119.98241
 30
0.0
 40
0.666286
 50
90.0
 51
179.99996999999991
  0
ARC
  5
150
  8
0
  6
AIGENLINE003
 62
     7
 10
77.709823
 20
120.007741
 30
0.0
 40
0.6927950000000001
 50
182.09539299999989
 51
267.845417
  0
LINE
  5
151
  8
0
  6
AIGENLINE001
 62
     7
 10
76.331199999999995
 20
119.982
 30
0.0
 11
80.471900000000005
 21
119.982
 31
0.0
  0
LINE
  5
152
  8
0
  6
AIGENLINE001
 62
     7
 10
56.350200000000001
 20
118.252
 30
0.0
 11
56.350200000000001
 21
121.8059999999999
 31
0.0
  0
LINE
  5
153
  8
0
  6
AIGENLINE003
 62
     7
 10
55.683900000000001
 20
119.3149999999999
 30
0.0
 11
57.017200000000003
 21
119.3149999999999
 31
0.0
  0
LINE
  5
154
  8
0
  6
AIGENLINE003
 62
     7
 10
55.683900000000001
 20
120.649
 30
0.0
 11
57.017200000000003
 21
120.649
 31
0.0
  0
ARC
  5
155
  8
0
  6
AIGENLINE003
 62
     7
 10
56.992196999999997
 20
120.0070629999999
 30
0.0
 40
0.69208
 50
272.07099699999998
 51
357.95861500000001
  0
ARC
  5
156
  8
0
  6
AIGENLINE003
 62
     7
 10
56.992165999999997
 20
119.95701099999999
 30
0.0
 40
0.692138
 50
2.1030570000000002
 51
87.926551000000003
  0
ARC
  5
157
  8
0
  6
AIGENLINE003
 62
     7
 10
55.709293000000002
 20
119.95634799999991
 30
0.0
 40
0.692811
 50
92.096579000000006
 51
177.8441709999999
  0
ARC
  5
158
  8
0
  6
AIGENLINE003
 62
     7
 10
55.709325999999997
 20
120.0077889999999
 30
0.0
 40
0.692819
 50
182.0993499999999
 51
267.90067900000003
  0
LINE
  5
159
  8
0
  6
AIGENLINE001
 62
     7
 10
54.331000000000003
 20
119.982
 30
0.0
 11
58.471699999999998
 21
119.982
 31
0.0
  0
LINE
  5
15A
  8
0
 62
     7
 10
39.017200000000003
 20
126.649
 30
0.0
 11
95.683800000000005
 21
126.649
 31
0.0
  0
ARC
  5
15B
  8
0
 62
     7
 10
95.671902000000003
 20
126.303275
 30
0.0
 40
0.345643
 50
2.0955049999999988
 51
88.022986999999986
  0
ARC
  5
15C
  8
0
 62
     7
 10
39.029711999999989
 20
126.3026439999999
 30
0.0
 40
0.346295
 50
92.077475000000007
 51
177.80399399999999
  0
LINE
  5
15D
  8
0
 62
     7
 10
48.683799999999998
 20
116.249
 30
0.0
 11
86.017499999999998
 21
116.249
 31
0.0
  0
LINE
  5
15E
  8
0
 62
     7
 10
85.683999999999997
 20
114.649
 30
0.0
 11
85.683999999999997
 21
115.9159999999999
 31
0.0
  0
ARC
  5
15F
  8
0
 62
     7
 10
86.030068999999997
 20
115.902524
 30
0.0
 40
0.346295
 50
92.077475000000007
 51
177.80399399999999
  0
LINE
  5
160
  8
0
 62
     7
 10
49.016999999999989
 20
114.649
 30
0.0
 11
49.016999999999989
 21
115.9159999999999
 31
0.0
  0
ARC
  5
161
  8
0
 62
     7
 10
48.671456999999997
 20
115.90307900000001
 30
0.0
 40
0.345733
 50
2.1075099999999991
 51
87.951762000000002
  0
LINE
  5
162
  8
0
 62
     7
 10
69.8506
 20
114.51600000000001
 30
0.0
 11
69.8506
 21
114.649
 31
0.0
  0
LINE
  5
163
  8
0
 62
     7
 10
65.0505
 20
114.3159999999999
 30
0.0
 11
69.650499999999994
 21
114.3159999999999
 31
0.0
  0
ARC
  5
164
  8
0
 62
     7
 10
69.642996999999994
 20
114.523511
 30
0.0
 40
0.207764
 50
272.05658599999992
 51
357.84472299999999
  0
LINE
  5
165
  8
0
 62
     7
 10
64.850700000000003
 20
114.51600000000001
 30
0.0
 11
64.850700000000003
 21
114.649
 31
0.0
  0
ARC
  5
166
  8
0
 62
     7
 10
65.058086000000003
 20
114.5232519999999
 30
0.0
 40
0.207509
 50
182.08635100000001
 51
267.913679
  0
LINE
  5
167
  8
0
 62
     7
 10
49.016999999999989
 20
114.649
 30
0.0
 11
85.683999999999997
 21
114.649
 31
0.0
  0
LINE
  5
168
  8
0
 62
     7
 10
96.017300000000006
 20
172.89400000000001
 30
0.0
 11
96.017300000000006
 21
198.16599999999991
 31
0.0
  0
LINE
  5
169
  8
0
 62
     7
 10
38.683700000000002
 20
172.89400000000001
 30
0.0
 11
38.683700000000002
 21
197.4559999999999
 31
0.0
  0
LINE
  5
16A
  8
0
 62
     7
 10
40.89439999999999
 20
174.18899999999999
 30
0.0
 11
38.683700000000002
 21
173.59599999999989
 31
0.0
  0
LINE
  5
16B
  8
0
 62
     7
 10
38.683700000000002
 20
173.59599999999989
 30
0.0
 11
40.89439999999999
 21
173.00399999999999
 31
0.0
  0
LINE
  5
16C
  8
0
 62
     7
 10
40.89439999999999
 20
173.00399999999999
 30
0.0
 11
40.89439999999999
 21
174.18899999999999
 31
0.0
  0
LINE
  5
16D
  8
0
 62
     7
 10
93.806600000000003
 20
173.01900000000001
 30
0.0
 11
96.017300000000006
 21
173.61000000000001
 31
0.0
  0
LINE
  5
16E
  8
0
 62
     7
 10
96.017300000000006
 20
173.61000000000001
 30
0.0
 11
93.806600000000003
 21
174.20299999999989
 31
0.0
  0
LINE
  5
16F
  8
0
 62
     7
 10
93.806600000000003
 20
174.20299999999989
 30
0.0
 11
93.806600000000003
 21
173.01900000000001
 31
0.0
  0
LINE
  5
170
  8
0
 62
     7
 10
38.683700000000002
 20
173.60400000000001
 30
0.0
 11
96.017300000000006
 21
173.60400000000001
 31
0.0
  0
LINE
  5
171
  8
0
 62
     7
 10
28.5288
 20
198.768
 30
0.0
 11
52.616799999999998
 21
198.768
 31
0.0
  0
LINE
  5
172
  8
0
 62
     7
 10
28.6539
 20
200.97900000000001
 30
0.0
 11
29.246099999999991
 21
198.768
 31
0.0
  0
LINE
  5
173
  8
0
 62
     7
 10
29.246099999999991
 20
198.768
 30
0.0
 11
29.8383
 21
200.97900000000001
 31
0.0
  0
LINE
  5
174
  8
0
 62
     7
 10
29.8383
 20
200.97900000000001
 30
0.0
 11
28.6539
 21
200.97900000000001
 31
0.0
  0
LINE
  5
175
  8
0
 62
     7
 10
29.823899999999998
 20
220.55799999999991
 30
0.0
 11
29.2316
 21
222.76899999999989
 31
0.0
  0
LINE
  5
176
  8
0
 62
     7
 10
29.2316
 20
222.76899999999989
 30
0.0
 11
28.639399999999991
 21
220.55799999999991
 31
0.0
  0
LINE
  5
177
  8
0
 62
     7
 10
28.639399999999991
 20
220.55799999999991
 30
0.0
 11
29.823899999999998
 21
220.55799999999991
 31
0.0
  0
LINE
  5
178
  8
0
 62
     7
 10
29.238900000000001
 20
198.768
 30
0.0
 11
29.238900000000001
 21
222.76899999999989
 31
0.0
  0
LINE
  5
179
  8
0
 62
     7
 10
34.572299999999998
 20
206.31200000000001
 30
0.0
 11
35.16449999999999
 21
204.102
 31
0.0
  0
LINE
  5
17A
  8
0
 62
     7
 10
35.16449999999999
 20
204.102
 30
0.0
 11
35.756700000000002
 21
206.31200000000001
 31
0.0
  0
LINE
  5
17B
  8
0
 62
     7
 10
35.756700000000002
 20
206.31200000000001
 30
0.0
 11
34.572299999999998
 21
206.31200000000001
 31
0.0
  0
LINE
  5
17C
  8
0
 62
     7
 10
35.74219999999999
 20
220.55799999999991
 30
0.0
 11
35.149999999999999
 21
222.76899999999989
 31
0.0
  0
LINE
  5
17D
  8
0
 62
     7
 10
35.149999999999999
 20
222.76899999999989
 30
0.0
 11
34.5578
 21
220.55799999999991
 31
0.0
  0
LINE
  5
17E
  8
0
 62
     7
 10
34.5578
 20
220.55799999999991
 30
0.0
 11
35.74219999999999
 21
220.55799999999991
 31
0.0
  0
LINE
  5
17F
  8
0
 62
     7
 10
35.157200000000003
 20
204.102
 30
0.0
 11
35.157200000000003
 21
222.76899999999989
 31
0.0
  0
LINE
  5
180
  8
0
 62
     7
 10
48.064399999999999
 20
222.76899999999989
 30
0.0
 11
28.5288
 21
222.76899999999989
 31
0.0
  0
LINE
  5
181
  8
0
 62
     7
 10
34.447200000000002
 20
204.102
 30
0.0
 11
62.449800000000003
 21
204.102
 31
0.0
  0
LINE
  5
182
  8
0
 62
     7
 10
40.060299999999991
 20
229.495
 30
0.0
 11
46.957799999999999
 21
229.495
 31
0.0
  0
LINE
  5
183
  8
0
 62
     7
 10
57.877099999999999
 20
217.73799999999989
 30
0.0
 11
59.858699999999999
 21
216.5929999999999
 31
0.0
  0
LINE
  5
184
  8
0
 62
     7
 10
59.858699999999999
 20
216.5929999999999
 30
0.0
 11
58.71459999999999
 21
218.57599999999999
 31
0.0
  0
LINE
  5
185
  8
0
 62
     7
 10
58.71459999999999
 20
218.57599999999999
 30
0.0
 11
57.877099999999999
 21
217.73799999999989
 31
0.0
  0
LINE
  5
186
  8
0
 62
     7
 10
63.485399999999991
 20
213.79499999999999
 30
0.0
 11
61.503799999999998
 21
214.93899999999999
 31
0.0
  0
LINE
  5
187
  8
0
 62
     7
 10
61.503799999999998
 20
214.93899999999999
 30
0.0
 11
62.64759999999999
 21
212.95699999999999
 31
0.0
  0
LINE
  5
188
  8
0
 62
     7
 10
62.64759999999999
 20
212.95699999999999
 30
0.0
 11
63.485399999999991
 21
213.79499999999999
 31
0.0
  0
LINE
  5
189
  8
0
 62
     7
 10
63.414099999999991
 20
213.0379999999999
 30
0.0
 11
46.957799999999999
 21
229.495
 31
0.0
  0
LINE
  5
18A
  8
0
 62
     7
 10
50.558500000000002
 20
205.58699999999999
 30
0.0
 11
57.16899999999999
 21
205.58699999999999
 31
0.0
  0
LINE
  5
18B
  8
0
 62
     7
 10
65.329599999999999
 20
212.9199999999999
 30
0.0
 11
66.473699999999994
 21
214.90199999999999
 31
0.0
  0
LINE
  5
18C
  8
0
 62
     7
 10
66.473699999999994
 20
214.90199999999999
 30
0.0
 11
64.491699999999994
 21
213.7579999999999
 31
0.0
  0
LINE
  5
18D
  8
0
 62
     7
 10
64.491699999999994
 20
213.7579999999999
 30
0.0
 11
65.329599999999999
 21
212.9199999999999
 31
0.0
  0
LINE
  5
18E
  8
0
 62
     7
 10
69.366900000000001
 20
218.62200000000001
 30
0.0
 11
68.222800000000007
 21
216.64099999999991
 31
0.0
  0
LINE
  5
18F
  8
0
 62
     7
 10
68.222800000000007
 20
216.64099999999991
 30
0.0
 11
70.204800000000006
 21
217.78499999999991
 31
0.0
  0
LINE
  5
190
  8
0
 62
     7
 10
70.204800000000006
 20
217.78499999999991
 30
0.0
 11
69.366900000000001
 21
218.62200000000001
 31
0.0
  0
LINE
  5
191
  8
0
 62
     7
 10
71.520099999999999
 20
219.93799999999999
 30
0.0
 11
57.16899999999999
 21
205.58699999999999
 31
0.0
  0
LINE
  5
192
  8
0
 62
     7
 10
50.057200000000002
 20
193.84700000000001
 30
0.0
 11
57.095399999999998
 21
193.84700000000001
 31
0.0
  0
LINE
  5
193
  8
0
 62
     7
 10
65.146000000000001
 20
201.059
 30
0.0
 11
66.290099999999995
 21
203.04099999999991
 31
0.0
  0
LINE
  5
194
  8
0
 62
     7
 10
66.290099999999995
 20
203.04099999999991
 30
0.0
 11
64.308099999999996
 21
201.89699999999999
 31
0.0
  0
LINE
  5
195
  8
0
 62
     7
 10
64.308099999999996
 20
201.89699999999999
 30
0.0
 11
65.146000000000001
 21
201.059
 31
0.0
  0
LINE
  5
196
  8
0
 62
     7
 10
69.560199999999995
 20
207.13900000000001
 30
0.0
 11
68.4161
 21
205.15700000000001
 31
0.0
  0
LINE
  5
197
  8
0
 62
     7
 10
68.4161
 20
205.15700000000001
 30
0.0
 11
70.397999999999996
 21
206.3009999999999
 31
0.0
  0
LINE
  5
198
  8
0
 62
     7
 10
70.397999999999996
 20
206.3009999999999
 30
0.0
 11
69.560199999999995
 21
207.13900000000001
 31
0.0
  0
LINE
  5
199
  8
0
 62
     7
 10
72.118200000000002
 20
208.869
 30
0.0
 11
57.095399999999998
 21
193.84700000000001
 31
0.0
  0
LINE
  5
19A
  8
0
 62
     7
 10
68.930099999999996
 20
222.102
 30
0.0
 11
84.085499999999996
 21
222.102
 31
0.0
  0
LINE
  5
19B
  8
0
 62
     7
 10
82.790499999999994
 20
224.97900000000001
 30
0.0
 11
83.382699999999986
 21
222.76899999999989
 31
0.0
  0
LINE
  5
19C
  8
0
 62
     7
 10
83.382699999999986
 20
222.76899999999989
 30
0.0
 11
83.974900000000005
 21
224.97900000000001
 31
0.0
  0
LINE
  5
19D
  8
0
 62
     7
 10
83.974900000000005
 20
224.97900000000001
 30
0.0
 11
82.790499999999994
 21
224.97900000000001
 31
0.0
  0
LINE
  5
19E
  8
0
 62
     7
 10
82.790499999999994
 20
217.97900000000001
 30
0.0
 11
83.382699999999986
 21
215.76900000000001
 31
0.0
  0
LINE
  5
19F
  8
0
 62
     7
 10
83.382699999999986
 20
215.76900000000001
 30
0.0
 11
83.974900000000005
 21
217.97900000000001
 31
0.0
  0
LINE
  5
1A0
  8
0
 62
     7
 10
83.974900000000005
 20
217.97900000000001
 30
0.0
 11
82.790499999999994
 21
217.97900000000001
 31
0.0
  0
LINE
  5
1A1
  8
0
 62
     7
 10
82.790499999999994
 20
212.64500000000001
 30
0.0
 11
83.382699999999986
 21
210.435
 31
0.0
  0
LINE
  5
1A2
  8
0
 62
     7
 10
83.382699999999986
 20
210.435
 30
0.0
 11
83.974900000000005
 21
212.64500000000001
 31
0.0
  0
LINE
  5
1A3
  8
0
 62
     7
 10
83.974900000000005
 20
212.64500000000001
 30
0.0
 11
82.790499999999994
 21
212.64500000000001
 31
0.0
  0
LINE
  5
1A4
  8
0
 62
     7
 10
83.960400000000007
 20
219.89099999999999
 30
0.0
 11
83.368200000000016
 21
222.102
 31
0.0
  0
LINE
  5
1A5
  8
0
 62
     7
 10
83.368200000000016
 20
222.102
 30
0.0
 11
82.77600000000001
 21
219.89099999999999
 31
0.0
  0
LINE
  5
1A6
  8
0
 62
     7
 10
82.77600000000001
 20
219.89099999999999
 30
0.0
 11
83.960400000000007
 21
219.89099999999999
 31
0.0
  0
LINE
  5
1A7
  8
0
 62
     7
 10
83.960400000000007
 20
213.55799999999999
 30
0.0
 11
83.368200000000016
 21
215.76900000000001
 31
0.0
  0
LINE
  5
1A8
  8
0
 62
     7
 10
83.368200000000016
 20
215.76900000000001
 30
0.0
 11
82.77600000000001
 21
213.55799999999999
 31
0.0
  0
LINE
  5
1A9
  8
0
 62
     7
 10
82.77600000000001
 20
213.55799999999999
 30
0.0
 11
83.960400000000007
 21
213.55799999999999
 31
0.0
  0
LINE
  5
1AA
  8
0
 62
     7
 10
83.375500000000002
 20
210.435
 30
0.0
 11
83.375500000000002
 21
227.9799999999999
 31
0.0
  0
LINE
  5
1AB
  8
0
 62
     7
 10
84.085499999999996
 20
215.76900000000001
 30
0.0
 11
76.743899999999996
 21
215.76900000000001
 31
0.0
  0
LINE
  5
1AC
  8
0
 62
     7
 10
110.169
 20
184.102
 30
0.0
 11
76.636799999999994
 21
184.102
 31
0.0
  0
LINE
  5
1AD
  8
0
 62
     7
 10
86.535700000000006
 20
222.76899999999989
 30
0.0
 11
110.169
 21
222.76899999999989
 31
0.0
  0
LINE
  5
1AE
  8
0
 62
     7
 10
108.874
 20
186.31200000000001
 30
0.0
 11
109.46599999999999
 21
184.102
 31
0.0
  0
LINE
  5
1AF
  8
0
 62
     7
 10
109.46599999999999
 20
184.102
 30
0.0
 11
110.05799999999989
 21
186.31200000000001
 31
0.0
  0
LINE
  5
1B0
  8
0
 62
     7
 10
110.05799999999989
 20
186.31200000000001
 30
0.0
 11
108.874
 21
186.31200000000001
 31
0.0
  0
LINE
  5
1B1
  8
0
 62
     7
 10
110.044
 20
220.55799999999991
 30
0.0
 11
109.452
 21
222.76899999999989
 31
0.0
  0
LINE
  5
1B2
  8
0
 62
     7
 10
109.452
 20
222.76899999999989
 30
0.0
 11
108.8589999999999
 21
220.55799999999991
 31
0.0
  0
LINE
  5
1B3
  8
0
 62
     7
 10
108.8589999999999
 20
220.55799999999991
 30
0.0
 11
110.044
 21
220.55799999999991
 31
0.0
  0
LINE
  5
1B4
  8
0
 62
     7
 10
109.4589999999999
 20
184.102
 30
0.0
 11
109.4589999999999
 21
222.76899999999989
 31
0.0
  0
LINE
  5
1B5
  8
0
 62
     7
 10
87.765600000000006
 20
210.435
 30
0.0
 11
102.77199999999991
 21
210.435
 31
0.0
  0
LINE
  5
1B6
  8
0
 62
     7
 10
101.4769999999999
 20
212.6459999999999
 30
0.0
 11
102.069
 21
210.435
 31
0.0
  0
LINE
  5
1B7
  8
0
 62
     7
 10
102.069
 20
210.435
 30
0.0
 11
102.66200000000001
 21
212.6459999999999
 31
0.0
  0
LINE
  5
1B8
  8
0
 62
     7
 10
102.66200000000001
 20
212.6459999999999
 30
0.0
 11
101.4769999999999
 21
212.6459999999999
 31
0.0
  0
LINE
  5
1B9
  8
0
 62
     7
 10
102.64699999999991
 20
220.55799999999991
 30
0.0
 11
102.05500000000001
 21
222.76899999999989
 31
0.0
  0
LINE
  5
1BA
  8
0
 62
     7
 10
102.05500000000001
 20
222.76899999999989
 30
0.0
 11
101.46299999999989
 21
220.55799999999991
 31
0.0
  0
LINE
  5
1BB
  8
0
 62
     7
 10
101.46299999999989
 20
220.55799999999991
 30
0.0
 11
102.64699999999991
 21
220.55799999999991
 31
0.0
  0
LINE
  5
1BC
  8
0
 62
     7
 10
102.062
 20
210.435
 30
0.0
 11
102.062
 21
222.76899999999989
 31
0.0
  0
LINE
  5
1BD
  8
0
  6
AIGENLINE003
 62
     7
 10
49.016999999999989
 20
219.56999999999991
 30
0.0
 11
49.016999999999989
 21
206.75899999999999
 31
0.0
  0
ARC
  5
1BE
  8
0
  6
AIGENLINE003
 62
     7
 10
56.597928000000003
 20
206.97513599999999
 30
0.0
 40
7.584041
 50
181.630064
 51
260.49569200000002
  0
LINE
  5
1BF
  8
0
 62
     7
 10
67.350499999999997
 20
225.26599999999999
 30
0.0
 11
67.350499999999997
 21
231.62899999999999
 31
0.0
  0
LINE
  5
1C0
  8
0
 62
     7
 10
74.017499999999984
 20
218.43599999999989
 30
0.0
 11
74.017499999999984
 21
231.62899999999999
 31
0.0
  0
LINE
  5
1C1
  8
0
 62
     7
 10
60.683799999999998
 20
218.43599999999989
 30
0.0
 11
60.683799999999998
 21
231.62899999999999
 31
0.0
  0
LINE
  5
1C2
  8
0
  6
AIGENLINE001
 62
     7
 10
78.350800000000007
 20
217.863
 30
0.0
 11
78.350800000000007
 21
224.624
 31
0.0
  0
LINE
  5
1C3
  8
0
  6
AIGENLINE001
 62
     7
 10
56.3506
 20
217.863
 30
0.0
 11
56.3506
 21
224.624
 31
0.0
  0
LINE
  5
1C4
  8
0
  6
AIGENLINE001
 62
     7
 10
74.017499999999984
 20
213.5079999999999
 30
0.0
 11
74.017499999999984
 21
217.69999999999999
 31
0.0
  0
LINE
  5
1C5
  8
0
  6
AIGENLINE001
 62
     7
 10
60.683799999999998
 20
213.5079999999999
 30
0.0
 11
60.683799999999998
 21
217.69999999999999
 31
0.0
  0
ARC
  5
1C6
  8
0
  6
AIGENLINE003
 62
     7
 10
60.639367000000007
 20
215.72371999999999
 30
0.0
 40
1.2121690000000001
 50
2.119753999999999
 51
87.897154999999984
  0
ARC
  5
1C7
  8
0
  6
AIGENLINE003
 62
     7
 10
60.727854000000001
 20
215.724189
 30
0.0
 40
1.211681999999999
 50
92.081445000000016
 51
177.90160599999999
  0
ARC
  5
1C8
  8
0
  6
AIGENLINE003
 62
     7
 10
60.728498000000002
 20
215.81338699999989
 30
0.0
 40
1.2123429999999991
 50
182.11923899999999
 51
267.88924900000001
  0
ARC
  5
1C9
  8
0
  6
AIGENLINE003
 62
     7
 10
60.639819999999993
 20
215.81275999999991
 30
0.0
 40
1.211694
 50
272.08226500000001
 51
357.90928600000001
  0
ARC
  5
1CA
  8
0
  6
AIGENLINE003
 62
     7
 10
74.017482999999999
 20
215.76855499999999
 30
0.0
 40
1.166517
 50
0.00001
 51
89.999980000000008
  0
ARC
  5
1CB
  8
0
  6
AIGENLINE003
 62
     7
 10
74.061492000000001
 20
215.724189
 30
0.0
 40
1.211681999999999
 50
92.081445000000016
 51
177.90160599999999
  0
ARC
  5
1CC
  8
0
  6
AIGENLINE003
 62
     7
 10
74.062134999999984
 20
215.81338699999989
 30
0.0
 40
1.2123429999999991
 50
182.11923899999999
 51
267.88924900000001
  0
ARC
  5
1CD
  8
0
  6
AIGENLINE003
 62
     7
 10
74.017397000000003
 20
215.76847000000001
 30
0.0
 40
1.1666030000000001
 50
270.00425000000001
 51
0.00422
  0
ARC
  5
1CE
  8
0
  6
AIGENLINE003
 62
     7
 10
67.370594999999994
 20
295.98516599999988
 30
0.0
 40
97.216887999999997
 50
267.30948699999988
 51
269.98816199999987
  0
ARC
  5
1CF
  8
0
  6
AIGENLINE003
 62
     7
 10
67.140197000000001
 20
301.69292999999999
 30
0.0
 40
102.9087499999999
 50
264.62008800000001
 51
267.58679699999999
  0
ARC
  5
1D0
  8
0
  6
AIGENLINE003
 62
     7
 10
62.154106000000013
 20
247.12758799999989
 30
0.0
 40
48.116522000000003
 50
261.86537900000002
 51
264.43922299999991
  0
ARC
  5
1D1
  8
0
 62
     7
 10
67.375895999999983
 20
-460.12313899999992
 30
0.0
 40
670.55830900000001
 50
89.030730000000005
 51
90.002161000000015
  0
ARC
  5
1D2
  8
0
 62
     7
 10
73.098058999999992
 20
-109.91648600000001
 30
0.0
 40
320.30503299999992
 50
87.321844999999996
 51
88.994463999999994
  0
ARC
  5
1D3
  8
0
 62
     7
 10
82.385652000000007
 20
95.898180000000011
 30
0.0
 40
114.281702
 50
86.00511800000001
 51
87.151720999999995
  0
ARC
  5
1D4
  8
0
 62
     7
 10
57.641913000000002
 20
203.024078
 30
0.0
 40
37.042220999999998
 50
0.120096
 51
4.8578900000000003
  0
ARC
  5
1D5
  8
0
 62
     7
 10
63.375650999999991
 20
343.74477999999999
 30
0.0
 40
158.35968500000001
 50
271.43828899999988
 51
273.49263400000001
  0
ARC
  5
1D6
  8
0
 62
     7
 10
68.610512
 20
254.512497
 30
0.0
 40
68.974552000000003
 50
273.66782299999988
 51
278.78769299999988
  0
ARC
  5
1D7
  8
0
 62
     7
 10
73.417835999999994
 20
221.67121999999989
 30
0.0
 40
35.785352000000003
 50
279.21420000000001
 51
286.67641400000002
  0
ARC
  5
1D8
  8
0
 62
     7
 10
77.365063000000006
 20
207.850562
 30
0.0
 40
21.41405799999999
 50
287.17100799999997
 51
298.44439099999988
  0
ARC
  5
1D9
  8
0
 62
     7
 10
80.710119000000006
 20
201.30511799999999
 30
0.0
 40
14.066618
 50
299.16288100000003
 51
319.11532799999992
  0
ARC
  5
1DA
  8
0
 62
     7
 10
81.498976999999996
 20
200.33695299999999
 30
0.0
 40
12.838328000000001
 50
320.07766499999991
 51
342.99174799999992
  0
ARC
  5
1DB
  8
0
 62
     7
 10
76.858563000000004
 20
201.98750200000001
 30
0.0
 40
17.759958999999991
 50
342.27877799999999
 51
353.77099500000003
  0
ARC
  5
1DC
  8
0
 62
     7
 10
69.572500000000005
 20
202.9831979999999
 30
0.0
 40
25.111832
 50
353.31635399999988
 51
0.270426
  0
ARC
  5
1DD
  8
0
 62
     7
 10
63.140737999999999
 20
351.84589499999998
 30
0.0
 40
167.79698500000001
 50
271.43761899999993
 51
273.39592199999998
  0
ARC
  5
1DE
  8
0
 62
     7
 10
68.181000999999995
 20
261.67601400000001
 30
0.0
 40
77.487494999999996
 50
273.62500499999987
 51
276.88354199999992
  0
ARC
  5
1DF
  8
0
 62
     7
 10
71.926760000000002
 20
230.01671699999989
 30
0.0
 40
45.607531999999992
 50
276.978587
 51
283.69980199999992
  0
ARC
  5
1E0
  8
0
 62
     7
 10
76.23527
 20
211.37119899999999
 30
0.0
 40
26.473074
 50
284.19753700000001
 51
294.14685600000001
  0
ARC
  5
1E1
  8
0
 62
     7
 10
79.884779000000009
 20
202.75197700000001
 30
0.0
 40
17.116223999999988
 50
294.80212299999999
 51
309.11115000000001
  0
ARC
  5
1E2
  8
0
 62
     7
 10
81.853359999999995
 20
200.02847099999991
 30
0.0
 40
13.762478
 50
309.90464300000002
 51
341.67132700000002
  0
ARC
  5
1E3
  8
0
 62
     7
 10
77.261647999999994
 20
201.76659599999991
 30
0.0
 40
18.668963000000002
 50
341.03908699999999
 51
352.819502
  0
ARC
  5
1E4
  8
0
 62
     7
 10
69.55762
 20
202.94129799999999
 30
0.0
 40
26.46017999999999
 50
352.380968
 51
0.3473739999999999
  0
ARC
  5
1E5
  8
0
 62
     7
 10
63.138677999999999
 20
54.279080000000008
 30
0.0
 40
167.87565000000001
 50
86.604967000000016
 51
88.562352000000004
  0
ARC
  5
1E6
  8
0
 62
     7
 10
68.628731999999999
 20
150.70798600000001
 30
0.0
 40
71.29123100000001
 50
81.316062999999986
 51
86.420063999999996
  0
ARC
  5
1E7
  8
0
 62
     7
 10
73.677734999999998
 20
185.43526799999989
 30
0.0
 40
36.200614000000002
 50
71.809359000000001
 51
80.917015000000006
  0
ARC
  5
1E8
  8
0
 62
     7
 10
78.177098999999998
 20
200.03618899999989
 30
0.0
 40
20.926714999999991
 50
58.949542000000001
 51
71.032831999999985
  0
ARC
  5
1E9
  8
0
 62
     7
 10
81.369303000000016
 20
205.79362800000001
 30
0.0
 40
14.349645999999989
 50
14.292759999999999
 51
58.011818000000012
  0
ARC
  5
1EA
  8
0
 62
     7
 10
75.048709000000002
 20
203.94485299999999
 30
0.0
 40
20.932292999999991
 50
3.8938439999999992
 51
14.925459
  0
ARC
  5
1EB
  8
0
 62
     7
 10
67.064621000000002
 20
203.15360199999989
 30
0.0
 40
28.952738
 50
359.8973299999999
 51
4.3831249999999988
  0
ARC
  5
1EC
  8
0
 62
     7
 10
90.042824999999993
 20
206.678372
 30
0.0
 40
3.238186999999999
 50
78.606872999999993
 51
84.604011
  0
ARC
  5
1ED
  8
0
 62
     7
 10
89.569918999999999
 20
204.0002519999999
 30
0.0
 40
5.9573130000000001
 50
55.654843000000007
 51
79.236343999999988
  0
ARC
  5
1EE
  8
0
 62
     7
 10
90.621206999999984
 20
205.707223
 30
0.0
 40
3.955973999999999
 50
6.5864849999999997
 51
54.278306000000001
  0
ARC
  5
1EF
  8
0
 62
     7
 10
67.325087999999994
 20
-460.12313899999992
 30
0.0
 40
670.55830900000001
 50
89.997819000000007
 51
90.969249999999974
  0
ARC
  5
1F0
  8
0
 62
     7
 10
61.602925999999997
 20
-109.91648600000001
 30
0.0
 40
320.30503299999992
 50
91.005515999999986
 51
92.678134999999997
  0
ARC
  5
1F1
  8
0
 62
     7
 10
52.315331999999998
 20
95.898180000000011
 30
0.0
 40
114.281702
 50
92.848258999999985
 51
93.994861999999983
  0
ARC
  5
1F2
  8
0
 62
     7
 10
77.059071000000003
 20
203.024078
 30
0.0
 40
37.042220999999998
 50
175.14209
 51
179.879885
  0
ARC
  5
1F3
  8
0
 62
     7
 10
71.325333000000001
 20
343.74477999999999
 30
0.0
 40
158.35968500000001
 50
266.507386
 51
268.5617299999999
  0
ARC
  5
1F4
  8
0
 62
     7
 10
66.090473000000003
 20
254.512497
 30
0.0
 40
68.974552000000003
 50
261.21232700000002
 51
266.33219700000001
  0
ARC
  5
1F5
  8
0
 62
     7
 10
61.283149000000002
 20
221.67121999999989
 30
0.0
 40
35.785352000000003
 50
253.3236049999999
 51
260.78581999999989
  0
ARC
  5
1F6
  8
0
 62
     7
 10
57.335920999999999
 20
207.850562
 30
0.0
 40
21.41405799999999
 50
241.55562900000001
 51
252.82901200000001
  0
ARC
  5
1F7
  8
0
 62
     7
 10
53.990828
 20
201.30505299999999
 30
0.0
 40
14.066542999999999
 50
220.88460599999999
 51
240.83714399999991
  0
ARC
  5
1F8
  8
0
 62
     7
 10
53.201528000000003
 20
200.33670499999999
 30
0.0
 40
12.837797
 50
197.0078389999999
 51
219.9228939999999
  0
ARC
  5
1F9
  8
0
 62
     7
 10
57.842722999999999
 20
201.98759399999989
 30
0.0
 40
17.760273999999999
 50
186.22920999999999
 51
197.721226
  0
ARC
  5
1FA
  8
0
 62
     7
 10
65.131760999999983
 20
202.98333699999989
 30
0.0
 40
25.115107999999989
 50
179.72990799999991
 51
186.68310999999991
  0
ARC
  5
1FB
  8
0
 62
     7
 10
71.560247000000004
 20
351.84589499999998
 30
0.0
 40
167.79698500000001
 50
266.60409800000002
 51
268.56240099999991
  0
ARC
  5
1FC
  8
0
 62
     7
 10
66.519983999999994
 20
261.67601400000001
 30
0.0
 40
77.487494999999996
 50
263.11647799999992
 51
266.37501500000002
  0
ARC
  5
1FD
  8
0
 62
     7
 10
62.774225000000001
 20
230.01671699999989
 30
0.0
 40
45.607531999999992
 50
256.30021699999998
 51
263.021433
  0
ARC
  5
1FE
  8
0
 62
     7
 10
58.465713999999998
 20
211.37119899999999
 30
0.0
 40
26.473074
 50
245.85316399999999
 51
255.80248299999991
  0
ARC
  5
1FF
  8
0
 62
     7
 10
54.816206000000008
 20
202.75197700000001
 30
0.0
 40
17.116223999999988
 50
230.88887
 51
245.19789700000001
  0
ARC
  5
200
  8
0
 62
     7
 10
52.847926000000001
 20
200.0286759999999
 30
0.0
 40
13.762826999999991
 50
198.32910699999991
 51
230.09496200000001
  0
ARC
  5
201
  8
0
 62
     7
 10
57.439050999999999
 20
201.76650299999989
 30
0.0
 40
18.668664
 50
187.1803459999999
 51
198.960948
  0
ARC
  5
202
  8
0
 62
     7
 10
65.140323999999993
 20
202.94114400000001
 30
0.0
 40
26.457139000000002
 50
179.652231
 51
187.61959400000001
  0
ARC
  5
203
  8
0
 62
     7
 10
71.562306000000007
 20
54.279080000000008
 30
0.0
 40
167.87565000000001
 50
91.437628000000004
 51
93.39501300000002
  0
ARC
  5
204
  8
0
 62
     7
 10
66.072253000000003
 20
150.70798600000001
 30
0.0
 40
71.29123100000001
 50
93.579915999999997
 51
98.683916999999994
  0
ARC
  5
205
  8
0
 62
     7
 10
61.023249
 20
185.43526799999989
 30
0.0
 40
36.200614000000002
 50
99.082964999999973
 51
108.19062099999999
  0
ARC
  5
206
  8
0
 62
     7
 10
56.523885
 20
200.03618899999989
 30
0.0
 40
20.926714999999991
 50
108.96714899999991
 51
121.0504389999999
  0
ARC
  5
207
  8
0
 62
     7
 10
53.331681999999986
 20
205.79362800000001
 30
0.0
 40
14.349645999999989
 50
121.988162
 51
165.70721999999989
  0
ARC
  5
208
  8
0
 62
     7
 10
59.65227500000001
 20
203.94485299999999
 30
0.0
 40
20.932292999999991
 50
165.074521
 51
176.10613599999999
  0
ARC
  5
209
  8
0
 62
     7
 10
67.644106999999991
 20
203.153312
 30
0.0
 40
28.960481999999999
 50
175.617456
 51
180.10208900000001
  0
ARC
  5
20A
  8
0
 62
     7
 10
44.658159999999988
 20
206.678372
 30
0.0
 40
3.238186999999999
 50
95.395969999999977
 51
101.3931069999999
  0
ARC
  5
20B
  8
0
 62
     7
 10
45.131065
 20
204.0002519999999
 30
0.0
 40
5.9573130000000001
 50
100.76363600000001
 51
124.34513799999991
  0
ARC
  5
20C
  8
0
 62
     7
 10
44.079776999999993
 20
205.707223
 30
0.0
 40
3.955973999999999
 50
125.72167499999991
 51
173.41349600000001
  0
ARC
  5
20D
  8
0
 62
     7
 10
67.303297999999984
 20
215.72118199999991
 30
0.0
 40
1.2814229999999991
 50
2.1186780000000001
 51
87.889314999999996
  0
ARC
  5
20E
  8
0
 62
     7
 10
67.350406000000007
 20
215.7684689999999
 30
0.0
 40
1.2332659999999991
 50
89.995998999999983
 51
179.995969
  0
ARC
  5
20F
  8
0
 62
     7
 10
67.350492000000003
 20
215.76855499999999
 30
0.0
 40
1.233352
 50
179.99996999999991
 51
270.00002000000001
  0
ARC
  5
210
  8
0
 62
     7
 10
67.302745999999999
 20
215.8163009999999
 30
0.0
 40
1.2819869999999991
 50
272.13440800000001
 51
357.86560200000002
  0
LINE
  5
211
  8
0
  6
AIGENLINE001
 62
     7
 10
58.511000000000003
 20
215.76900000000001
 30
0.0
 11
76.262699999999995
 21
215.76900000000001
 31
0.0
  0
LINE
  5
212
  8
0
  6
AIGENLINE001
 62
     7
 10
71.301999999999992
 20
204.102
 30
0.0
 11
63.140599999999999
 21
204.102
 31
0.0
  0
ARC
  5
213
  8
0
 62
     7
 10
67.292923999999999
 20
204.0442699999999
 30
0.0
 40
1.5586349999999991
 50
2.1166839999999998
 51
87.883306000000005
  0
ARC
  5
214
  8
0
 62
     7
 10
67.408446999999995
 20
204.04388299999991
 30
0.0
 40
1.559037
 50
92.130370000000013
 51
177.86960099999999
  0
ARC
  5
215
  8
0
 62
     7
 10
67.408039000000002
 20
204.15938499999999
 30
0.0
 40
1.5586139999999991
 50
182.11597299999991
 51
267.88405599999987
  0
ARC
  5
216
  8
0
 62
     7
 10
67.292536999999996
 20
204.15979300000001
 30
0.0
 40
1.559037
 50
272.13038899999998
 51
357.86962099999988
  0
ARC
  5
217
  8
0
 62
     7
 10
67.350663999999995
 20
204.10166599999991
 30
0.0
 40
2.4999500000000001
 50
0.003958
 51
90.003928000000016
  0
ARC
  5
218
  8
0
 62
     7
 10
67.350493
 20
204.1018379999999
 30
0.0
 40
2.4997780000000001
 50
90.0
 51
179.99996999999991
  0
ARC
  5
219
  8
0
 62
     7
 10
67.350750000000005
 20
204.10157899999999
 30
0.0
 40
2.500035
 50
179.99404899999999
 51
269.99409800000001
  0
ARC
  5
21A
  8
0
 62
     7
 10
67.350406000000007
 20
204.101752
 30
0.0
 40
2.5002080000000002
 50
270.00199399999991
 51
0.001964
  0
LINE
  5
21B
  8
0
  6
AIGENLINE001
 62
     7
 10
67.350499999999997
 20
181.92199999999991
 30
0.0
 11
67.350499999999997
 21
224.70500000000001
 31
0.0
  0
LINE
  5
21C
  8
0
 62
     7
 10
49.016999999999989
 20
222.76899999999989
 30
0.0
 11
85.683999999999997
 21
222.76899999999989
 31
0.0
  0
LINE
  5
21D
  8
_________2
 62
     7
 10
210.24000000000001
 20
148.93100000000001
 30
0.0
 11
188.49000000000001
 21
148.93100000000001
 31
0.0
  0
LINE
  5
21E
  8
_________2
 62
     7
 10
105.2389999999999
 20
17.428499999999989
 30
0.0
 11
105.2389999999999
 21
0.4482100000000001
 31
0.0
  0
LINE
  5
21F
  8
_________2
 62
     7
 10
105.2389999999999
 20
297.44999999999987
 30
0.0
 11
105.2389999999999
 21
280.42999999999989
 31
0.0
  0
LINE
  5
220
  8
_________2
 62
     7
 10
21.988499999999991
 20
148.93100000000001
 30
0.0
 11
0.238058
 21
148.93100000000001
 31
0.0
  0
LINE
  5
221
  8
_________2
 62
     7
 10
81.679900000000004
 20
51.324300000000001
 30
0.0
 11
79.493700000000004
 21
51.324300000000001
 31
0.0
  0
LINE
  5
222
  8
_________2
 62
     7
 10
82.172600000000017
 20
51.324300000000001
 30
0.0
 11
81.920400000000001
 21
51.324300000000001
 31
0.0
  0
LINE
  5
223
  8
_________2
 62
     7
 10
82.665199999999984
 20
51.324300000000001
 30
0.0
 11
85.590100000000007
 21
51.324300000000001
 31
0.0
  0
LINE
  5
224
  8
_________2
 62
     7
 10
82.172600000000017
 20
51.324300000000001
 30
0.0
 11
82.424800000000005
 21
51.324300000000001
 31
0.0
  0
LINE
  5
225
  8
_________2
 62
     7
 10
75.776399999999995
 20
51.324300000000001
 30
0.0
 11
73.589399999999998
 21
51.324300000000001
 31
0.0
  0
LINE
  5
226
  8
_________2
 62
     7
 10
76.2684
 20
51.324300000000001
 30
0.0
 11
76.016900000000007
 21
51.324300000000001
 31
0.0
  0
LINE
  5
227
  8
_________2
 62
     7
 10
76.2684
 20
51.817
 30
0.0
 11
76.2684
 21
54.003900000000002
 31
0.0
  0
LINE
  5
228
  8
_________2
 62
     7
 10
76.2684
 20
51.324300000000001
 30
0.0
 11
76.2684
 21
51.576500000000003
 31
0.0
  0
LINE
  5
229
  8
_________2
 62
     7
 10
76.76100000000001
 20
51.324300000000001
 30
0.0
 11
78.947999999999993
 21
51.324300000000001
 31
0.0
  0
LINE
  5
22A
  8
_________2
 62
     7
 10
76.2684
 20
51.324300000000001
 30
0.0
 11
76.520499999999998
 21
51.324300000000001
 31
0.0
  0
LINE
  5
22B
  8
_________2
 62
     7
 10
76.2684
 20
50.832399999999993
 30
0.0
 11
76.2684
 21
48.645400000000002
 31
0.0
  0
LINE
  5
22C
  8
_________2
 62
     7
 10
76.2684
 20
51.324300000000001
 30
0.0
 11
76.2684
 21
51.072800000000001
 31
0.0
  0
LINE
  5
22D
  8
_________2
 62
     7
 10
79.979399999999984
 20
50.104799999999997
 30
0.0
 11
85.157399999999996
 21
49.240000000000002
 31
0.0
  0
LINE
  5
22E
  8
_________2
 62
     7
 10
79.979399999999984
 20
52.543900000000001
 30
0.0
 11
85.157399999999996
 21
53.409300000000002
 31
0.0
  0
LINE
  5
22F
  8
_________2
 62
     7
 10
85.157399999999996
 20
49.240000000000002
 30
0.0
 11
85.157399999999996
 21
53.409300000000002
 31
0.0
  0
LINE
  5
230
  8
_________2
 62
     7
 10
79.979399999999984
 20
50.104799999999997
 30
0.0
 11
79.979399999999984
 21
52.543900000000001
 31
0.0
  0
ARC
  5
231
  8
_________2
 62
     7
 10
76.222110000000001
 20
51.277366999999991
 30
0.0
 40
1.2673709999999989
 50
2.1232950000000002
 51
87.909056000000007
  0
ARC
  5
232
  8
_________2
 62
     7
 10
76.315273000000005
 20
51.277400999999998
 30
0.0
 40
1.267363
 50
92.121785999999986
 51
177.878185
  0
ARC
  5
233
  8
_________2
 62
     7
 10
76.315273000000005
 20
51.371245999999992
 30
0.0
 40
1.267363
 50
182.12181499999991
 51
267.87821400000001
  0
ARC
  5
234
  8
_________2
 62
     7
 10
76.221461000000005
 20
51.371928999999987
 30
0.0
 40
1.2680439999999991
 50
272.11916400000001
 51
357.84848499999993
  0
ARC
  5
235
  8
_________2
 62
     7
 10
76.268349999999984
 20
51.324323
 30
0.0
 40
2.0849849999999992
 50
0.00001
 51
89.999980000000008
  0
ARC
  5
236
  8
_________2
 62
     7
 10
76.348388
 20
51.245001999999992
 30
0.0
 40
2.1657860000000002
 50
92.117855000000034
 51
177.90105299999991
  0
ARC
  5
237
  8
_________2
 62
     7
 10
76.348354
 20
51.404327000000002
 30
0.0
 40
2.1657779999999991
 50
182.11700400000001
 51
267.88302499999992
  0
ARC
  5
238
  8
_________2
 62
     7
 10
76.188378999999983
 20
51.405009999999997
 30
0.0
 40
2.1664590000000001
 50
272.11546800000002
 51
357.86560400000002
  0
TEXT
  5
239
  8
_________2
 62
     7
 10
109.5439999999999
 20
23.199100000000001
 30
0.0
 40
3.0923400000000001
  1
図番
 41
0.5
  0
LINE
  5
23A
  8
_________2
 62
     7
 10
108.4889999999999
 20
27.4283
 30
0.0
 11
188.49000000000001
 21
27.4283
 31
0.0
  0
TEXT
  5
23B
  8
_________2
 62
     7
 10
109.5439999999999
 20
33.198900000000002
 30
0.0
 40
3.0923400000000001
  1
品番
 41
0.5
  0
TEXT
  5
23C
  8
_________2
 62
     7
 10
109.5439999999999
 20
53.337699999999998
 30
0.0
 40
3.0923400000000001
  1
名称
 41
0.5
  0
TEXT
  5
23D
  8
_________2
 62
     7
 10
96.784058333333334
 20
48.341500000000011
 30
0.0
 40
3.6545800000000002
  1
mm
 41
0.5
 72
     1
 11
98.306799999999996
 21
48.341500000000011
 31
0.0
  0
TEXT
  5
23E
  8
_________2
 62
     7
 10
90.582099999999997
 20
53.337699999999998
 30
0.0
 40
3.0923400000000001
  1
単位
 41
0.5
  0
TEXT
  5
23F
  8
_________2
 62
     7
 10
90.582099999999997
 20
40.930399999999999
 30
0.0
 40
3.0923400000000001
  1
尺度
 41
0.5
  0
TEXT
  5
240
  8
_________2
 62
     7
 10
94.878562000000016
 20
34.73749999999999
 30
0.0
 40
3.6545800000000002
  1
1 ： 15
 41
0.5
 72
     1
 11
98.898600000000002
 21
34.73749999999999
 31
0.0
  0
TEXT
  5
241
  8
_________2
 62
     7
 10
143.40538749999999
 20
30.627400000000002
 30
0.0
 40
3.9357000000000002
  1
FL5081
 41
0.5
 72
     1
 11
148.489
 21
30.627400000000002
 31
0.0
  0
TEXT
  5
242
  8
_________2
 62
     7
 10
143.40538749999999
 20
20.626999999999988
 30
0.0
 40
3.9357000000000002
  1
FL5081
 41
0.5
 72
     1
 11
148.489
 21
20.626999999999988
 31
0.0
  0
TEXT
  5
243
  8
_________2
 62
     7
 10
29.525700000000001
 20
22.226900000000001
 30
0.0
 40
3.9357000000000002
  1
重量：26kg、オーバーフロー付、実容量12.5L
 41
0.5
  0
TEXT
  5
244
  8
_________2
 62
     7
 10
114.11799999999999
 20
45.7453
 30
0.0
 40
3.9357000000000002
  1
ヌーダ壁掛式洗面器
 41
0.5
  0
TEXT
  5
245
  8
_________2
 62
     7
 10
44.303290666666669
 20
35.122599999999991
 30
0.0
 40
3.6545800000000002
  1
高橋
 41
0.5
 72
     1
 11
46.252400000000002
 21
35.122599999999991
 31
0.0
  0
TEXT
  5
246
  8
_________2
 62
     7
 10
25.72929066666666
 20
35.122599999999991
 30
0.0
 40
3.6545800000000002
  1
石原
 41
0.5
 72
     1
 11
27.6784
 21
35.122599999999991
 31
0.0
  0
TEXT
  5
247
  8
_________2
 62
     7
 10
72.724699999999999
 20
34.73749999999999
 30
0.0
 40
3.6545800000000002
  1
07.03.28
 41
0.5
  0
TEXT
  5
248
  8
_________2
 62
     7
 10
71.531999999999996
 20
40.930399999999999
 30
0.0
 40
3.0923400000000001
  1
日付
 41
0.5
  0
TEXT
  5
249
  8
_________2
 62
     7
 10
34.578299999999992
 20
40.930399999999999
 30
0.0
 40
3.0923400000000001
  1
検図
 41
0.5
  0
TEXT
  5
24A
  8
_________2
 62
     7
 10
22.960000000000001
 20
26.730999999999991
 30
0.0
 40
3.0923400000000001
  1
備考
 41
0.5
  0
TEXT
  5
24B
  8
_________2
 62
     7
 10
22.960000000000001
 20
40.930399999999999
 30
0.0
 40
3.0923400000000001
  1
製図
 41
0.5
  0
TEXT
  5
24C
  8
_________2
 62
     7
 10
28.727365333333339
 20
49.456400000000002
 30
0.0
 40
4.4979399999999989
  1
セラトレーディング株式会社
 41
0.5
 72
     1
 11
46.119399999999992
 21
49.456400000000002
 31
0.0
  0
LINE
  5
24D
  8
_________2
 62
     7
 10
188.49000000000001
 20
17.428499999999989
 30
0.0
 11
21.988499999999991
 21
17.428499999999989
 31
0.0
  0
LINE
  5
24E
  8
_________2
 62
     7
 10
21.988499999999991
 20
17.428499999999989
 30
0.0
 11
21.988499999999991
 21
280.42999999999989
 31
0.0
  0
LINE
  5
24F
  8
_________2
 62
     7
 10
21.988499999999991
 20
280.42999999999989
 30
0.0
 11
188.49000000000001
 21
280.42999999999989
 31
0.0
  0
LINE
  5
250
  8
_________2
 62
     7
 10
188.49000000000001
 20
280.42999999999989
 30
0.0
 11
188.49000000000001
 21
17.428499999999989
 31
0.0
  0
LINE
  5
251
  8
_________2
 62
     7
 10
70.488799999999998
 20
30.9285
 30
0.0
 11
70.488799999999998
 21
57.428400000000011
 31
0.0
  0
LINE
  5
252
  8
_________2
 62
     7
 10
89.488600000000005
 20
30.9285
 30
0.0
 11
89.488600000000005
 21
57.428400000000011
 31
0.0
  0
LINE
  5
253
  8
_________2
 62
     7
 10
108.4889999999999
 20
17.428499999999989
 30
0.0
 11
108.4889999999999
 21
57.428400000000011
 31
0.0
  0
LINE
  5
254
  8
_________2
 62
     7
 10
33.488300000000002
 20
30.9285
 30
0.0
 11
33.488300000000002
 21
44.928800000000003
 31
0.0
  0
LINE
  5
255
  8
_________2
 62
     7
 10
21.988499999999991
 20
30.9285
 30
0.0
 11
108.4889999999999
 21
30.9285
 31
0.0
  0
LINE
  5
256
  8
_________2
 62
     7
 10
21.988499999999991
 20
44.928800000000003
 30
0.0
 11
108.4889999999999
 21
44.928800000000003
 31
0.0
  0
LINE
  5
257
  8
_________2
 62
     7
 10
108.4889999999999
 20
37.428100000000001
 30
0.0
 11
188.49000000000001
 21
37.428100000000001
 31
0.0
  0
LINE
  5
258
  8
_________2
 62
     7
 10
21.988499999999991
 20
57.428400000000011
 30
0.0
 11
188.49000000000001
 21
57.428400000000011
 31
0.0
  0
TEXT
  5
265
  8
0
 62
     7
 10
27.0731
 20
68.228836067496701
 30
0.0
 40
4.4979399999999989
  1
※カウンターにセットする場合も壁固定が必要です。
 41
0.5
  0
ENDSEC
  0
EOF
