  0
SECTION
  2
HEADER
  9
$ACADVER
  1
AC1009
  9
$INSBASE
 10
0.0
 20
0.0
 30
0.0
  9
$EXTMIN
 10
0.238402
 20
0.4485540000000001
 30
0.0
  9
$EXTMAX
 10
210.24000000000001
 20
297.45100000000002
 30
0.0
  9
$LIMMIN
 10
0.0
 20
0.0
  9
$LIMMAX
 10
12.0
 20
9.0
  9
$ORTHOMODE
 70
     0
  9
$REGENMODE
 70
     1
  9
$FILLMODE
 70
     1
  9
$QTEXTMODE
 70
     0
  9
$MIRRTEXT
 70
     1
  9
$DRAGMODE
 70
     2
  9
$LTSCALE
 40
1.0
  9
$OSMODE
 70
    37
  9
$ATTMODE
 70
     1
  9
$TEXTSIZE
 40
0.0
  9
$TRACEWID
 40
0.05
  9
$TEXTSTYLE
  7
STANDARD
  9
$CLAYER
  8
0
  9
$CELTYPE
  6
CONTINUOUS
  9
$CECOLOR
 62
   256
  9
$DIMSCALE
 40
1.0
  9
$DIMASZ
 40
0.18
  9
$DIMEXO
 40
0.0625
  9
$DIMDLI
 40
0.38
  9
$DIMRND
 40
0.0
  9
$DIMDLE
 40
0.0
  9
$DIMEXE
 40
0.18
  9
$DIMTP
 40
0.0
  9
$DIMTM
 40
0.0
  9
$DIMTXT
 40
0.18
  9
$DIMCEN
 40
0.09
  9
$DIMTSZ
 40
0.0
  9
$DIMTOL
 70
     0
  9
$DIMLIM
 70
     0
  9
$DIMTIH
 70
     1
  9
$DIMTOH
 70
     1
  9
$DIMSE1
 70
     0
  9
$DIMSE2
 70
     0
  9
$DIMTAD
 70
     0
  9
$DIMZIN
 70
     0
  9
$DIMBLK
  1

  9
$DIMASO
 70
     1
  9
$DIMSHO
 70
     1
  9
$DIMPOST
  1

  9
$DIMAPOST
  1

  9
$DIMALT
 70
     0
  9
$DIMALTD
 70
     2
  9
$DIMALTF
 40
25.399999999999999
  9
$DIMLFAC
 40
1.0
  9
$DIMTOFL
 70
     0
  9
$DIMTVP
 40
0.0
  9
$DIMTIX
 70
     0
  9
$DIMSOXD
 70
     0
  9
$DIMSAH
 70
     0
  9
$DIMBLK1
  1

  9
$DIMBLK2
  1

  9
$DIMSTYLE
  2
STANDARD
  9
$DIMCLRD
 70
     0
  9
$DIMCLRE
 70
     0
  9
$DIMCLRT
 70
     0
  9
$DIMTFAC
 40
1.0
  9
$DIMGAP
 40
0.09
  9
$LUNITS
 70
     2
  9
$LUPREC
 70
     4
  9
$SKETCHINC
 40
0.1
  9
$FILLETRAD
 40
0.0
  9
$AUNITS
 70
     0
  9
$AUPREC
 70
     0
  9
$MENU
  1
.
  9
$ELEVATION
 40
0.0
  9
$PELEVATION
 40
0.0
  9
$THICKNESS
 40
0.0
  9
$LIMCHECK
 70
     0
  9
$BLIPMODE
 70
     0
  9
$CHAMFERA
 40
0.0
  9
$CHAMFERB
 40
0.0
  9
$SKPOLY
 70
     0
  9
$TDCREATE
 40
2444972.375
  9
$TDUPDATE
 40
2458180.2536505898
  9
$TDINDWG
 40
0.0000258912
  9
$TDUSRTIMER
 40
0.0000258912
  9
$USRTIMER
 70
     1
  9
$ANGBASE
 50
0.0
  9
$ANGDIR
 70
     0
  9
$PDMODE
 70
     0
  9
$PDSIZE
 40
0.0
  9
$PLINEWID
 40
0.0
  9
$COORDS
 70
     1
  9
$SPLFRAME
 70
     0
  9
$SPLINETYPE
 70
     6
  9
$SPLINESEGS
 70
     8
  9
$ATTDIA
 70
     1
  9
$ATTREQ
 70
     1
  9
$HANDLING
 70
     1
  9
$HANDSEED
  5
29D
  9
$SURFTAB1
 70
     6
  9
$SURFTAB2
 70
     6
  9
$SURFTYPE
 70
     6
  9
$SURFU
 70
     6
  9
$SURFV
 70
     6
  9
$UCSNAME
  2

  9
$UCSORG
 10
0.0
 20
0.0
 30
0.0
  9
$UCSXDIR
 10
1.0
 20
0.0
 30
0.0
  9
$UCSYDIR
 10
0.0
 20
1.0
 30
0.0
  9
$PUCSNAME
  2

  9
$PUCSORG
 10
0.0
 20
0.0
 30
0.0
  9
$PUCSXDIR
 10
1.0
 20
0.0
 30
0.0
  9
$PUCSYDIR
 10
0.0
 20
1.0
 30
0.0
  9
$USERI1
 70
     0
  9
$USERI2
 70
     0
  9
$USERI3
 70
     0
  9
$USERI4
 70
     0
  9
$USERI5
 70
     0
  9
$USERR1
 40
0.0
  9
$USERR2
 40
0.0
  9
$USERR3
 40
0.0
  9
$USERR4
 40
0.0
  9
$USERR5
 40
0.0
  9
$WORLDVIEW
 70
     1
  9
$SHADEDGE
 70
     3
  9
$SHADEDIF
 70
    70
  9
$TILEMODE
 70
     1
  9
$MAXACTVP
 70
    48
  9
$PLIMCHECK
 70
     0
  9
$PEXTMIN
 10
1.0000000000000000E+020
 20
1.0000000000000000E+020
 30
1.0000000000000000E+020
  9
$PEXTMAX
 10
-1.0000000000000000E+020
 20
-1.0000000000000000E+020
 30
-1.0000000000000000E+020
  9
$PLIMMIN
 10
0.0
 20
0.0
  9
$PLIMMAX
 10
12.0
 20
9.0
  9
$UNITMODE
 70
     0
  9
$VISRETAIN
 70
     1
  9
$PLINEGEN
 70
     0
  9
$PSLTSCALE
 70
     1
  0
ENDSEC
  0
SECTION
  2
TABLES
  0
TABLE
  2
VPORT
 70
     1
  0
VPORT
  2
*ACTIVE
 70
     0
 10
0.0
 20
0.0
 11
1.0
 21
1.0
 12
195.83847240083131
 22
148.72550000000001
 13
0.0
 23
0.0
 14
1.0
 24
1.0
 15
0.0
 25
0.0
 16
0.0
 26
0.0
 36
1.0
 17
0.0
 27
0.0
 37
0.0
 40
281.37364046443349
 41
2.298642533936651
 42
50.0
 43
0.0
 44
0.0
 50
0.0
 51
0.0
 71
     0
 72
   100
 73
     1
 74
     1
 75
     0
 76
     0
 77
     0
 78
     0
  0
ENDTAB
  0
TABLE
  2
LTYPE
 70
     3
  0
LTYPE
  2
CONTINUOUS
 70
     0
  3
Solid line
 72
    65
 73
     0
 40
0.0
  0
LTYPE
  2
AIGENLINE001
 70
     0
  3
generate AI->DXF Converter
 72
    65
 73
     4
 40
5.8561449999999988
 49
3.5278
 49
-0.776115
 49
0.776115
 49
-0.776115
  0
LTYPE
  2
AIGENLINE002
 70
     0
  3
generate AI->DXF Converter
 72
    65
 73
     2
 40
1.5522299999999991
 49
0.776115
 49
-0.776115
  0
ENDTAB
  0
TABLE
  2
LAYER
 70
     2
  0
LAYER
  2
0
 70
     0
 62
     7
  6
CONTINUOUS
  0
LAYER
  2
_________2
 70
     0
 62
     7
  6
CONTINUOUS
  0
ENDTAB
  0
TABLE
  2
STYLE
 70
     1
  0
STYLE
  2
STANDARD
 70
     0
 40
0.0
 41
0.0
 50
0.0
 71
     0
 42
0.0
  3
TXT
  4
EXTFONT.SHX
  0
ENDTAB
  0
TABLE
  2
VIEW
 70
     0
  0
ENDTAB
  0
TABLE
  2
UCS
 70
     0
  0
ENDTAB
  0
TABLE
  2
APPID
 70
     3
  0
APPID
  2
ACAD
 70
     0
  0
APPID
  2
ACAD_NAV_VCDISPLAY
 70
     0
  0
APPID
  2
ACAD_MLEADERVER
 70
     0
  0
ENDTAB
  0
TABLE
  2
DIMSTYLE
 70
     1
  0
DIMSTYLE
  2
STANDARD
 70
     0
  3

  4

  5

  6

  7

 40
1.0
 41
0.18
 42
0.0625
 43
0.38
 44
0.18
 45
0.0
 46
0.0
 47
0.0
 48
0.0
140
0.18
141
0.09
142
0.0
143
25.399999999999999
144
1.0
145
0.0
146
1.0
147
0.09
 71
     0
 72
     0
 73
     1
 74
     1
 75
     0
 76
     0
 77
     0
 78
     0
170
     0
171
     2
172
     0
173
     0
174
     0
175
     0
176
     0
177
     0
178
     0
  0
ENDTAB
  0
ENDSEC
  0
SECTION
  2
BLOCKS
  0
BLOCK
  8
0
  2
$MODEL_SPACE
 70
     0
 10
0.0
 20
0.0
 30
0.0
  3
$MODEL_SPACE
  1

  0
ENDBLK
  5
1A
  8
0
  0
BLOCK
 67
     1
  8
0
  2
$PAPER_SPACE
 70
     0
 10
0.0
 20
0.0
 30
0.0
  3
$PAPER_SPACE
  1

  0
ENDBLK
  5
17
 67
     1
  8
0
  0
ENDSEC
  0
SECTION
  2
ENTITIES
  0
TEXT
  5
23
  8
0
 62
     7
 10
142.627917
 20
182.90799999999999
 30
0.0
 40
3.0923400000000001
  1
取付ボルト\U+00D72セット付（尺度1：5）
 41
0.5
 72
     1
 11
157.935
 21
182.90799999999999
 31
0.0
  0
TEXT
  5
24
  8
0
 62
     7
 10
146.93142349999999
 20
179.04300000000001
 30
0.0
 40
3.0923400000000001
  1
※\U+03A612\U+00D760樹脂プラグ付
 41
0.5
 72
     1
 11
157.935
 21
179.04300000000001
 31
0.0
  0
TEXT
  5
25
  8
0
 62
     7
 10
155.99052499999999
 20
172.28299999999999
 30
0.0
 40
3.0923400000000001
  1
45
 41
0.5
 72
     1
 11
157.279
 21
172.28299999999999
 31
0.0
  0
TEXT
  5
26
  8
0
 62
     7
 10
162.11222000000001
 20
172.28299999999999
 30
0.0
 40
3.0923400000000001
  1
15
 41
0.5
 72
     1
 11
163.143
 21
172.28299999999999
 31
0.0
  0
TEXT
  5
27
  8
0
 62
     7
 10
168.98952499999999
 20
172.28299999999999
 30
0.0
 40
3.0923400000000001
  1
55
 41
0.5
 72
     1
 11
170.27799999999999
 21
172.28299999999999
 31
0.0
  0
TEXT
  5
28
  8
0
 62
     7
 10
56.377600000000001
 20
204.55199999999999
 30
0.0
 40
3.0923400000000001
  1
%%c45
 41
0.5
  0
TEXT
  5
29
  8
0
 62
     7
 10
83.403679999999994
 20
239.45500000000001
 30
0.0
 40
3.0923400000000001
  1
%%c35
 41
0.5
 72
     2
 11
87.526799999999994
 21
239.45500000000001
 31
0.0
  0
TEXT
  5
2A
  8
0
 62
     7
 10
154.31999999999999
 20
124.88583
 30
0.0
 40
3.0923400000000001
  1
100
 50
90.0
 41
0.5
 72
     1
 11
154.31999999999999
 21
126.432
 31
0.0
  0
TEXT
  5
2B
  8
0
 62
     7
 10
127.383
 20
209.51828750000001
 30
0.0
 40
3.0923400000000001
  1
420
 50
90.0
 41
0.5
 72
     1
 11
127.383
 21
211.45099999999999
 31
0.0
  0
TEXT
  5
2C
  8
0
 62
     7
 10
117.11799999999999
 20
228.29137249999999
 30
0.0
 40
3.0923400000000001
  1
60
 50
90.0
 41
0.5
 72
     1
 11
117.11799999999999
 21
229.45099999999999
 31
0.0
  0
TEXT
  5
2D
  8
0
 62
     7
 10
117.11799999999999
 20
222.29137249999999
 30
0.0
 40
3.0923400000000001
  1
60
 50
90.0
 41
0.5
 72
     1
 11
117.11799999999999
 21
223.45099999999999
 31
0.0
  0
TEXT
  5
2E
  8
0
 62
     7
 10
117.11799999999999
 20
204.13944000000001
 30
0.0
 40
3.0923400000000001
  1
285
 50
90.0
 41
0.5
 72
     1
 11
117.11799999999999
 21
206.20099999999999
 31
0.0
  0
TEXT
  5
2F
  8
0
 62
     7
 10
117.11799999999999
 20
183.072
 30
0.0
 40
3.0923400000000001
  1
15
 50
90.0
 41
0.5
  0
TEXT
  5
30
  8
0
 62
     7
 10
174.92699999999999
 20
135.76513499999999
 30
0.0
 40
3.0923400000000001
  1
10
 50
90.0
 41
0.5
 72
     2
 11
174.92699999999999
 21
137.56899999999999
 31
0.0
  0
TEXT
  5
31
  8
0
 62
     7
 10
92.611099999999993
 20
135.495745
 30
0.0
 40
3.0923400000000001
  1
60
 50
90.0
 41
0.5
 72
     2
 11
92.611099999999993
 21
137.815
 31
0.0
  0
TEXT
  5
32
  8
0
 62
     7
 10
121.563
 20
121.75698250000001
 30
0.0
 40
3.0923400000000001
  1
160
 50
90.0
 41
0.5
 72
     1
 11
121.563
 21
123.432
 31
0.0
  0
TEXT
  5
33
  8
0
 62
     7
 10
114.90900000000001
 20
123.25698250000001
 30
0.0
 40
3.0923400000000001
  1
130
 50
90.0
 41
0.5
 72
     1
 11
114.90900000000001
 21
124.932
 31
0.0
  0
TEXT
  5
34
  8
0
 62
     7
 10
149.565
 20
138.82300000000001
 30
0.0
 40
3.0923400000000001
  1
メーカーロゴ
 41
0.5
  0
TEXT
  5
35
  8
0
 62
     7
 10
165.8852875
 20
107.72
 30
0.0
 40
3.0923400000000001
  1
220
 41
0.5
 72
     1
 11
167.81800000000001
 21
107.72
 31
0.0
  0
TEXT
  5
36
  8
0
 62
     7
 10
72.72833
 20
241.34
 30
0.0
 40
3.0923400000000001
  1
100
 41
0.5
 72
     1
 11
74.274500000000003
 21
241.34
 31
0.0
  0
TEXT
  5
37
  8
0
 62
     7
 10
62.728129999999993
 20
241.34
 30
0.0
 40
3.0923400000000001
  1
100
 41
0.5
 72
     1
 11
64.274299999999997
 21
241.34
 31
0.0
  0
TEXT
  5
38
  8
0
 62
     7
 10
67.341887500000013
 20
139.18199999999999
 30
0.0
 40
3.0923400000000001
  1
280
 41
0.5
 72
     1
 11
69.274600000000007
 21
139.18199999999999
 31
0.0
  0
TEXT
  5
39
  8
0
 62
     7
 10
67.341887500000013
 20
170.167
 30
0.0
 40
3.0923400000000001
  1
750
 41
0.5
 72
     1
 11
69.274600000000007
 21
170.167
 31
0.0
  0
TEXT
  5
3A
  8
0
 62
     7
 10
67.341887500000013
 20
179.11199999999999
 30
0.0
 40
3.0923400000000001
  1
720
 41
0.5
 72
     1
 11
69.274600000000007
 21
179.11199999999999
 31
0.0
  0
TEXT
  5
3B
  8
0
 62
     7
 10
29.700199999999999
 20
67.051299999999998
 30
0.0
 40
4.2168199999999993
  1
※排水栓を閉めた状態で毎分10L以上吐水させないでください。
 41
0.5
  0
TEXT
  5
3C
  8
0
 62
     7
 10
29.700199999999999
 20
61.78029999999999
 30
0.0
 40
4.2168199999999993
  1
※壁取付部には厚さ30mm以上の補強材を入れてください。
 41
0.5
  0
LINE
  5
3D
  8
0
 62
     7
 10
149.37
 20
164.02000000000001
 30
0.0
 11
146.56899999999999
 21
164.02000000000001
 31
0.0
  0
LINE
  5
3E
  8
0
 62
     7
 10
146.56899999999999
 20
164.02000000000001
 30
0.0
 11
146.56899999999999
 21
166.62
 31
0.0
  0
LINE
  5
3F
  8
0
 62
     7
 10
146.56899999999999
 20
166.62
 30
0.0
 11
149.37
 21
166.62
 31
0.0
  0
LINE
  5
40
  8
0
 62
     7
 10
149.37
 20
166.62
 30
0.0
 11
149.37
 21
164.02000000000001
 31
0.0
  0
LINE
  5
41
  8
0
 62
     7
 10
146.56899999999999
 20
161.52000000000001
 30
0.0
 11
145.96899999999999
 21
161.52000000000001
 31
0.0
  0
LINE
  5
42
  8
0
 62
     7
 10
145.96899999999999
 20
161.52000000000001
 30
0.0
 11
145.96899999999999
 21
169.12100000000001
 31
0.0
  0
LINE
  5
43
  8
0
 62
     7
 10
145.96899999999999
 20
169.12100000000001
 30
0.0
 11
146.56899999999999
 21
169.12100000000001
 31
0.0
  0
LINE
  5
44
  8
0
 62
     7
 10
146.56899999999999
 20
169.12100000000001
 30
0.0
 11
146.56899999999999
 21
161.52000000000001
 31
0.0
  0
LINE
  5
45
  8
0
 62
     7
 10
145.96899999999999
 20
162.87100000000001
 30
0.0
 11
145.76900000000001
 21
162.87100000000001
 31
0.0
  0
LINE
  5
46
  8
0
 62
     7
 10
145.76900000000001
 20
162.87100000000001
 30
0.0
 11
145.76900000000001
 21
167.77000000000001
 31
0.0
  0
LINE
  5
47
  8
0
 62
     7
 10
145.76900000000001
 20
167.77000000000001
 30
0.0
 11
145.96899999999999
 21
167.77000000000001
 31
0.0
  0
LINE
  5
48
  8
0
 62
     7
 10
145.96899999999999
 20
167.77000000000001
 30
0.0
 11
145.96899999999999
 21
162.87100000000001
 31
0.0
  0
LINE
  5
49
  8
0
 62
     7
 10
142.994
 20
162.31999999999999
 30
0.0
 11
142.59399999999999
 21
162.31999999999999
 31
0.0
  0
LINE
  5
4A
  8
0
 62
     7
 10
142.59399999999999
 20
162.31999999999999
 30
0.0
 11
142.59399999999999
 21
168.31999999999999
 31
0.0
  0
LINE
  5
4B
  8
0
 62
     7
 10
142.59399999999999
 20
168.31999999999999
 30
0.0
 11
142.994
 21
168.31999999999999
 31
0.0
  0
LINE
  5
4C
  8
0
 62
     7
 10
142.994
 20
168.31999999999999
 30
0.0
 11
142.994
 21
162.31999999999999
 31
0.0
  0
LINE
  5
4D
  8
0
 62
     7
 10
159.56899999999999
 20
170.99799999999999
 30
0.0
 11
161.78
 21
171.59
 31
0.0
  0
LINE
  5
4E
  8
0
 62
     7
 10
161.78
 20
171.59
 30
0.0
 11
159.56899999999999
 21
172.18299999999999
 31
0.0
  0
LINE
  5
4F
  8
0
 62
     7
 10
159.56899999999999
 20
172.18299999999999
 30
0.0
 11
159.56899999999999
 21
170.99799999999999
 31
0.0
  0
LINE
  5
50
  8
0
 62
     7
 10
173.56700000000001
 20
170.9909999999999
 30
0.0
 11
175.77699999999999
 21
171.583
 31
0.0
  0
LINE
  5
51
  8
0
 62
     7
 10
175.77699999999999
 20
171.583
 30
0.0
 11
173.56700000000001
 21
172.17599999999999
 31
0.0
  0
LINE
  5
52
  8
0
 62
     7
 10
173.56700000000001
 20
172.17599999999999
 30
0.0
 11
173.56700000000001
 21
170.9909999999999
 31
0.0
  0
LINE
  5
53
  8
0
 62
     7
 10
166.989
 20
172.16800000000001
 30
0.0
 11
164.77799999999999
 21
171.57599999999999
 31
0.0
  0
LINE
  5
54
  8
0
 62
     7
 10
164.77799999999999
 20
171.57599999999999
 30
0.0
 11
166.989
 21
170.98400000000001
 31
0.0
  0
LINE
  5
55
  8
0
 62
     7
 10
166.989
 20
170.98400000000001
 30
0.0
 11
166.989
 21
172.16800000000001
 31
0.0
  0
LINE
  5
56
  8
0
 62
     7
 10
154.99000000000001
 20
172.16800000000001
 30
0.0
 11
152.779
 21
171.57599999999999
 31
0.0
  0
LINE
  5
57
  8
0
 62
     7
 10
152.779
 20
171.57599999999999
 30
0.0
 11
154.99000000000001
 21
170.98400000000001
 31
0.0
  0
LINE
  5
58
  8
0
 62
     7
 10
154.99000000000001
 20
170.98400000000001
 30
0.0
 11
154.99000000000001
 21
172.16800000000001
 31
0.0
  0
LINE
  5
59
  8
0
 62
     7
 10
175.77699999999999
 20
171.583
 30
0.0
 11
152.779
 21
171.583
 31
0.0
  0
LINE
  5
5A
  8
0
 62
     7
 10
174.57599999999999
 20
166.22099999999989
 30
0.0
 11
175.77699999999999
 21
165.31999999999999
 31
0.0
  0
LINE
  5
5B
  8
0
 62
     7
 10
174.57599999999999
 20
164.41999999999999
 30
0.0
 11
164.77799999999999
 21
164.42099999999999
 31
0.0
  0
LINE
  5
5C
  8
0
 62
     7
 10
174.57599999999999
 20
166.22099999999989
 30
0.0
 11
164.77799999999999
 21
166.22099999999989
 31
0.0
  0
LINE
  5
5D
  8
0
 62
     7
 10
152.97800000000001
 20
164.42099999999999
 30
0.0
 11
152.779
 21
164.62
 31
0.0
  0
LINE
  5
5E
  8
0
 62
     7
 10
161.77799999999999
 20
164.62
 30
0.0
 11
161.97900000000001
 21
164.42099999999999
 31
0.0
  0
LINE
  5
5F
  8
0
 62
     7
 10
161.77799999999999
 20
166.02099999999999
 30
0.0
 11
161.97900000000001
 21
166.22099999999989
 31
0.0
  0
LINE
  5
60
  8
0
 62
     7
 10
152.78
 20
166.02000000000001
 30
0.0
 11
152.97900000000001
 21
166.22
 31
0.0
  0
LINE
  5
61
  8
0
 62
     7
 10
152.78
 20
166.02000000000001
 30
0.0
 11
161.77799999999999
 21
166.02099999999999
 31
0.0
  0
LINE
  5
62
  8
0
 62
     7
 10
152.779
 20
164.62
 30
0.0
 11
161.77799999999999
 21
164.62
 31
0.0
  0
LINE
  5
63
  8
0
 62
     7
 10
152.97800000000001
 20
164.42099999999999
 30
0.0
 11
162.577
 21
164.42099999999999
 31
0.0
  0
LINE
  5
64
  8
0
 62
     7
 10
152.97900000000001
 20
166.22
 30
0.0
 11
162.577
 21
166.22099999999989
 31
0.0
  0
LINE
  5
65
  8
0
 62
     7
 10
164.77799999999999
 20
166.02000000000001
 30
0.0
 11
162.779
 21
166.02099999999999
 31
0.0
  0
LINE
  5
66
  8
0
 62
     7
 10
164.77799999999999
 20
164.62
 30
0.0
 11
162.77799999999999
 21
164.62100000000001
 31
0.0
  0
LINE
  5
67
  8
0
 62
     7
 10
162.577
 20
164.42099999999999
 30
0.0
 11
162.77799999999999
 21
164.62100000000001
 31
0.0
  0
LINE
  5
68
  8
0
 62
     7
 10
162.779
 20
166.02099999999999
 30
0.0
 11
162.577
 21
166.22099999999989
 31
0.0
  0
LINE
  5
69
  8
0
 62
     7
 10
175.77699999999999
 20
165.31999999999999
 30
0.0
 11
174.57599999999999
 21
164.41999999999999
 31
0.0
  0
LINE
  5
6A
  8
0
 62
     7
 10
165.25800000000001
 20
166.6209999999999
 30
0.0
 11
166.28200000000001
 21
164.02099999999999
 31
0.0
  0
LINE
  5
6B
  8
0
 62
     7
 10
166.14599999999999
 20
166.6209999999999
 30
0.0
 11
167.16999999999999
 21
164.02000000000001
 31
0.0
  0
LINE
  5
6C
  8
0
 62
     7
 10
167.03399999999999
 20
166.6209999999999
 30
0.0
 11
168.059
 21
164.02000000000001
 31
0.0
  0
LINE
  5
6D
  8
0
 62
     7
 10
167.922
 20
166.6209999999999
 30
0.0
 11
168.946
 21
164.02099999999999
 31
0.0
  0
LINE
  5
6E
  8
0
 62
     7
 10
168.81
 20
166.62
 30
0.0
 11
169.834
 21
164.02000000000001
 31
0.0
  0
LINE
  5
6F
  8
0
 62
     7
 10
169.696
 20
166.6209999999999
 30
0.0
 11
170.721
 21
164.02000000000001
 31
0.0
  0
LINE
  5
70
  8
0
 62
     7
 10
170.584
 20
166.6209999999999
 30
0.0
 11
171.60900000000001
 21
164.02000000000001
 31
0.0
  0
LINE
  5
71
  8
0
 62
     7
 10
171.47200000000001
 20
166.62
 30
0.0
 11
172.49600000000001
 21
164.02000000000001
 31
0.0
  0
LINE
  5
72
  8
0
 62
     7
 10
172.36000000000001
 20
166.6209999999999
 30
0.0
 11
173.38399999999999
 21
164.02000000000001
 31
0.0
  0
LINE
  5
73
  8
0
 62
     7
 10
173.24799999999999
 20
166.62
 30
0.0
 11
174.27199999999999
 21
164.02000000000001
 31
0.0
  0
LINE
  5
74
  8
0
 62
     7
 10
174.136
 20
166.6209999999999
 30
0.0
 11
175.15799999999999
 21
164.02099999999999
 31
0.0
  0
LINE
  5
75
  8
0
 62
     7
 10
164.77799999999999
 20
166.22
 30
0.0
 11
164.77799999999999
 21
164.42099999999999
 31
0.0
  0
LINE
  5
76
  8
0
 62
     7
 10
161.78
 20
166.22
 30
0.0
 11
161.77799999999999
 21
164.42099999999999
 31
0.0
  0
LINE
  5
77
  8
0
 62
     7
 10
152.97900000000001
 20
166.22
 30
0.0
 11
152.97800000000001
 21
164.42099999999999
 31
0.0
  0
LINE
  5
78
  8
0
 62
     7
 10
175.77699999999999
 20
172.16300000000001
 30
0.0
 11
175.77699999999999
 21
166.07499999999999
 31
0.0
  0
LINE
  5
79
  8
0
 62
     7
 10
164.77799999999999
 20
172.16300000000001
 30
0.0
 11
164.77799999999999
 21
166.727
 31
0.0
  0
LINE
  5
7A
  8
0
 62
     7
 10
161.779
 20
172.16300000000001
 30
0.0
 11
161.779
 21
166.62200000000001
 31
0.0
  0
LINE
  5
7B
  8
0
 62
     7
 10
152.779
 20
172.16300000000001
 30
0.0
 11
152.779
 21
166.62200000000001
 31
0.0
  0
LINE
  5
7C
  8
0
 62
     7
 10
152.78
 20
166.02000000000001
 30
0.0
 11
152.779
 21
164.62
 31
0.0
  0
LINE
  5
7D
  8
0
 62
     7
 10
139.124
 20
163.821
 30
0.0
 11
139.00899999999999
 21
164.321
 31
0.0
  0
ARC
  5
7E
  8
0
 62
     7
 10
132.867805
 20
165.33041399999999
 30
0.0
 40
6.257407999999999
 50
355.45113700000002
 51
359.90446600000001
  0
ARC
  5
7F
  8
0
 62
     7
 10
136.168409
 20
165.07559499999999
 30
0.0
 40
2.9470009999999989
 50
347.51380499999999
 51
355.30043499999999
  0
ARC
  5
80
  8
0
 62
     7
 10
138.25660099999999
 20
164.617501
 30
0.0
 40
0.809168
 50
338.496757
 51
347.21520400000003
  0
LINE
  5
81
  8
0
 62
     7
 10
139.124
 20
163.821
 30
0.0
 11
139.0079999999999
 21
163.321
 31
0.0
  0
ARC
  5
82
  8
0
 62
     7
 10
138.24389400000001
 20
166.826337
 30
0.0
 40
0.881333
 50
347.14079099999998
 51
359.5870220000001
  0
ARC
  5
83
  8
0
 62
     7
 10
137.36997600000001
 20
166.99258599999999
 30
0.0
 40
1.770629999999999
 50
337.69067000000001
 51
348.189819
  0
ARC
  5
84
  8
0
 62
     7
 10
132.909256
 20
165.309776
 30
0.0
 40
6.2159559999999994
 50
0.094064
 51
4.5900910000000001
  0
ARC
  5
85
  8
0
 62
     7
 10
136.203554
 20
165.566442
 30
0.0
 40
2.9116939999999989
 50
4.743345999999999
 51
12.631898
  0
ARC
  5
86
  8
0
 62
     7
 10
138.25989799999999
 20
166.02188699999999
 30
0.0
 40
0.805541
 50
13.007019
 51
21.754338000000001
  0
LINE
  5
87
  8
0
 62
     7
 10
139.125
 20
166.81999999999999
 30
0.0
 11
139.00899999999999
 21
167.31999999999999
 31
0.0
  0
ARC
  5
88
  8
0
 62
     7
 10
138.40778599999999
 20
163.82324399999999
 30
0.0
 40
0.857694
 50
167.35153700000001
 51
180.17223999999999
  0
ARC
  5
89
  8
0
 62
     7
 10
139.24689499999999
 20
163.66901899999999
 30
0.0
 40
1.7105319999999991
 50
157.62333599999999
 51
168.46555699999999
  0
ARC
  5
8A
  8
0
 62
     7
 10
143.6606929999999
 20
165.308165
 30
0.0
 40
6.1106089999999993
 50
179.882724
 51
184.45022900000001
  0
ARC
  5
8B
  8
0
 62
     7
 10
140.47374500000001
 20
165.06970899999999
 30
0.0
 40
2.9147829999999999
 50
184.63790900000001
 51
192.414556
  0
ARC
  5
8C
  8
0
 62
     7
 10
138.43286900000001
 20
164.62525199999999
 30
0.0
 40
0.8260899999999999
 50
192.73979800000001
 51
201.67019099999999
  0
LINE
  5
8D
  8
0
 62
     7
 10
137.55000000000001
 20
163.821
 30
0.0
 11
137.66499999999999
 21
163.321
 31
0.0
  0
ARC
  5
8E
  8
0
 62
     7
 10
138.42433500000001
 20
166.82338899999999
 30
0.0
 40
0.8749319999999999
 50
180.17784499999991
 51
192.73885899999999
  0
ARC
  5
8F
  8
0
 62
     7
 10
139.29619700000001
 20
166.98549199999999
 30
0.0
 40
1.761409
 50
191.62829400000001
 51
202.18305799999999
  0
ARC
  5
90
  8
0
 62
     7
 10
143.65706
 20
165.32943599999999
 30
0.0
 40
6.1069699999999987
 50
175.512933
 51
180.08225999999999
  0
ARC
  5
91
  8
0
 62
     7
 10
140.49047999999999
 20
165.569355
 30
0.0
 40
2.9313380000000002
 50
167.62039999999999
 51
175.345834
  0
ARC
  5
92
  8
0
 62
     7
 10
138.43524400000001
 20
166.01553200000001
 30
0.0
 40
0.8282479999999999
 50
158.39902599999999
 51
167.287364
  0
ARC
  5
93
  8
0
 62
     7
 10
138.41078999999999
 20
166.823263
 30
0.0
 40
0.861386
 50
167.378784
 51
180.17223100000001
  0
ARC
  5
94
  8
0
 62
     7
 10
139.24598900000001
 20
166.67008000000001
 30
0.0
 40
1.7101930000000001
 50
157.63183000000001
 51
168.48487
  0
LINE
  5
95
  8
0
  6
AIGENLINE001
 62
     7
 10
133.905
 20
165.31999999999999
 30
0.0
 11
177.29300000000001
 21
165.321
 31
0.0
  0
LINE
  5
96
  8
0
 62
     7
 10
137.66399999999999
 20
167.321
 30
0.0
 11
139.00899999999999
 21
167.31999999999999
 31
0.0
  0
LINE
  5
97
  8
0
 62
     7
 10
137.66499999999999
 20
166.31999999999999
 30
0.0
 11
139.0079999999999
 21
166.31999999999999
 31
0.0
  0
LINE
  5
98
  8
0
 62
     7
 10
137.66499999999999
 20
163.321
 30
0.0
 11
139.0079999999999
 21
163.321
 31
0.0
  0
LINE
  5
99
  8
0
 62
     7
 10
137.66399999999999
 20
164.31999999999999
 30
0.0
 11
139.00899999999999
 21
164.31899999999999
 31
0.0
  0
LINE
  5
9A
  8
0
 62
     7
 10
139.137
 20
163.648
 30
0.0
 11
139.13800000000001
 21
165.31999999999999
 31
0.0
  0
LINE
  5
9B
  8
0
 62
     7
 10
139.13800000000001
 20
165.31999999999999
 30
0.0
 11
139.137
 21
166.99299999999999
 31
0.0
  0
LINE
  5
9C
  8
0
 62
     7
 10
139.0079999999999
 20
163.321
 30
0.0
 11
139.137
 21
163.648
 31
0.0
  0
LINE
  5
9D
  8
0
 62
     7
 10
137.53800000000001
 20
163.64699999999999
 30
0.0
 11
137.536
 21
166.99299999999999
 31
0.0
  0
LINE
  5
9E
  8
0
 62
     7
 10
137.536
 20
166.99299999999999
 30
0.0
 11
137.66399999999999
 21
167.321
 31
0.0
  0
LINE
  5
9F
  8
0
 62
     7
 10
137.53800000000001
 20
163.64699999999999
 30
0.0
 11
137.66499999999999
 21
163.321
 31
0.0
  0
LINE
  5
A0
  8
0
 62
     7
 10
139.0079999999999
 20
163.321
 30
0.0
 11
139.137
 21
163.648
 31
0.0
  0
LINE
  5
A1
  8
0
 62
     7
 10
139.00899999999999
 20
167.31999999999999
 30
0.0
 11
139.137
 21
166.99299999999999
 31
0.0
  0
LINE
  5
A2
  8
0
  6
AIGENLINE002
 62
     7
 10
174.81800000000001
 20
129.43100000000001
 30
0.0
 11
169.8179999999999
 21
129.43100000000001
 31
0.0
  0
LINE
  5
A3
  8
0
  6
AIGENLINE002
 62
     7
 10
169.8179999999999
 20
129.43100000000001
 30
0.0
 11
169.8179999999999
 21
129.93199999999999
 31
0.0
  0
LINE
  5
A4
  8
0
  6
AIGENLINE002
 62
     7
 10
169.8179999999999
 20
129.93199999999999
 30
0.0
 11
174.81800000000001
 21
129.93199999999999
 31
0.0
  0
LINE
  5
A5
  8
0
  6
AIGENLINE002
 62
     7
 10
174.81800000000001
 20
129.93199999999999
 30
0.0
 11
174.81800000000001
 21
129.43100000000001
 31
0.0
  0
LINE
  5
A6
  8
0
 62
     7
 10
62.6753
 20
203.852
 30
0.0
 11
56.377600000000001
 21
203.852
 31
0.0
  0
LINE
  5
A7
  8
0
 62
     7
 10
87.526799999999994
 20
238.755
 30
0.0
 11
81.5792
 21
238.755
 31
0.0
  0
ARC
  5
A8
  8
0
  6
AIGENLINE002
 62
     7
 10
137.88046900000001
 20
130.91505000000001
 30
0.0
 40
0.5167030000000001
 50
11.042788
 51
88.470136999999994
  0
ARC
  5
A9
  8
0
  6
AIGENLINE002
 62
     7
 10
140.700706
 20
123.396013
 30
0.0
 40
1.029482
 50
190.713853
 51
264.31247300000001
  0
ARC
  5
AA
  8
0
  6
AIGENLINE002
 62
     7
 10
164.89357699999999
 20
123.29373
 30
0.0
 40
1.0265690000000001
 50
282.36735700000003
 51
351.65176000000002
  0
ARC
  5
AB
  8
0
  6
AIGENLINE002
 62
     7
 10
176.62213600000001
 20
131.144159
 30
0.0
 40
0.6960860000000001
 50
290.41244499999999
 51
359.01453800000002
  0
ARC
  5
AC
  8
0
  6
AIGENLINE002
 62
     7
 10
176.53104999999999
 20
131.39499499999999
 30
0.0
 40
0.9629410000000001
 50
269.23318
 51
290.28637400000002
  0
ARC
  5
AD
  8
0
  6
AIGENLINE002
 62
     7
 10
167.545851
 20
129.60512700000001
 30
0.0
 40
0.827349
 50
91.633085000000008
 51
171.07589300000001
  0
LINE
  5
AE
  8
0
  6
AIGENLINE002
 62
     7
 10
160.81800000000001
 20
121.432
 30
0.0
 11
165.113
 21
122.291
 31
0.0
  0
LINE
  5
AF
  8
0
  6
AIGENLINE002
 62
     7
 10
166.72900000000001
 20
129.733
 30
0.0
 11
165.90899999999999
 21
123.145
 31
0.0
  0
LINE
  5
B0
  8
0
  6
AIGENLINE002
 62
     7
 10
152.81800000000001
 20
121.432
 30
0.0
 11
140.59899999999999
 21
122.372
 31
0.0
  0
LINE
  5
B1
  8
0
  6
AIGENLINE002
 62
     7
 10
160.81800000000001
 20
119.932
 30
0.0
 11
160.81800000000001
 21
121.432
 31
0.0
  0
LINE
  5
B2
  8
0
  6
AIGENLINE002
 62
     7
 10
160.81800000000001
 20
119.932
 30
0.0
 11
159.06800000000001
 21
118.432
 31
0.0
  0
LINE
  5
B3
  8
0
  6
AIGENLINE002
 62
     7
 10
152.81800000000001
 20
121.432
 30
0.0
 11
152.81800000000001
 21
119.932
 31
0.0
  0
LINE
  5
B4
  8
0
  6
AIGENLINE002
 62
     7
 10
154.56800000000001
 20
118.432
 30
0.0
 11
152.81800000000001
 21
119.932
 31
0.0
  0
LINE
  5
B5
  8
0
  6
AIGENLINE002
 62
     7
 10
154.56800000000001
 20
118.432
 30
0.0
 11
159.06800000000001
 21
118.432
 31
0.0
  0
LINE
  5
B6
  8
0
  6
AIGENLINE002
 62
     7
 10
152.81800000000001
 20
119.932
 30
0.0
 11
160.81800000000001
 21
119.932
 31
0.0
  0
LINE
  5
B7
  8
0
  6
AIGENLINE002
 62
     7
 10
152.81800000000001
 20
121.432
 30
0.0
 11
160.81800000000001
 21
121.432
 31
0.0
  0
LINE
  5
B8
  8
0
  6
AIGENLINE002
 62
     7
 10
138.38800000000001
 20
131.01400000000001
 30
0.0
 11
139.68899999999999
 21
123.205
 31
0.0
  0
LINE
  5
B9
  8
0
 62
     7
 10
128.67599999999999
 20
230.24000000000001
 30
0.0
 11
128.083
 21
232.45099999999999
 31
0.0
  0
LINE
  5
BA
  8
0
 62
     7
 10
128.083
 20
232.45099999999999
 30
0.0
 11
127.491
 21
230.24000000000001
 31
0.0
  0
LINE
  5
BB
  8
0
 62
     7
 10
127.491
 20
230.24000000000001
 30
0.0
 11
128.67599999999999
 21
230.24000000000001
 31
0.0
  0
LINE
  5
BC
  8
0
 62
     7
 10
127.491
 20
192.66200000000001
 30
0.0
 11
128.083
 21
190.45099999999999
 31
0.0
  0
LINE
  5
BD
  8
0
 62
     7
 10
128.083
 20
190.45099999999999
 30
0.0
 11
128.67599999999999
 21
192.66200000000001
 31
0.0
  0
LINE
  5
BE
  8
0
 62
     7
 10
128.67599999999999
 20
192.66200000000001
 30
0.0
 11
127.491
 21
192.66200000000001
 31
0.0
  0
LINE
  5
BF
  8
0
 62
     7
 10
128.083
 20
232.45099999999999
 30
0.0
 11
128.083
 21
190.45099999999999
 31
0.0
  0
LINE
  5
C0
  8
0
 62
     7
 10
118.411
 20
188.239
 30
0.0
 11
117.818
 21
190.45099999999999
 31
0.0
  0
LINE
  5
C1
  8
0
 62
     7
 10
117.818
 20
190.45099999999999
 30
0.0
 11
117.226
 21
188.239
 31
0.0
  0
LINE
  5
C2
  8
0
 62
     7
 10
117.226
 20
188.239
 30
0.0
 11
118.411
 21
188.239
 31
0.0
  0
LINE
  5
C3
  8
0
 62
     7
 10
118.411
 20
218.239
 30
0.0
 11
117.818
 21
220.45099999999999
 31
0.0
  0
LINE
  5
C4
  8
0
 62
     7
 10
117.818
 20
220.45099999999999
 30
0.0
 11
117.226
 21
218.239
 31
0.0
  0
LINE
  5
C5
  8
0
 62
     7
 10
117.226
 20
218.239
 30
0.0
 11
118.411
 21
218.239
 31
0.0
  0
LINE
  5
C6
  8
0
 62
     7
 10
117.226
 20
222.66200000000001
 30
0.0
 11
117.818
 21
220.45099999999999
 31
0.0
  0
LINE
  5
C7
  8
0
 62
     7
 10
117.818
 20
220.45099999999999
 30
0.0
 11
118.411
 21
222.66200000000001
 31
0.0
  0
LINE
  5
C8
  8
0
 62
     7
 10
118.411
 20
222.66200000000001
 30
0.0
 11
117.226
 21
222.66200000000001
 31
0.0
  0
LINE
  5
C9
  8
0
 62
     7
 10
118.411
 20
224.24000000000001
 30
0.0
 11
117.818
 21
226.45099999999999
 31
0.0
  0
LINE
  5
CA
  8
0
 62
     7
 10
117.818
 20
226.45099999999999
 30
0.0
 11
117.226
 21
224.24000000000001
 31
0.0
  0
LINE
  5
CB
  8
0
 62
     7
 10
117.226
 20
224.24000000000001
 30
0.0
 11
118.411
 21
224.24000000000001
 31
0.0
  0
LINE
  5
CC
  8
0
 62
     7
 10
118.411
 20
230.24000000000001
 30
0.0
 11
117.818
 21
232.45099999999999
 31
0.0
  0
LINE
  5
CD
  8
0
 62
     7
 10
117.818
 20
232.45099999999999
 30
0.0
 11
117.226
 21
230.24000000000001
 31
0.0
  0
LINE
  5
CE
  8
0
 62
     7
 10
117.226
 20
230.24000000000001
 30
0.0
 11
118.411
 21
230.24000000000001
 31
0.0
  0
LINE
  5
CF
  8
0
 62
     7
 10
117.226
 20
228.66300000000001
 30
0.0
 11
117.818
 21
226.45099999999999
 31
0.0
  0
LINE
  5
D0
  8
0
 62
     7
 10
117.818
 20
226.45099999999999
 30
0.0
 11
118.411
 21
228.66300000000001
 31
0.0
  0
LINE
  5
D1
  8
0
 62
     7
 10
118.411
 20
228.66300000000001
 30
0.0
 11
117.226
 21
228.66300000000001
 31
0.0
  0
LINE
  5
D2
  8
0
 62
     7
 10
117.226
 20
194.16200000000001
 30
0.0
 11
117.818
 21
191.95099999999999
 31
0.0
  0
LINE
  5
D3
  8
0
 62
     7
 10
117.818
 20
191.95099999999999
 30
0.0
 11
118.411
 21
194.16200000000001
 31
0.0
  0
LINE
  5
D4
  8
0
 62
     7
 10
118.411
 20
194.16200000000001
 30
0.0
 11
117.226
 21
194.16200000000001
 31
0.0
  0
LINE
  5
D5
  8
0
 62
     7
 10
117.818
 20
232.45099999999999
 30
0.0
 11
117.818
 21
183.072
 31
0.0
  0
ARC
  5
D6
  8
0
 62
     7
 10
104.235968
 20
219.41172399999999
 30
0.0
 40
1.039806999999999
 50
2.1670020000000001
 51
87.872461000000001
  0
ARC
  5
D7
  8
0
 62
     7
 10
34.31218100000001
 20
219.412755
 30
0.0
 40
1.038738999999999
 50
92.072810000000004
 51
177.887687
  0
LINE
  5
D8
  8
0
  6
AIGENLINE001
 62
     7
 10
172.81800000000001
 20
132.43199999999999
 30
0.0
 11
172.81800000000001
 21
129.03200000000001
 31
0.0
  0
ARC
  5
D9
  8
0
 62
     7
 10
69.274675999999985
 20
210.45093199999999
 30
0.0
 40
4.0000400000000003
 50
269.998786
 51
359.99875600000001
  0
ARC
  5
DA
  8
0
 62
     7
 10
69.274502999999996
 20
210.45093
 30
0.0
 40
4.0000390000000001
 50
180.00124400000001
 51
270.00125400000002
  0
ARC
  5
DB
  8
0
 62
     7
 10
69.274505000000005
 20
210.45075800000001
 30
0.0
 40
4.0000400000000003
 50
89.998766000000003
 51
179.99873700000001
  0
ARC
  5
DC
  8
0
 62
     7
 10
69.274675999999985
 20
210.45075800000001
 30
0.0
 40
4.0000400000000003
 50
0.001244
 51
90.001214000000004
  0
ARC
  5
DD
  8
0
 62
     7
 10
69.274590000000003
 20
210.45084499999999
 30
0.0
 40
2.2500059999999991
 50
270.00002000000001
 51
359.99999000000003
  0
ARC
  5
DE
  8
0
 62
     7
 10
69.274590000000003
 20
210.45084399999999
 30
0.0
 40
2.2500059999999991
 50
179.99996999999999
 51
270.00002000000001
  0
ARC
  5
DF
  8
0
 62
     7
 10
69.274591000000001
 20
210.45084399999999
 30
0.0
 40
2.2500059999999991
 50
90.0
 51
179.99996999999999
  0
ARC
  5
E0
  8
0
 62
     7
 10
69.274590000000003
 20
210.45084399999999
 30
0.0
 40
2.2500059999999991
 50
0.00001
 51
89.999980000000008
  0
LINE
  5
E1
  8
0
  6
AIGENLINE001
 62
     7
 10
63.088200000000001
 20
210.45099999999999
 30
0.0
 11
75.461299999999994
 21
210.45099999999999
 31
0.0
  0
ARC
  5
E2
  8
0
  6
AIGENLINE002
 62
     7
 10
82.813242000000002
 20
125.47052600000001
 30
0.0
 40
1.0394639999999991
 50
182.14876799999999
 51
267.87100199999998
  0
ARC
  5
E3
  8
0
  6
AIGENLINE002
 62
     7
 10
82.774799000000016
 20
125.431724
 30
0.0
 40
1.000289999999999
 50
90.009867000000014
 51
180.00987699999999
  0
LINE
  5
E4
  8
0
  6
AIGENLINE002
 62
     7
 10
82.774600000000007
 20
126.432
 30
0.0
 11
83.774699999999996
 21
126.432
 31
0.0
  0
ARC
  5
E5
  8
0
  6
AIGENLINE002
 62
     7
 10
83.736070999999995
 20
125.39359399999999
 30
0.0
 40
1.0391399999999991
 50
2.0933779999999991
 51
87.867138999999995
  0
ARC
  5
E6
  8
0
  6
AIGENLINE002
 62
     7
 10
83.736506999999975
 20
125.46978900000001
 30
0.0
 40
1.0387150000000001
 50
272.10968100000002
 51
357.89032900000001
  0
LINE
  5
E7
  8
0
  6
AIGENLINE002
 62
     7
 10
83.774699999999996
 20
124.432
 30
0.0
 11
82.774600000000007
 21
124.432
 31
0.0
  0
LINE
  5
E8
  8
0
  6
AIGENLINE001
 62
     7
 10
176.077
 20
125.432
 30
0.0
 11
181.459
 21
125.432
 31
0.0
  0
LINE
  5
E9
  8
0
  6
AIGENLINE001
 62
     7
 10
80.539800000000014
 20
125.432
 30
0.0
 11
85.922399999999996
 21
125.432
 31
0.0
  0
LINE
  5
EA
  8
0
  6
AIGENLINE001
 62
     7
 10
83.274500000000003
 20
127.432
 30
0.0
 11
83.274500000000003
 21
123.405
 31
0.0
  0
ARC
  5
EB
  8
0
  6
AIGENLINE002
 62
     7
 10
54.813060999999998
 20
125.47017700000001
 30
0.0
 40
1.039115999999999
 50
182.130234
 51
267.86979600000001
  0
ARC
  5
EC
  8
0
  6
AIGENLINE002
 62
     7
 10
54.813361
 20
125.393343
 30
0.0
 40
1.0394000000000001
 50
92.146173999999988
 51
177.89327
  0
LINE
  5
ED
  8
0
  6
AIGENLINE002
 62
     7
 10
54.7744
 20
126.432
 30
0.0
 11
55.7746
 21
126.432
 31
0.0
  0
ARC
  5
EE
  8
0
  6
AIGENLINE002
 62
     7
 10
55.774381000000012
 20
125.431724
 30
0.0
 40
1.000289999999999
 50
359.99014299999999
 51
89.990113000000008
  0
ARC
  5
EF
  8
0
  6
AIGENLINE002
 62
     7
 10
55.736649
 20
125.469814
 30
0.0
 40
1.0387269999999991
 50
272.09126099999997
 51
357.88900899999999
  0
LINE
  5
F0
  8
0
  6
AIGENLINE002
 62
     7
 10
55.7746
 20
124.432
 30
0.0
 11
54.7744
 21
124.432
 31
0.0
  0
ARC
  5
F1
  8
0
  6
AIGENLINE002
 62
     7
 10
69.236685999999992
 20
127.470049
 30
0.0
 40
1.0387269999999991
 50
272.09126099999997
 51
357.88900899999999
  0
ARC
  5
F2
  8
0
  6
AIGENLINE002
 62
     7
 10
69.313206000000008
 20
127.470761
 30
0.0
 40
1.0394639999999991
 50
182.14876799999999
 51
267.87100199999998
  0
ARC
  5
F3
  8
0
  6
AIGENLINE002
 62
     7
 10
69.312483999999998
 20
127.393535
 30
0.0
 40
1.0387159999999991
 50
92.090693999999999
 51
177.88953599999999
  0
ARC
  5
F4
  8
0
  6
AIGENLINE002
 62
     7
 10
69.235973999999999
 20
127.392813
 30
0.0
 40
1.0394639999999991
 50
2.148747999999999
 51
87.870981999999998
  0
LINE
  5
F5
  8
0
  6
AIGENLINE001
 62
     7
 10
52.539900000000003
 20
125.432
 30
0.0
 11
57.922600000000003
 21
125.432
 31
0.0
  0
LINE
  5
F6
  8
0
  6
AIGENLINE001
 62
     7
 10
164.31100000000001
 20
127.432
 30
0.0
 11
168.59200000000001
 21
127.432
 31
0.0
  0
LINE
  5
F7
  8
0
  6
AIGENLINE001
 62
     7
 10
66.009299999999996
 20
127.432
 30
0.0
 11
72.539900000000003
 21
127.432
 31
0.0
  0
ARC
  5
F8
  8
0
  6
AIGENLINE002
 62
     7
 10
79.274559999999994
 20
226.45083099999999
 30
0.0
 40
1.7497750000000001
 50
270.00002000000001
 51
359.99999000000003
  0
ARC
  5
F9
  8
0
  6
AIGENLINE002
 62
     7
 10
79.274559999999994
 20
226.45083
 30
0.0
 40
1.7497750000000001
 50
179.99996999999999
 51
270.00002000000001
  0
ARC
  5
FA
  8
0
  6
AIGENLINE002
 62
     7
 10
79.274732
 20
226.45100299999999
 30
0.0
 40
1.7499480000000001
 50
90.005639999999985
 51
180.00565
  0
ARC
  5
FB
  8
0
  6
AIGENLINE002
 62
     7
 10
79.274387000000004
 20
226.45100299999999
 30
0.0
 40
1.7499480000000001
 50
359.99437
 51
89.994339999999994
  0
LINE
  5
FC
  8
0
  6
AIGENLINE001
 62
     7
 10
79.274600000000007
 20
229.59
 30
0.0
 11
79.274600000000007
 21
223.19999999999999
 31
0.0
  0
ARC
  5
FD
  8
0
  6
AIGENLINE002
 62
     7
 10
59.274447999999992
 20
226.45083099999999
 30
0.0
 40
1.7497750000000001
 50
270.00002000000001
 51
359.99999000000003
  0
ARC
  5
FE
  8
0
  6
AIGENLINE002
 62
     7
 10
59.274447999999992
 20
226.45083
 30
0.0
 40
1.7497750000000001
 50
179.99996999999999
 51
270.00002000000001
  0
ARC
  5
FF
  8
0
  6
AIGENLINE002
 62
     7
 10
59.274620999999989
 20
226.45100299999999
 30
0.0
 40
1.7499480000000001
 50
90.005639999999985
 51
180.00565
  0
ARC
  5
100
  8
0
  6
AIGENLINE002
 62
     7
 10
59.274276
 20
226.45100299999999
 30
0.0
 40
1.7499480000000001
 50
359.99437
 51
89.994339999999994
  0
LINE
  5
101
  8
0
  6
AIGENLINE001
 62
     7
 10
59.2744
 20
229.59
 30
0.0
 11
59.2744
 21
223.19999999999999
 31
0.0
  0
ARC
  5
102
  8
0
 62
     7
 10
69.274590000000003
 20
226.45083099999999
 30
0.0
 40
1.7497750000000001
 50
270.00002000000001
 51
359.99999000000003
  0
ARC
  5
103
  8
0
 62
     7
 10
69.274590000000003
 20
226.45083
 30
0.0
 40
1.7497750000000001
 50
179.99996999999999
 51
270.00002000000001
  0
ARC
  5
104
  8
0
 62
     7
 10
69.274763000000007
 20
226.45100299999999
 30
0.0
 40
1.7499480000000001
 50
90.005639999999985
 51
180.00565
  0
ARC
  5
105
  8
0
 62
     7
 10
69.274418000000011
 20
226.45100299999999
 30
0.0
 40
1.7499480000000001
 50
359.99437
 51
89.994339999999994
  0
ARC
  5
106
  8
0
 62
     7
 10
36.388502000000003
 20
195.065091
 30
0.0
 40
3.1164520000000002
 50
182.102723
 51
267.89730700000001
  0
ARC
  5
107
  8
0
 62
     7
 10
102.16068300000001
 20
227.83666600000001
 30
0.0
 40
3.1164480000000001
 50
2.1026329999999991
 51
87.897356999999985
  0
ARC
  5
108
  8
0
 62
     7
 10
36.389271000000001
 20
227.835893
 30
0.0
 40
3.1172490000000002
 50
92.116299999999995
 51
177.88367
  0
ARC
  5
109
  8
0
 62
     7
 10
102.159909
 20
195.06586100000001
 30
0.0
 40
3.117249999999999
 50
272.11633699999999
 51
357.88367299999999
  0
LINE
  5
10A
  8
0
 62
     7
 10
105.27500000000001
 20
227.95099999999999
 30
0.0
 11
105.27500000000001
 21
194.95099999999999
 31
0.0
  0
LINE
  5
10B
  8
0
 62
     7
 10
163.81800000000001
 20
118.432
 30
0.0
 11
162.81800000000001
 21
115.432
 31
0.0
  0
LINE
  5
10C
  8
0
  6
AIGENLINE002
 62
     7
 10
159.06800000000001
 20
118.432
 30
0.0
 11
159.06800000000001
 21
115.432
 31
0.0
  0
LINE
  5
10D
  8
0
  6
AIGENLINE002
 62
     7
 10
154.56800000000001
 20
118.432
 30
0.0
 11
154.56800000000001
 21
115.432
 31
0.0
  0
LINE
  5
10E
  8
0
 62
     7
 10
153.3179999999999
 20
118.432
 30
0.0
 11
153.3179999999999
 21
115.432
 31
0.0
  0
LINE
  5
10F
  8
0
  6
AIGENLINE001
 62
     7
 10
156.81800000000001
 20
125.746
 30
0.0
 11
156.81800000000001
 21
113.746
 31
0.0
  0
LINE
  5
110
  8
0
 62
     7
 10
178.81800000000001
 20
130.93199999999999
 30
0.0
 11
178.81800000000001
 21
118.932
 31
0.0
  0
LINE
  5
111
  8
0
 62
     7
 10
136.81800000000001
 20
130.93199999999999
 30
0.0
 11
136.81800000000001
 21
118.932
 31
0.0
  0
LINE
  5
112
  8
0
  6
AIGENLINE002
 62
     7
 10
167.52199999999999
 20
130.43199999999999
 30
0.0
 11
176.518
 21
130.43199999999999
 31
0.0
  0
LINE
  5
113
  8
0
 62
     7
 10
137.31800000000001
 20
131.43199999999999
 30
0.0
 11
178.3179999999999
 21
131.43199999999999
 31
0.0
  0
LINE
  5
114
  8
0
 62
     7
 10
137.31800000000001
 20
118.432
 30
0.0
 11
178.3179999999999
 21
118.432
 31
0.0
  0
ARC
  5
115
  8
0
 62
     7
 10
178.317891
 20
118.931994
 30
0.0
 40
0.5002310000000002
 50
270.00002000000001
 51
359.99999000000003
  0
ARC
  5
116
  8
0
  6
AIGENLINE002
 62
     7
 10
177.71182200000001
 20
131.132644
 30
0.0
 40
0.393704
 50
162.14147199999999
 51
180.06647000000001
  0
ARC
  5
117
  8
0
  6
AIGENLINE002
 62
     7
 10
177.54793000000001
 20
131.176436
 30
0.0
 40
0.224443
 50
117.57060199999999
 51
159.950943
  0
ARC
  5
118
  8
0
  6
AIGENLINE002
 62
     7
 10
177.604747
 20
131.07300900000001
 30
0.0
 40
0.342431
 50
106.97012700000001
 51
117.988119
  0
ARC
  5
119
  8
0
  6
AIGENLINE002
 62
     7
 10
177.668543
 20
130.86184399999999
 30
0.0
 40
0.5630220000000001
 50
97.956752000000009
 51
106.90742899999999
  0
ARC
  5
11A
  8
0
  6
AIGENLINE002
 62
     7
 10
177.74486099999999
 20
130.32475199999999
 30
0.0
 40
1.105507999999999
 50
92.047094999999985
 51
98.020843999999983
  0
ARC
  5
11B
  8
0
  6
AIGENLINE002
 62
     7
 10
177.812837
 20
128.56985399999999
 30
0.0
 40
2.861718999999999
 50
89.889628000000016
 51
92.152124000000015
  0
ARC
  5
11C
  8
0
 62
     7
 10
137.33686299999999
 20
130.912688
 30
0.0
 40
0.5192140000000001
 50
92.055465999999996
 51
177.86553000000001
  0
ARC
  5
11D
  8
0
 62
     7
 10
178.29862
 20
130.91203899999999
 30
0.0
 40
0.519887
 50
2.2033230000000001
 51
87.875641000000002
  0
ARC
  5
11E
  8
0
 62
     7
 10
137.31824
 20
118.931994
 30
0.0
 40
0.5002310000000002
 50
179.99996999999999
 51
270.00002000000001
  0
LINE
  5
11F
  8
0
 62
     7
 10
106.77500000000001
 20
130.93199999999999
 30
0.0
 11
106.77500000000001
 21
118.932
 31
0.0
  0
LINE
  5
120
  8
0
  6
AIGENLINE001
 62
     7
 10
69.274600000000007
 20
133.375
 30
0.0
 11
69.274600000000007
 21
113.60899999999999
 31
0.0
  0
LINE
  5
121
  8
0
 62
     7
 10
72.774500000000003
 20
118.432
 30
0.0
 11
72.774500000000003
 21
115.432
 31
0.0
  0
LINE
  5
122
  8
0
 62
     7
 10
65.774699999999996
 20
118.432
 30
0.0
 11
65.774699999999996
 21
115.432
 31
0.0
  0
LINE
  5
123
  8
0
 62
     7
 10
31.774100000000001
 20
130.93199999999999
 30
0.0
 11
31.774100000000001
 21
118.932
 31
0.0
  0
LINE
  5
124
  8
0
 62
     7
 10
32.2744
 20
131.43199999999999
 30
0.0
 11
106.27500000000001
 21
131.43199999999999
 31
0.0
  0
LINE
  5
125
  8
0
 62
     7
 10
153.3179999999999
 20
115.432
 30
0.0
 11
162.81800000000001
 21
115.432
 31
0.0
  0
LINE
  5
126
  8
0
 62
     7
 10
65.774699999999996
 20
115.432
 30
0.0
 11
72.774500000000003
 21
115.432
 31
0.0
  0
LINE
  5
127
  8
0
 62
     7
 10
32.2744
 20
118.432
 30
0.0
 11
106.27500000000001
 21
118.432
 31
0.0
  0
ARC
  5
128
  8
0
 62
     7
 10
106.255646
 20
118.95133800000001
 30
0.0
 40
0.5199220000000001
 50
272.09281700000003
 51
357.86774700000001
  0
ARC
  5
129
  8
0
 62
     7
 10
32.292997999999997
 20
130.912688
 30
0.0
 40
0.5192140000000001
 50
92.055465999999996
 51
177.86553000000001
  0
ARC
  5
12A
  8
0
 62
     7
 10
106.25537
 20
130.911689
 30
0.0
 40
0.5202359999999999
 50
2.240362999999999
 51
87.878047999999993
  0
ARC
  5
12B
  8
0
 62
     7
 10
32.274374999999999
 20
118.931994
 30
0.0
 40
0.5002310000000002
 50
179.99996999999999
 51
270.00002000000001
  0
LINE
  5
12C
  8
0
 62
     7
 10
106.77500000000001
 20
227.95099999999999
 30
0.0
 11
106.77500000000001
 21
194.95099999999999
 31
0.0
  0
LINE
  5
12D
  8
0
  6
AIGENLINE001
 62
     7
 10
83.274500000000003
 20
235.161
 30
0.0
 11
83.274500000000003
 21
228.20099999999999
 31
0.0
  0
LINE
  5
12E
  8
0
  6
AIGENLINE001
 62
     7
 10
55.274700000000003
 20
127.432
 30
0.0
 11
55.274700000000003
 21
123.405
 31
0.0
  0
LINE
  5
12F
  8
0
  6
AIGENLINE001
 62
     7
 10
55.274700000000003
 20
235.161
 30
0.0
 11
55.274700000000003
 21
228.20099999999999
 31
0.0
  0
LINE
  5
130
  8
0
  6
AIGENLINE001
 62
     7
 10
69.274600000000007
 20
235.161
 30
0.0
 11
69.274600000000007
 21
187.60599999999999
 31
0.0
  0
LINE
  5
131
  8
0
 62
     7
 10
33.274099999999997
 20
227.95099999999999
 30
0.0
 11
33.274099999999997
 21
194.95099999999999
 31
0.0
  0
LINE
  5
132
  8
0
 62
     7
 10
175.03399999999999
 20
133.643
 30
0.0
 11
175.62700000000001
 21
131.43199999999999
 31
0.0
  0
LINE
  5
133
  8
0
 62
     7
 10
175.62700000000001
 20
131.43199999999999
 30
0.0
 11
176.21899999999999
 21
133.643
 31
0.0
  0
LINE
  5
134
  8
0
 62
     7
 10
176.21899999999999
 20
133.643
 30
0.0
 11
175.03399999999999
 21
133.643
 31
0.0
  0
LINE
  5
135
  8
0
 62
     7
 10
176.21899999999999
 20
128.221
 30
0.0
 11
175.62700000000001
 21
130.43199999999999
 31
0.0
  0
LINE
  5
136
  8
0
 62
     7
 10
175.62700000000001
 20
130.43199999999999
 30
0.0
 11
175.03399999999999
 21
128.221
 31
0.0
  0
LINE
  5
137
  8
0
 62
     7
 10
175.03399999999999
 20
128.221
 30
0.0
 11
176.21899999999999
 21
128.221
 31
0.0
  0
LINE
  5
138
  8
0
 62
     7
 10
175.62700000000001
 20
126.83499999999999
 30
0.0
 11
175.62700000000001
 21
137.56899999999999
 31
0.0
  0
LINE
  5
139
  8
0
 62
     7
 10
92.718599999999995
 20
133.643
 30
0.0
 11
93.311199999999999
 21
131.43199999999999
 31
0.0
  0
LINE
  5
13A
  8
0
 62
     7
 10
93.311199999999999
 20
131.43199999999999
 30
0.0
 11
93.903700000000001
 21
133.643
 31
0.0
  0
LINE
  5
13B
  8
0
 62
     7
 10
93.903700000000001
 20
133.643
 30
0.0
 11
92.718599999999995
 21
133.643
 31
0.0
  0
LINE
  5
13C
  8
0
 62
     7
 10
93.903700000000001
 20
123.22
 30
0.0
 11
93.311199999999999
 21
125.432
 31
0.0
  0
LINE
  5
13D
  8
0
 62
     7
 10
93.311199999999999
 20
125.432
 30
0.0
 11
92.718599999999995
 21
123.22
 31
0.0
  0
LINE
  5
13E
  8
0
 62
     7
 10
92.718599999999995
 20
123.22
 30
0.0
 11
93.903700000000001
 21
123.22
 31
0.0
  0
LINE
  5
13F
  8
0
 62
     7
 10
93.311199999999999
 20
121.83499999999999
 30
0.0
 11
93.311199999999999
 21
137.815
 31
0.0
  0
LINE
  5
140
  8
0
 62
     7
 10
79.274600000000007
 20
230.28999999999999
 30
0.0
 11
79.274600000000007
 21
241.34
 31
0.0
  0
LINE
  5
141
  8
0
 62
     7
 10
71.486000000000004
 20
241.233
 30
0.0
 11
69.2744
 21
240.63999999999999
 31
0.0
  0
LINE
  5
142
  8
0
 62
     7
 10
69.2744
 20
240.63999999999999
 30
0.0
 11
71.486000000000004
 21
240.048
 31
0.0
  0
LINE
  5
143
  8
0
 62
     7
 10
71.486000000000004
 20
240.048
 30
0.0
 11
71.486000000000004
 21
241.233
 31
0.0
  0
LINE
  5
144
  8
0
 62
     7
 10
77.063000000000002
 20
240.048
 30
0.0
 11
79.274600000000007
 21
240.63999999999999
 31
0.0
  0
LINE
  5
145
  8
0
 62
     7
 10
79.274600000000007
 20
240.63999999999999
 30
0.0
 11
77.063000000000002
 21
241.233
 31
0.0
  0
LINE
  5
146
  8
0
 62
     7
 10
77.063000000000002
 20
241.233
 30
0.0
 11
77.063000000000002
 21
240.048
 31
0.0
  0
LINE
  5
147
  8
0
 62
     7
 10
69.2744
 20
240.63999999999999
 30
0.0
 11
79.274600000000007
 21
240.63999999999999
 31
0.0
  0
LINE
  5
148
  8
0
 62
     7
 10
69.2744
 20
235.86099999999999
 30
0.0
 11
69.2744
 21
241.34
 31
0.0
  0
LINE
  5
149
  8
0
 62
     7
 10
59.274299999999997
 20
230.28999999999999
 30
0.0
 11
59.274299999999997
 21
241.34
 31
0.0
  0
LINE
  5
14A
  8
0
 62
     7
 10
61.485900000000001
 20
241.233
 30
0.0
 11
59.274299999999997
 21
240.63999999999999
 31
0.0
  0
LINE
  5
14B
  8
0
 62
     7
 10
59.274299999999997
 20
240.63999999999999
 30
0.0
 11
61.485900000000001
 21
240.048
 31
0.0
  0
LINE
  5
14C
  8
0
 62
     7
 10
61.485900000000001
 20
240.048
 30
0.0
 11
61.485900000000001
 21
241.233
 31
0.0
  0
LINE
  5
14D
  8
0
 62
     7
 10
67.062799999999996
 20
240.048
 30
0.0
 11
69.2744
 21
240.63999999999999
 31
0.0
  0
LINE
  5
14E
  8
0
 62
     7
 10
69.2744
 20
240.63999999999999
 30
0.0
 11
67.062799999999996
 21
241.233
 31
0.0
  0
LINE
  5
14F
  8
0
 62
     7
 10
67.062799999999996
 20
241.233
 30
0.0
 11
67.062799999999996
 21
240.048
 31
0.0
  0
LINE
  5
150
  8
0
 62
     7
 10
59.274299999999997
 20
240.63999999999999
 30
0.0
 11
69.2744
 21
240.63999999999999
 31
0.0
  0
LINE
  5
151
  8
0
 62
     7
 10
83.274500000000003
 20
128.13200000000001
 30
0.0
 11
83.274500000000003
 21
139.18199999999999
 31
0.0
  0
LINE
  5
152
  8
0
 62
     7
 10
55.274700000000003
 20
128.13200000000001
 30
0.0
 11
55.274700000000003
 21
139.18199999999999
 31
0.0
  0
LINE
  5
153
  8
0
 62
     7
 10
57.4863
 20
139.07400000000001
 30
0.0
 11
55.274700000000003
 21
138.482
 31
0.0
  0
LINE
  5
154
  8
0
 62
     7
 10
55.274700000000003
 20
138.482
 30
0.0
 11
57.4863
 21
137.88900000000001
 31
0.0
  0
LINE
  5
155
  8
0
 62
     7
 10
57.4863
 20
137.88900000000001
 30
0.0
 11
57.4863
 21
139.07400000000001
 31
0.0
  0
LINE
  5
156
  8
0
 62
     7
 10
81.062899999999985
 20
137.88900000000001
 30
0.0
 11
83.274500000000003
 21
138.482
 31
0.0
  0
LINE
  5
157
  8
0
 62
     7
 10
83.274500000000003
 20
138.482
 30
0.0
 11
81.062899999999985
 21
139.07400000000001
 31
0.0
  0
LINE
  5
158
  8
0
 62
     7
 10
81.062899999999985
 20
139.07400000000001
 30
0.0
 11
81.062899999999985
 21
137.88900000000001
 31
0.0
  0
LINE
  5
159
  8
0
 62
     7
 10
55.274700000000003
 20
138.482
 30
0.0
 11
83.274500000000003
 21
138.482
 31
0.0
  0
LINE
  5
15A
  8
0
 62
     7
 10
122.85599999999999
 20
129.22
 30
0.0
 11
122.26300000000001
 21
131.43199999999999
 31
0.0
  0
LINE
  5
15B
  8
0
 62
     7
 10
122.26300000000001
 20
131.43199999999999
 30
0.0
 11
121.67100000000001
 21
129.22
 31
0.0
  0
LINE
  5
15C
  8
0
 62
     7
 10
121.67100000000001
 20
129.22
 30
0.0
 11
122.85599999999999
 21
129.22
 31
0.0
  0
LINE
  5
15D
  8
0
 62
     7
 10
121.67100000000001
 20
117.643
 30
0.0
 11
122.26300000000001
 21
115.432
 31
0.0
  0
LINE
  5
15E
  8
0
 62
     7
 10
122.26300000000001
 20
115.432
 30
0.0
 11
122.85599999999999
 21
117.643
 31
0.0
  0
LINE
  5
15F
  8
0
 62
     7
 10
122.85599999999999
 20
117.643
 30
0.0
 11
121.67100000000001
 21
117.643
 31
0.0
  0
LINE
  5
160
  8
0
 62
     7
 10
122.26300000000001
 20
131.43199999999999
 30
0.0
 11
122.26300000000001
 21
115.432
 31
0.0
  0
LINE
  5
161
  8
0
 62
     7
 10
73.474500000000006
 20
115.432
 30
0.0
 11
122.96299999999999
 21
115.432
 31
0.0
  0
LINE
  5
162
  8
0
 62
     7
 10
116.202
 20
129.22
 30
0.0
 11
115.60899999999999
 21
131.43199999999999
 31
0.0
  0
LINE
  5
163
  8
0
 62
     7
 10
115.60899999999999
 20
131.43199999999999
 30
0.0
 11
115.017
 21
129.22
 31
0.0
  0
LINE
  5
164
  8
0
 62
     7
 10
115.017
 20
129.22
 30
0.0
 11
116.202
 21
129.22
 31
0.0
  0
LINE
  5
165
  8
0
 62
     7
 10
115.017
 20
120.643
 30
0.0
 11
115.60899999999999
 21
118.432
 31
0.0
  0
LINE
  5
166
  8
0
 62
     7
 10
115.60899999999999
 20
118.432
 30
0.0
 11
116.202
 21
120.643
 31
0.0
  0
LINE
  5
167
  8
0
 62
     7
 10
116.202
 20
120.643
 30
0.0
 11
115.017
 21
120.643
 31
0.0
  0
LINE
  5
168
  8
0
 62
     7
 10
115.60899999999999
 20
131.43199999999999
 30
0.0
 11
115.60899999999999
 21
118.432
 31
0.0
  0
LINE
  5
169
  8
0
 62
     7
 10
105.27500000000001
 20
192.30799999999999
 30
0.0
 11
105.27500000000001
 21
177.71199999999999
 31
0.0
  0
LINE
  5
16A
  8
0
 62
     7
 10
33.274099999999997
 20
192.30799999999999
 30
0.0
 11
33.274099999999997
 21
177.71199999999999
 31
0.0
  0
LINE
  5
16B
  8
0
 62
     7
 10
178.81800000000001
 20
117.732
 30
0.0
 11
178.81800000000001
 21
106.31999999999999
 31
0.0
  0
LINE
  5
16C
  8
0
 62
     7
 10
169.25
 20
131.51599999999999
 30
0.0
 11
170.90299999999999
 21
129.93199999999999
 31
0.0
  0
LINE
  5
16D
  8
0
 62
     7
 10
170.90299999999999
 20
129.93199999999999
 30
0.0
 11
170.26400000000001
 21
132.13
 31
0.0
  0
LINE
  5
16E
  8
0
 62
     7
 10
170.26400000000001
 20
132.13
 30
0.0
 11
169.25
 21
131.51599999999999
 31
0.0
  0
LINE
  5
16F
  8
0
 62
     7
 10
165.941
 20
138.12299999999999
 30
0.0
 11
170.90299999999999
 21
129.93199999999999
 31
0.0
  0
LINE
  5
170
  8
0
 62
     7
 10
155.613
 20
129.22
 30
0.0
 11
155.02000000000001
 21
131.43199999999999
 31
0.0
  0
LINE
  5
171
  8
0
 62
     7
 10
155.02000000000001
 20
131.43199999999999
 30
0.0
 11
154.42699999999999
 21
129.22
 31
0.0
  0
LINE
  5
172
  8
0
 62
     7
 10
154.42699999999999
 20
129.22
 30
0.0
 11
155.613
 21
129.22
 31
0.0
  0
LINE
  5
173
  8
0
 62
     7
 10
154.42699999999999
 20
123.643
 30
0.0
 11
155.02000000000001
 21
121.432
 31
0.0
  0
LINE
  5
174
  8
0
 62
     7
 10
155.02000000000001
 20
121.432
 30
0.0
 11
155.613
 21
123.643
 31
0.0
  0
LINE
  5
175
  8
0
 62
     7
 10
155.613
 20
123.643
 30
0.0
 11
154.42699999999999
 21
123.643
 31
0.0
  0
LINE
  5
176
  8
0
 62
     7
 10
155.02000000000001
 20
131.43199999999999
 30
0.0
 11
155.02000000000001
 21
121.432
 31
0.0
  0
LINE
  5
177
  8
0
 62
     7
 10
156.81800000000001
 20
113.04600000000001
 30
0.0
 11
156.81800000000001
 21
106.31999999999999
 31
0.0
  0
LINE
  5
178
  8
0
 62
     7
 10
149.565
 20
138.12299999999999
 30
0.0
 11
165.941
 21
138.12299999999999
 31
0.0
  0
LINE
  5
179
  8
0
 62
     7
 10
159.03
 20
107.613
 30
0.0
 11
156.81800000000001
 21
107.02
 31
0.0
  0
LINE
  5
17A
  8
0
 62
     7
 10
156.81800000000001
 20
107.02
 30
0.0
 11
159.03
 21
106.428
 31
0.0
  0
LINE
  5
17B
  8
0
 62
     7
 10
159.03
 20
106.428
 30
0.0
 11
159.03
 21
107.613
 31
0.0
  0
LINE
  5
17C
  8
0
 62
     7
 10
176.607
 20
106.428
 30
0.0
 11
178.81800000000001
 21
107.02
 31
0.0
  0
LINE
  5
17D
  8
0
 62
     7
 10
178.81800000000001
 20
107.02
 30
0.0
 11
176.607
 21
107.613
 31
0.0
  0
LINE
  5
17E
  8
0
 62
     7
 10
176.607
 20
107.613
 30
0.0
 11
176.607
 21
106.428
 31
0.0
  0
LINE
  5
17F
  8
0
 62
     7
 10
156.81800000000001
 20
107.02
 30
0.0
 11
178.81800000000001
 21
107.02
 31
0.0
  0
LINE
  5
180
  8
0
 62
     7
 10
106.77500000000001
 20
192.30799999999999
 30
0.0
 11
106.77500000000001
 21
168.76599999999999
 31
0.0
  0
LINE
  5
181
  8
0
 62
     7
 10
31.774100000000001
 20
192.30799999999999
 30
0.0
 11
31.774100000000001
 21
168.76599999999999
 31
0.0
  0
LINE
  5
182
  8
0
 62
     7
 10
31.774100000000001
 20
227.95099999999999
 30
0.0
 11
31.774100000000001
 21
194.95099999999999
 31
0.0
  0
LINE
  5
183
  8
0
 62
     7
 10
36.2742
 20
230.95099999999999
 30
0.0
 11
102.27500000000001
 21
230.95099999999999
 31
0.0
  0
LINE
  5
184
  8
0
 62
     7
 10
34.2746
 20
220.45099999999999
 30
0.0
 11
104.27500000000001
 21
220.45099999999999
 31
0.0
  0
LINE
  5
185
  8
0
  6
AIGENLINE001
 62
     7
 10
56.008000000000003
 20
226.45099999999999
 30
0.0
 11
87.087100000000007
 21
226.45099999999999
 31
0.0
  0
LINE
  5
186
  8
0
 62
     7
 10
36.2742
 20
232.45099999999999
 30
0.0
 11
102.27500000000001
 21
232.45099999999999
 31
0.0
  0
LINE
  5
187
  8
0
 62
     7
 10
36.2742
 20
191.95099999999999
 30
0.0
 11
102.27500000000001
 21
191.95099999999999
 31
0.0
  0
LINE
  5
188
  8
0
 62
     7
 10
104.47499999999999
 20
232.45099999999999
 30
0.0
 11
128.78299999999999
 21
232.45099999999999
 31
0.0
  0
LINE
  5
189
  8
0
 62
     7
 10
87.787099999999995
 20
226.45099999999999
 30
0.0
 11
118.518
 21
226.45099999999999
 31
0.0
  0
LINE
  5
18A
  8
0
 62
     7
 10
72.010499999999993
 20
214.02500000000001
 30
0.0
 11
70.865499999999983
 21
212.042
 31
0.0
  0
LINE
  5
18B
  8
0
 62
     7
 10
70.865499999999983
 20
212.042
 30
0.0
 11
72.848600000000005
 21
213.18700000000001
 31
0.0
  0
LINE
  5
18C
  8
0
 62
     7
 10
72.848600000000005
 20
213.18700000000001
 30
0.0
 11
72.010499999999993
 21
214.02500000000001
 31
0.0
  0
LINE
  5
18D
  8
0
 62
     7
 10
66.538700000000006
 20
206.87700000000001
 30
0.0
 11
67.683599999999998
 21
208.86000000000001
 31
0.0
  0
LINE
  5
18E
  8
0
 62
     7
 10
67.683599999999998
 20
208.86000000000001
 30
0.0
 11
65.700599999999994
 21
207.715
 31
0.0
  0
LINE
  5
18F
  8
0
 62
     7
 10
65.700599999999994
 20
207.715
 30
0.0
 11
66.538700000000006
 21
206.87700000000001
 31
0.0
  0
LINE
  5
190
  8
0
 62
     7
 10
62.6753
 20
203.852
 30
0.0
 11
73.612999999999985
 21
214.78899999999999
 31
0.0
  0
LINE
  5
191
  8
0
 62
     7
 10
71.656899999999993
 20
229.67099999999999
 30
0.0
 11
70.511899999999997
 21
227.68799999999999
 31
0.0
  0
LINE
  5
192
  8
0
 62
     7
 10
70.511899999999997
 20
227.68799999999999
 30
0.0
 11
72.494900000000001
 21
228.833
 31
0.0
  0
LINE
  5
193
  8
0
 62
     7
 10
72.494900000000001
 20
228.833
 30
0.0
 11
71.656899999999993
 21
229.67099999999999
 31
0.0
  0
LINE
  5
194
  8
0
 62
     7
 10
66.892300000000006
 20
223.23099999999999
 30
0.0
 11
68.037300000000002
 21
225.214
 31
0.0
  0
LINE
  5
195
  8
0
 62
     7
 10
68.037300000000002
 20
225.214
 30
0.0
 11
66.054299999999998
 21
224.06899999999999
 31
0.0
  0
LINE
  5
196
  8
0
 62
     7
 10
66.054299999999998
 20
224.06899999999999
 30
0.0
 11
66.892300000000006
 21
223.23099999999999
 31
0.0
  0
LINE
  5
197
  8
0
 62
     7
 10
65.144900000000007
 20
222.321
 30
0.0
 11
81.5792
 21
238.755
 31
0.0
  0
LINE
  5
198
  8
0
 62
     7
 10
33.985700000000001
 20
170.059
 30
0.0
 11
31.774100000000001
 21
169.46700000000001
 31
0.0
  0
LINE
  5
199
  8
0
 62
     7
 10
31.774100000000001
 20
169.46700000000001
 30
0.0
 11
33.985700000000001
 21
168.874
 31
0.0
  0
LINE
  5
19A
  8
0
 62
     7
 10
33.985700000000001
 20
168.874
 30
0.0
 11
33.985700000000001
 21
170.059
 31
0.0
  0
LINE
  5
19B
  8
0
 62
     7
 10
104.56399999999999
 20
168.874
 30
0.0
 11
106.77500000000001
 21
169.46700000000001
 31
0.0
  0
LINE
  5
19C
  8
0
 62
     7
 10
106.77500000000001
 20
169.46700000000001
 30
0.0
 11
104.56399999999999
 21
170.059
 31
0.0
  0
LINE
  5
19D
  8
0
 62
     7
 10
104.56399999999999
 20
170.059
 30
0.0
 11
104.56399999999999
 21
168.874
 31
0.0
  0
LINE
  5
19E
  8
0
 62
     7
 10
31.774100000000001
 20
169.46700000000001
 30
0.0
 11
106.77500000000001
 21
169.46700000000001
 31
0.0
  0
LINE
  5
19F
  8
0
 62
     7
 10
35.485700000000001
 20
179.005
 30
0.0
 11
33.274099999999997
 21
178.41200000000001
 31
0.0
  0
LINE
  5
1A0
  8
0
 62
     7
 10
33.274099999999997
 20
178.41200000000001
 30
0.0
 11
35.485700000000001
 21
177.81999999999999
 31
0.0
  0
LINE
  5
1A1
  8
0
 62
     7
 10
35.485700000000001
 20
177.81999999999999
 30
0.0
 11
35.485700000000001
 21
179.005
 31
0.0
  0
LINE
  5
1A2
  8
0
 62
     7
 10
103.063
 20
177.81999999999999
 30
0.0
 11
105.27500000000001
 21
178.41200000000001
 31
0.0
  0
LINE
  5
1A3
  8
0
 62
     7
 10
105.27500000000001
 20
178.41200000000001
 30
0.0
 11
103.063
 21
179.005
 31
0.0
  0
LINE
  5
1A4
  8
0
 62
     7
 10
103.063
 20
179.005
 30
0.0
 11
103.063
 21
177.81999999999999
 31
0.0
  0
LINE
  5
1A5
  8
0
 62
     7
 10
33.274099999999997
 20
178.41200000000001
 30
0.0
 11
105.27500000000001
 21
178.41200000000001
 31
0.0
  0
LINE
  5
1A6
  8
0
 62
     7
 10
106.328
 20
220.45099999999999
 30
0.0
 11
118.518
 21
220.45099999999999
 31
0.0
  0
LINE
  5
1A7
  8
0
 62
     7
 10
86.622500000000002
 20
125.432
 30
0.0
 11
94.011200000000002
 21
125.432
 31
0.0
  0
LINE
  5
1A8
  8
0
 62
     7
 10
105.413
 20
191.95099999999999
 30
0.0
 11
118.518
 21
191.95099999999999
 31
0.0
  0
LINE
  5
1A9
  8
0
 62
     7
 10
107.47499999999999
 20
118.432
 30
0.0
 11
116.309
 21
118.432
 31
0.0
  0
LINE
  5
1AA
  8
0
 62
     7
 10
107.47499999999999
 20
131.43199999999999
 30
0.0
 11
122.96299999999999
 21
131.43199999999999
 31
0.0
  0
LINE
  5
1AB
  8
0
 62
     7
 10
105.413
 20
190.45099999999999
 30
0.0
 11
128.78299999999999
 21
190.45099999999999
 31
0.0
  0
LINE
  5
1AC
  8
0
 62
     7
 10
36.2742
 20
190.45099999999999
 30
0.0
 11
102.27500000000001
 21
190.45099999999999
 31
0.0
  0
ARC
  5
1AD
  8
0
 62
     7
 10
102.275109
 20
194.95083199999999
 30
0.0
 40
4.5000989999999987
 50
269.99892299999999
 51
359.99889300000001
  0
ARC
  5
1AE
  8
0
 62
     7
 10
36.274157000000002
 20
227.95100600000001
 30
0.0
 40
4.500013
 50
90.0
 51
179.99996999999999
  0
ARC
  5
1AF
  8
0
 62
     7
 10
102.275109
 20
227.95092
 30
0.0
 40
4.5000989999999987
 50
0.001107
 51
90.001076999999995
  0
ARC
  5
1B0
  8
0
 62
     7
 10
36.274155999999998
 20
194.95074500000001
 30
0.0
 40
4.5000109999999989
 50
179.99996999999999
 51
270.00002000000001
  0
TEXT
  5
1B1
  8
_________2
 62
     7
 10
72.724699999999999
 20
34.7378
 30
0.0
 40
3.6545800000000002
  1
18.02.20
 41
0.5
  0
TEXT
  5
1B2
  8
_________2
 62
     7
 10
29.525700000000001
 20
22.2272
 30
0.0
 40
3.9357000000000002
  1
実容量：7.7L、重量23.5kg、オーバーフロー付
 41
0.5
  0
LINE
  5
1B3
  8
_________2
 62
     7
 10
105.239
 20
17.4285
 30
0.0
 11
105.239
 21
0.4485540000000001
 31
0.0
  0
LINE
  5
1B4
  8
_________2
 62
     7
 10
81.679900000000004
 20
51.324300000000001
 30
0.0
 11
79.493700000000004
 21
51.324300000000001
 31
0.0
  0
LINE
  5
1B5
  8
_________2
 62
     7
 10
82.172600000000017
 20
51.324300000000001
 30
0.0
 11
81.920400000000001
 21
51.324300000000001
 31
0.0
  0
LINE
  5
1B6
  8
_________2
 62
     7
 10
82.665199999999984
 20
51.324300000000001
 30
0.0
 11
85.590100000000007
 21
51.324300000000001
 31
0.0
  0
LINE
  5
1B7
  8
_________2
 62
     7
 10
82.172600000000017
 20
51.324300000000001
 30
0.0
 11
82.424800000000005
 21
51.324300000000001
 31
0.0
  0
LINE
  5
1B8
  8
_________2
 62
     7
 10
75.776399999999995
 20
51.324300000000001
 30
0.0
 11
73.589399999999998
 21
51.324300000000001
 31
0.0
  0
LINE
  5
1B9
  8
_________2
 62
     7
 10
76.2684
 20
51.324300000000001
 30
0.0
 11
76.016900000000007
 21
51.324300000000001
 31
0.0
  0
LINE
  5
1BA
  8
_________2
 62
     7
 10
76.2684
 20
51.817
 30
0.0
 11
76.2684
 21
54.003900000000002
 31
0.0
  0
LINE
  5
1BB
  8
_________2
 62
     7
 10
76.2684
 20
51.324300000000001
 30
0.0
 11
76.2684
 21
51.576900000000002
 31
0.0
  0
LINE
  5
1BC
  8
_________2
 62
     7
 10
76.76100000000001
 20
51.324300000000001
 30
0.0
 11
78.947999999999993
 21
51.324300000000001
 31
0.0
  0
LINE
  5
1BD
  8
_________2
 62
     7
 10
76.2684
 20
51.324300000000001
 30
0.0
 11
76.520499999999998
 21
51.324300000000001
 31
0.0
  0
LINE
  5
1BE
  8
_________2
 62
     7
 10
76.2684
 20
50.832399999999993
 30
0.0
 11
76.2684
 21
48.645699999999998
 31
0.0
  0
LINE
  5
1BF
  8
_________2
 62
     7
 10
76.2684
 20
51.324300000000001
 30
0.0
 11
76.2684
 21
51.072800000000001
 31
0.0
  0
LINE
  5
1C0
  8
_________2
 62
     7
 10
79.979399999999984
 20
50.104799999999997
 30
0.0
 11
85.157399999999996
 21
49.240000000000002
 31
0.0
  0
LINE
  5
1C1
  8
_________2
 62
     7
 10
79.979399999999984
 20
52.544199999999989
 30
0.0
 11
85.157399999999996
 21
53.409700000000001
 31
0.0
  0
LINE
  5
1C2
  8
_________2
 62
     7
 10
85.157399999999996
 20
49.240000000000002
 30
0.0
 11
85.157399999999996
 21
53.409700000000001
 31
0.0
  0
LINE
  5
1C3
  8
_________2
 62
     7
 10
79.979399999999984
 20
50.104799999999997
 30
0.0
 11
79.979399999999984
 21
52.544199999999989
 31
0.0
  0
ARC
  5
1C4
  8
_________2
 62
     7
 10
76.221766000000002
 20
51.277380999999998
 30
0.0
 40
1.267714
 50
2.1220840000000001
 51
87.894083999999992
  0
ARC
  5
1C5
  8
_________2
 62
     7
 10
76.315297000000001
 20
51.277734999999993
 30
0.0
 40
1.267374999999999
 50
92.122849999999985
 51
177.893304
  0
ARC
  5
1C6
  8
_________2
 62
     7
 10
76.315273000000005
 20
51.371245999999992
 30
0.0
 40
1.267363
 50
182.121815
 51
267.87821400000001
  0
ARC
  5
1C7
  8
_________2
 62
     7
 10
76.221461000000005
 20
51.371928999999987
 30
0.0
 40
1.2680439999999991
 50
272.11916400000001
 51
357.84848499999998
  0
ARC
  5
1C8
  8
_________2
 62
     7
 10
76.187981999999991
 20
51.244312999999998
 30
0.0
 40
2.1668310000000002
 50
2.1161439999999989
 51
87.874379000000005
  0
ARC
  5
1C9
  8
_________2
 62
     7
 10
76.348411999999996
 20
51.245334999999997
 30
0.0
 40
2.1657980000000001
 50
92.118487999999999
 51
177.909886
  0
ARC
  5
1CA
  8
_________2
 62
     7
 10
76.348354
 20
51.404327000000002
 30
0.0
 40
2.1657779999999991
 50
182.11700400000001
 51
267.88302499999998
  0
ARC
  5
1CB
  8
_________2
 62
     7
 10
76.188378999999983
 20
51.405009999999997
 30
0.0
 40
2.1664590000000001
 50
272.11546800000002
 51
357.86560400000002
  0
TEXT
  5
1CC
  8
_________2
 62
     7
 10
109.544
 20
23.199100000000001
 30
0.0
 40
3.0923400000000001
  1
図番
 41
0.5
  0
LINE
  5
1CD
  8
_________2
 62
     7
 10
108.489
 20
27.4283
 30
0.0
 11
188.49000000000001
 21
27.4283
 31
0.0
  0
TEXT
  5
1CE
  8
_________2
 62
     7
 10
109.544
 20
33.198900000000002
 30
0.0
 40
3.0923400000000001
  1
品番
 41
0.5
  0
TEXT
  5
1CF
  8
_________2
 62
     7
 10
109.544
 20
53.338000000000001
 30
0.0
 40
3.0923400000000001
  1
名称
 41
0.5
  0
TEXT
  5
1D0
  8
_________2
 62
     7
 10
96.784058333333334
 20
48.341900000000003
 30
0.0
 40
3.6545800000000002
  1
mm
 41
0.5
 72
     1
 11
98.306799999999996
 21
48.341900000000003
 31
0.0
  0
TEXT
  5
1D1
  8
_________2
 62
     7
 10
90.582099999999997
 20
53.338000000000001
 30
0.0
 40
3.0923400000000001
  1
単位
 41
0.5
  0
TEXT
  5
1D2
  8
_________2
 62
     7
 10
90.582099999999997
 20
40.930399999999999
 30
0.0
 40
3.0923400000000001
  1
尺度
 41
0.5
  0
TEXT
  5
1D3
  8
_________2
 62
     7
 10
95.030836166666674
 20
34.7378
 30
0.0
 40
3.6545800000000002
  1
1 ： 10
 41
0.5
 72
     1
 11
98.898600000000002
 21
34.7378
 31
0.0
  0
TEXT
  5
1D4
  8
_________2
 62
     7
 10
142.58545000000001
 20
30.627800000000001
 30
0.0
 40
3.9357000000000002
  1
FLMW75
 41
0.5
 72
     1
 11
148.489
 21
30.627800000000001
 31
0.0
  0
TEXT
  5
1D5
  8
_________2
 62
     7
 10
142.58545000000001
 20
20.626999999999999
 30
0.0
 40
3.9357000000000002
  1
FLMW75
 41
0.5
 72
     1
 11
148.489
 21
20.626999999999999
 31
0.0
  0
TEXT
  5
1D6
  8
_________2
 62
     7
 10
114.11799999999999
 20
45.745600000000003
 30
0.0
 40
3.9357000000000002
  1
ミニウォッシュ 洗面器
 41
0.5
  0
TEXT
  5
1D7
  8
_________2
 62
     7
 10
44.303290666666669
 20
35.123000000000012
 30
0.0
 40
3.6545800000000002
  1
篠崎
 41
0.5
 72
     1
 11
46.252400000000002
 21
35.123000000000012
 31
0.0
  0
TEXT
  5
1D8
  8
_________2
 62
     7
 10
25.729290666666671
 20
35.123000000000012
 30
0.0
 40
3.6545800000000002
  1
木場
 41
0.5
 72
     1
 11
27.6784
 21
35.123000000000012
 31
0.0
  0
TEXT
  5
1D9
  8
_________2
 62
     7
 10
71.531999999999996
 20
40.930399999999999
 30
0.0
 40
3.0923400000000001
  1
日付
 41
0.5
  0
TEXT
  5
1DA
  8
_________2
 62
     7
 10
34.578299999999999
 20
40.930399999999999
 30
0.0
 40
3.0923400000000001
  1
検図
 41
0.5
  0
TEXT
  5
1DB
  8
_________2
 62
     7
 10
22.9602
 20
26.731000000000002
 30
0.0
 40
3.0923400000000001
  1
備考
 41
0.5
  0
TEXT
  5
1DC
  8
_________2
 62
     7
 10
22.9602
 20
40.930399999999999
 30
0.0
 40
3.0923400000000001
  1
製図
 41
0.5
  0
TEXT
  5
1DD
  8
_________2
 62
     7
 10
28.727365333333339
 20
49.456400000000002
 30
0.0
 40
4.4979399999999989
  1
セラトレーディング株式会社
 41
0.5
 72
     1
 11
46.119399999999992
 21
49.456400000000002
 31
0.0
  0
LINE
  5
1DE
  8
_________2
 62
     7
 10
188.49000000000001
 20
17.4285
 30
0.0
 11
21.988499999999998
 21
17.4285
 31
0.0
  0
LINE
  5
1DF
  8
_________2
 62
     7
 10
21.988499999999998
 20
17.4285
 30
0.0
 11
21.988499999999998
 21
280.43000000000001
 31
0.0
  0
LINE
  5
1E0
  8
_________2
 62
     7
 10
21.988499999999998
 20
280.43000000000001
 30
0.0
 11
188.49000000000001
 21
280.43000000000001
 31
0.0
  0
LINE
  5
1E1
  8
_________2
 62
     7
 10
188.49000000000001
 20
280.43000000000001
 30
0.0
 11
188.49000000000001
 21
17.4285
 31
0.0
  0
LINE
  5
1E2
  8
_________2
 62
     7
 10
70.488799999999998
 20
30.928899999999999
 30
0.0
 11
70.488799999999998
 21
57.428699999999992
 31
0.0
  0
LINE
  5
1E3
  8
_________2
 62
     7
 10
89.488600000000005
 20
30.928899999999999
 30
0.0
 11
89.488600000000005
 21
57.428699999999992
 31
0.0
  0
LINE
  5
1E4
  8
_________2
 62
     7
 10
108.489
 20
17.4285
 30
0.0
 11
108.489
 21
57.428699999999992
 31
0.0
  0
LINE
  5
1E5
  8
_________2
 62
     7
 10
33.488300000000002
 20
30.928899999999999
 30
0.0
 11
33.488300000000002
 21
44.928800000000003
 31
0.0
  0
LINE
  5
1E6
  8
_________2
 62
     7
 10
21.988499999999998
 20
30.928899999999999
 30
0.0
 11
108.489
 21
30.928899999999999
 31
0.0
  0
LINE
  5
1E7
  8
_________2
 62
     7
 10
21.988499999999998
 20
44.928800000000003
 30
0.0
 11
108.489
 21
44.928800000000003
 31
0.0
  0
LINE
  5
1E8
  8
_________2
 62
     7
 10
108.489
 20
37.428100000000001
 30
0.0
 11
188.49000000000001
 21
37.428100000000001
 31
0.0
  0
LINE
  5
1E9
  8
_________2
 62
     7
 10
21.988499999999998
 20
57.428699999999992
 30
0.0
 11
188.49000000000001
 21
57.428699999999992
 31
0.0
  0
LINE
  5
1EA
  8
_________2
 62
     7
 10
210.24000000000001
 20
148.93100000000001
 30
0.0
 11
188.489
 21
148.93100000000001
 31
0.0
  0
LINE
  5
1EB
  8
_________2
 62
     7
 10
105.239
 20
297.45100000000002
 30
0.0
 11
105.239
 21
280.43000000000001
 31
0.0
  0
LINE
  5
1EC
  8
_________2
 62
     7
 10
21.988499999999998
 20
148.93100000000001
 30
0.0
 11
0.238402
 21
148.93100000000001
 31
0.0
  0
ENDSEC
  0
EOF
