  0
SECTION
  2
HEADER
  9
$ACADVER
  1
AC1009
  9
$INSBASE
 10
0.0
 20
0.0
 30
0.0
  9
$EXTMIN
 10
0.238058
 20
0.4482100000000001
 30
0.0
  9
$EXTMAX
 10
210.24000000000001
 20
297.44999999999987
 30
0.0
  9
$LIMMIN
 10
0.0
 20
0.0
  9
$LIMMAX
 10
12.0
 20
9.0
  9
$ORTHOMODE
 70
     0
  9
$REGENMODE
 70
     1
  9
$FILLMODE
 70
     1
  9
$QTEXTMODE
 70
     0
  9
$MIRRTEXT
 70
     1
  9
$DRAGMODE
 70
     2
  9
$LTSCALE
 40
1.0
  9
$OSMODE
 70
    37
  9
$ATTMODE
 70
     1
  9
$TEXTSIZE
 40
0.0
  9
$TRACEWID
 40
0.05
  9
$TEXTSTYLE
  7
STANDARD
  9
$CLAYER
  8
0
  9
$CELTYPE
  6
CONTINUOUS
  9
$CECOLOR
 62
   256
  9
$DIMSCALE
 40
1.0
  9
$DIMASZ
 40
0.18
  9
$DIMEXO
 40
0.0625
  9
$DIMDLI
 40
0.38
  9
$DIMRND
 40
0.0
  9
$DIMDLE
 40
0.0
  9
$DIMEXE
 40
0.18
  9
$DIMTP
 40
0.0
  9
$DIMTM
 40
0.0
  9
$DIMTXT
 40
0.18
  9
$DIMCEN
 40
0.09
  9
$DIMTSZ
 40
0.0
  9
$DIMTOL
 70
     0
  9
$DIMLIM
 70
     0
  9
$DIMTIH
 70
     1
  9
$DIMTOH
 70
     1
  9
$DIMSE1
 70
     0
  9
$DIMSE2
 70
     0
  9
$DIMTAD
 70
     0
  9
$DIMZIN
 70
     0
  9
$DIMBLK
  1

  9
$DIMASO
 70
     1
  9
$DIMSHO
 70
     1
  9
$DIMPOST
  1

  9
$DIMAPOST
  1

  9
$DIMALT
 70
     0
  9
$DIMALTD
 70
     2
  9
$DIMALTF
 40
25.399999999999999
  9
$DIMLFAC
 40
1.0
  9
$DIMTOFL
 70
     0
  9
$DIMTVP
 40
0.0
  9
$DIMTIX
 70
     0
  9
$DIMSOXD
 70
     0
  9
$DIMSAH
 70
     0
  9
$DIMBLK1
  1

  9
$DIMBLK2
  1

  9
$DIMSTYLE
  2
STANDARD
  9
$DIMCLRD
 70
     0
  9
$DIMCLRE
 70
     0
  9
$DIMCLRT
 70
     0
  9
$DIMTFAC
 40
1.0
  9
$DIMGAP
 40
0.09
  9
$LUNITS
 70
     2
  9
$LUPREC
 70
     4
  9
$SKETCHINC
 40
0.1
  9
$FILLETRAD
 40
0.0
  9
$AUNITS
 70
     0
  9
$AUPREC
 70
     0
  9
$MENU
  1
.
  9
$ELEVATION
 40
0.0
  9
$PELEVATION
 40
0.0
  9
$THICKNESS
 40
0.0
  9
$LIMCHECK
 70
     0
  9
$BLIPMODE
 70
     0
  9
$CHAMFERA
 40
0.0
  9
$CHAMFERB
 40
0.0
  9
$SKPOLY
 70
     0
  9
$TDCREATE
 40
2444972.375
  9
$TDUPDATE
 40
2454035.2555108792
  9
$TDINDWG
 40
0.0004872917
  9
$TDUSRTIMER
 40
0.0004872917
  9
$USRTIMER
 70
     1
  9
$ANGBASE
 50
0.0
  9
$ANGDIR
 70
     0
  9
$PDMODE
 70
     0
  9
$PDSIZE
 40
0.0
  9
$PLINEWID
 40
0.0
  9
$COORDS
 70
     1
  9
$SPLFRAME
 70
     0
  9
$SPLINETYPE
 70
     6
  9
$SPLINESEGS
 70
     8
  9
$ATTDIA
 70
     0
  9
$ATTREQ
 70
     1
  9
$HANDLING
 70
     1
  9
$HANDSEED
  5
119
  9
$SURFTAB1
 70
     6
  9
$SURFTAB2
 70
     6
  9
$SURFTYPE
 70
     6
  9
$SURFU
 70
     6
  9
$SURFV
 70
     6
  9
$UCSNAME
  2

  9
$UCSORG
 10
0.0
 20
0.0
 30
0.0
  9
$UCSXDIR
 10
1.0
 20
0.0
 30
0.0
  9
$UCSYDIR
 10
0.0
 20
1.0
 30
0.0
  9
$PUCSNAME
  2

  9
$PUCSORG
 10
0.0
 20
0.0
 30
0.0
  9
$PUCSXDIR
 10
1.0
 20
0.0
 30
0.0
  9
$PUCSYDIR
 10
0.0
 20
1.0
 30
0.0
  9
$USERI1
 70
     0
  9
$USERI2
 70
     0
  9
$USERI3
 70
     0
  9
$USERI4
 70
     0
  9
$USERI5
 70
     0
  9
$USERR1
 40
0.0
  9
$USERR2
 40
0.0
  9
$USERR3
 40
0.0
  9
$USERR4
 40
0.0
  9
$USERR5
 40
0.0
  9
$WORLDVIEW
 70
     1
  9
$SHADEDGE
 70
     3
  9
$SHADEDIF
 70
    70
  9
$TILEMODE
 70
     1
  9
$MAXACTVP
 70
    48
  9
$PLIMCHECK
 70
     0
  9
$PEXTMIN
 10
1.0000000000000000E+020
 20
1.0000000000000000E+020
 30
1.0000000000000000E+020
  9
$PEXTMAX
 10
-1.0000000000000000E+020
 20
-1.0000000000000000E+020
 30
-1.0000000000000000E+020
  9
$PLIMMIN
 10
0.0
 20
0.0
  9
$PLIMMAX
 10
12.0
 20
9.0
  9
$UNITMODE
 70
     0
  9
$VISRETAIN
 70
     1
  9
$PLINEGEN
 70
     0
  9
$PSLTSCALE
 70
     1
  0
ENDSEC
  0
SECTION
  2
TABLES
  0
TABLE
  2
VPORT
 70
     2
  0
VPORT
  2
*ACTIVE
 70
     0
 10
0.0
 20
0.0
 11
1.0
 21
1.0
 12
268.01523012823418
 22
172.34289150493979
 13
0.0
 23
0.0
 14
1.0
 24
1.0
 15
0.0
 25
0.0
 16
0.0
 26
0.0
 36
1.0
 17
0.0
 27
0.0
 37
0.0
 40
347.56789743938748
 41
2.1842105263157889
 42
50.0
 43
0.0
 44
0.0
 50
0.0
 51
0.0
 71
     0
 72
   100
 73
     1
 74
     1
 75
     0
 76
     0
 77
     0
 78
     0
  0
ENDTAB
  0
TABLE
  2
LTYPE
 70
     3
  0
LTYPE
  2
CONTINUOUS
 70
     0
  3
Solid line
 72
    65
 73
     0
 40
0.0
  0
LTYPE
  2
AIGENLINE001
 70
     0
  3
generate AI->DXF Converter
 72
    65
 73
     2
 40
1.5522299999999991
 49
0.776115
 49
-0.776115
  0
LTYPE
  2
AIGENLINE002
 70
     0
  3
generate AI->DXF Converter
 72
    65
 73
     4
 40
5.8561449999999988
 49
3.5278
 49
-0.776115
 49
0.776115
 49
-0.776115
  0
ENDTAB
  0
TABLE
  2
LAYER
 70
     2
  0
LAYER
  2
0
 70
     0
 62
     7
  6
CONTINUOUS
  0
LAYER
  2
_________2
 70
     0
 62
     7
  6
CONTINUOUS
  0
ENDTAB
  0
TABLE
  2
STYLE
 70
     1
  0
STYLE
  2
STANDARD
 70
     0
 40
0.0
 41
0.0
 50
0.0
 71
     0
 42
0.0
  3
TXT
  4
EXTFONT.SHX
  0
ENDTAB
  0
TABLE
  2
VIEW
 70
     0
  0
ENDTAB
  0
TABLE
  2
UCS
 70
     0
  0
ENDTAB
  0
TABLE
  2
APPID
 70
     1
  0
APPID
  2
ACAD
 70
     0
  0
ENDTAB
  0
TABLE
  2
DIMSTYLE
 70
     1
  0
DIMSTYLE
  2
STANDARD
 70
     0
  3

  4

  5

  6

  7

 40
1.0
 41
0.18
 42
0.0625
 43
0.38
 44
0.18
 45
0.0
 46
0.0
 47
0.0
 48
0.0
140
0.18
141
0.09
142
0.0
143
25.399999999999999
144
1.0
145
0.0
146
1.0
147
0.09
 71
     0
 72
     0
 73
     1
 74
     1
 75
     0
 76
     0
 77
     0
 78
     0
170
     0
171
     2
172
     0
173
     0
174
     0
175
     0
176
     0
177
     0
178
     0
  0
ENDTAB
  0
ENDSEC
  0
SECTION
  2
BLOCKS
  0
BLOCK
  8
0
  2
$MODEL_SPACE
 70
     0
 10
0.0
 20
0.0
 30
0.0
  3
$MODEL_SPACE
  1

  0
ENDBLK
  5
1A
  8
0
  0
BLOCK
 67
     1
  8
0
  2
$PAPER_SPACE
 70
     0
 10
0.0
 20
0.0
 30
0.0
  3
$PAPER_SPACE
  1

  0
ENDBLK
  5
17
 67
     1
  8
0
  0
ENDSEC
  0
SECTION
  2
ENTITIES
  0
TEXT
  5
23
  8
0
 62
     7
 10
154.66389749999999
 20
188.20500000000001
 30
0.0
 40
3.0923400000000001
  1
%%c120
 41
0.5
 72
     1
 11
157.11199999999999
 21
188.20500000000001
 31
0.0
  0
TEXT
  5
24
  8
0
 62
     7
 10
74.287940000000006
 20
189.273
 30
0.0
 40
3.0923400000000001
  1
%%c45
 41
0.5
 72
     1
 11
76.349500000000006
 21
189.273
 31
0.0
  0
TEXT
  5
25
  8
0
 62
     7
 10
136.4177599999999
 20
179.36799999999991
 30
0.0
 40
3.0923400000000001
  1
カウンター切込寸法
 41
0.5
 72
     1
 11
144.6639999999999
 21
179.36799999999991
 31
0.0
  0
TEXT
  5
26
  8
0
 62
     7
 10
64.789734999999993
 20
158.17599999999999
 30
0.0
 40
3.0923400000000001
  1
400
 41
0.5
 72
     1
 11
66.593599999999995
 21
158.17599999999999
 31
0.0
  0
TEXT
  5
27
  8
0
 62
     7
 10
64.660887500000001
 20
165.65700000000001
 30
0.0
 40
3.0923400000000001
  1
370
 41
0.5
 72
     1
 11
66.593599999999995
 21
165.65700000000001
 31
0.0
  0
TEXT
  5
28
  8
0
 62
     7
 10
141.917
 20
120.5878299999999
 30
0.0
 40
3.0923400000000001
  1
115
 50
90.0
 41
0.5
 72
     1
 11
141.917
 21
122.134
 31
0.0
  0
TEXT
  5
29
  8
0
 62
     7
 10
103.8089999999999
 20
119.4759825
 30
0.0
 40
3.0923400000000001
  1
140
 50
90.0
 41
0.5
 72
     1
 11
103.8089999999999
 21
121.151
 31
0.0
  0
TEXT
  5
2A
  8
0
 62
     7
 10
94.998199999999997
 20
119.9629824999999
 30
0.0
 40
3.0923400000000001
  1
130
 50
90.0
 41
0.5
 72
     1
 11
94.998199999999997
 21
121.63800000000001
 31
0.0
  0
TEXT
  5
2B
  8
0
 62
     7
 10
103.8089999999999
 20
192.863135
 30
0.0
 40
3.0923400000000001
  1
400
 50
90.0
 41
0.5
 72
     1
 11
103.8089999999999
 21
194.667
 31
0.0
  0
TEXT
  5
2C
  8
0
 62
     7
 10
94.998199999999997
 20
192.73428749999991
 30
0.0
 40
3.0923400000000001
  1
370
 50
90.0
 41
0.5
 72
     1
 11
94.998199999999997
 21
194.667
 31
0.0
  0
LINE
  5
2D
  8
0
  6
AIGENLINE001
 62
     7
 10
148.56399999999991
 20
116.627
 30
0.0
 11
146.9139999999999
 21
115.627
 31
0.0
  0
LINE
  5
2E
  8
0
  6
AIGENLINE001
 62
     7
 10
142.4139999999999
 20
115.627
 30
0.0
 11
140.76400000000001
 21
116.627
 31
0.0
  0
LINE
  5
2F
  8
0
 62
     7
 10
143.524
 20
125.916
 30
0.0
 11
142.93100000000001
 21
128.12700000000001
 31
0.0
  0
LINE
  5
30
  8
0
 62
     7
 10
142.93100000000001
 20
128.12700000000001
 30
0.0
 11
142.33899999999991
 21
125.916
 31
0.0
  0
LINE
  5
31
  8
0
 62
     7
 10
142.33899999999991
 20
125.916
 30
0.0
 11
143.524
 21
125.916
 31
0.0
  0
LINE
  5
32
  8
0
 62
     7
 10
142.3539999999999
 20
118.83799999999989
 30
0.0
 11
142.94499999999991
 21
116.627
 31
0.0
  0
LINE
  5
33
  8
0
 62
     7
 10
142.94499999999991
 20
116.627
 30
0.0
 11
143.5379999999999
 21
118.83799999999989
 31
0.0
  0
LINE
  5
34
  8
0
 62
     7
 10
143.5379999999999
 20
118.83799999999989
 30
0.0
 11
142.3539999999999
 21
118.83799999999989
 31
0.0
  0
LINE
  5
35
  8
0
 62
     7
 10
142.93899999999991
 20
128.12700000000001
 30
0.0
 11
142.93899999999991
 21
116.627
 31
0.0
  0
LINE
  5
36
  8
0
  6
AIGENLINE001
 62
     7
 10
162.70599999999999
 20
118.327
 30
0.0
 11
163.142
 21
127.65000000000001
 31
0.0
  0
ARC
  5
37
  8
0
  6
AIGENLINE001
 62
     7
 10
163.65845999999999
 20
127.609385
 30
0.0
 40
0.517921
 50
91.931526000000005
 51
175.47924499999999
  0
LINE
  5
38
  8
0
  6
AIGENLINE001
 62
     7
 10
161.76400000000001
 20
117.376
 30
0.0
 11
148.56399999999991
 21
116.627
 31
0.0
  0
ARC
  5
39
  8
0
  6
AIGENLINE001
 62
     7
 10
161.67463100000001
 20
118.40634299999989
 30
0.0
 40
1.034386
 50
274.96216600000002
 51
355.62163900000002
  0
LINE
  5
3A
  8
0
  6
AIGENLINE001
 62
     7
 10
126.622
 20
118.327
 30
0.0
 11
126.18600000000001
 21
127.65000000000001
 31
0.0
  0
LINE
  5
3B
  8
0
 62
     7
 10
125.687
 20
128.12700000000001
 30
0.0
 11
164.16399999999999
 21
128.12700000000001
 31
0.0
  0
LINE
  5
3C
  8
0
 62
     7
 10
125.164
 20
128.12700000000001
 30
0.0
 11
125.687
 21
128.12700000000001
 31
0.0
  0
ARC
  5
3D
  8
0
  6
AIGENLINE001
 62
     7
 10
125.669431
 20
127.608694
 30
0.0
 40
0.51861
 50
4.5913059999999994
 51
88.076882999999995
  0
LINE
  5
3E
  8
0
  6
AIGENLINE001
 62
     7
 10
127.56399999999989
 20
117.376
 30
0.0
 11
140.76400000000001
 21
116.627
 31
0.0
  0
ARC
  5
3F
  8
0
  6
AIGENLINE001
 62
     7
 10
127.6543629999999
 20
118.40755299999999
 30
0.0
 40
1.035631999999999
 50
184.440235
 51
265.017897
  0
LINE
  5
40
  8
0
  6
AIGENLINE001
 62
     7
 10
142.4139999999999
 20
115.627
 30
0.0
 11
142.4139999999999
 21
114.127
 31
0.0
  0
LINE
  5
41
  8
0
  6
AIGENLINE001
 62
     7
 10
146.9139999999999
 20
114.127
 30
0.0
 11
146.9139999999999
 21
115.627
 31
0.0
  0
LINE
  5
42
  8
0
  6
AIGENLINE001
 62
     7
 10
140.76400000000001
 20
116.627
 30
0.0
 11
148.56399999999991
 21
116.627
 31
0.0
  0
LINE
  5
43
  8
0
 62
     7
 10
161.363
 20
187.18299999999991
 30
0.0
 11
152.14799999999991
 21
187.18299999999991
 31
0.0
  0
LINE
  5
44
  8
0
 62
     7
 10
150.88900000000001
 20
189.28
 30
0.0
 11
148.90700000000001
 21
190.42400000000001
 31
0.0
  0
LINE
  5
45
  8
0
 62
     7
 10
148.90700000000001
 20
190.42400000000001
 30
0.0
 11
150.05099999999999
 21
188.44200000000001
 31
0.0
  0
LINE
  5
46
  8
0
 62
     7
 10
150.05099999999999
 20
188.44200000000001
 30
0.0
 11
150.88900000000001
 21
189.28
 31
0.0
  0
LINE
  5
47
  8
0
 62
     7
 10
138.44
 20
200.05399999999989
 30
0.0
 11
140.422
 21
198.91
 31
0.0
  0
LINE
  5
48
  8
0
 62
     7
 10
140.422
 20
198.91
 30
0.0
 11
139.27799999999991
 21
200.89199999999991
 31
0.0
  0
LINE
  5
49
  8
0
 62
     7
 10
139.27799999999991
 20
200.89199999999991
 30
0.0
 11
138.44
 21
200.05399999999989
 31
0.0
  0
LINE
  5
4A
  8
0
 62
     7
 10
137.48199999999991
 20
201.84899999999999
 30
0.0
 11
152.14799999999991
 21
187.18299999999991
 31
0.0
  0
LINE
  5
4B
  8
0
  6
AIGENLINE002
 62
     7
 10
144.6639999999999
 20
186.09599999999989
 30
0.0
 11
144.6639999999999
 21
203.09699999999989
 31
0.0
  0
ARC
  5
4C
  8
0
 62
     7
 10
144.663918
 20
194.666695
 30
0.0
 40
6.0000169999999988
 50
0.00001
 51
89.999980000000008
  0
ARC
  5
4D
  8
0
 62
     7
 10
144.66391999999991
 20
194.666695
 30
0.0
 40
6.0000169999999988
 50
90.0
 51
179.99996999999991
  0
ARC
  5
4E
  8
0
 62
     7
 10
144.663918
 20
194.666695
 30
0.0
 40
6.0000150000000003
 50
179.99996999999991
 51
270.00002000000001
  0
ARC
  5
4F
  8
0
 62
     7
 10
144.663918
 20
194.666697
 30
0.0
 40
6.0000169999999988
 50
270.00002000000001
 51
359.99998999999991
  0
LINE
  5
50
  8
0
  6
AIGENLINE002
 62
     7
 10
135.78100000000001
 20
194.667
 30
0.0
 11
153.232
 21
194.667
 31
0.0
  0
LINE
  5
51
  8
0
 62
     7
 10
148.4139999999999
 20
114.627
 30
0.0
 11
148.4139999999999
 21
115.127
 31
0.0
  0
LINE
  5
52
  8
0
 62
     7
 10
141.4139999999999
 20
114.127
 30
0.0
 11
147.9139999999999
 21
114.127
 31
0.0
  0
ARC
  5
53
  8
0
 62
     7
 10
147.91404299999991
 20
114.626975
 30
0.0
 40
0.5002310000000002
 50
270.00002000000001
 51
359.99998999999991
  0
LINE
  5
54
  8
0
 62
     7
 10
140.9139999999999
 20
114.627
 30
0.0
 11
140.9139999999999
 21
115.127
 31
0.0
  0
ARC
  5
55
  8
0
 62
     7
 10
141.43350699999999
 20
114.645971
 30
0.0
 40
0.519601
 50
182.09513999999999
 51
267.82591600000001
  0
LINE
  5
56
  8
0
 62
     7
 10
164.66399999999999
 20
115.627
 30
0.0
 11
164.66399999999999
 21
127.627
 31
0.0
  0
LINE
  5
57
  8
0
 62
     7
 10
125.164
 20
115.127
 30
0.0
 11
164.16399999999999
 21
115.127
 31
0.0
  0
ARC
  5
58
  8
0
 62
     7
 10
164.14530300000001
 20
115.6457749999999
 30
0.0
 40
0.519249
 50
272.060474
 51
357.90006299999988
  0
ARC
  5
59
  8
0
 62
     7
 10
164.163972
 20
127.62678099999999
 30
0.0
 40
0.5002310000000002
 50
0.00001
 51
89.999980000000008
  0
LINE
  5
5A
  8
0
 62
     7
 10
124.6639999999999
 20
115.627
 30
0.0
 11
124.6639999999999
 21
127.627
 31
0.0
  0
ARC
  5
5B
  8
0
 62
     7
 10
125.1825699999999
 20
115.64581
 30
0.0
 40
0.519285
 50
182.10367600000001
 51
267.9358279999999
  0
ARC
  5
5C
  8
0
 62
     7
 10
125.1638659999999
 20
127.62678099999999
 30
0.0
 40
0.5002310000000002
 50
90.0
 51
179.99996999999991
  0
LINE
  5
5D
  8
0
  6
AIGENLINE002
 62
     7
 10
144.6639999999999
 20
112.114
 30
0.0
 11
144.6639999999999
 21
130.70099999999999
 31
0.0
  0
LINE
  5
5E
  8
0
 62
     7
 10
105.2049999999999
 20
125.916
 30
0.0
 11
104.613
 21
128.12700000000001
 31
0.0
  0
LINE
  5
5F
  8
0
 62
     7
 10
104.613
 20
128.12700000000001
 30
0.0
 11
104.021
 21
125.916
 31
0.0
  0
LINE
  5
60
  8
0
 62
     7
 10
104.021
 20
125.916
 30
0.0
 11
105.2049999999999
 21
125.916
 31
0.0
  0
LINE
  5
61
  8
0
 62
     7
 10
104.0349999999999
 20
116.337
 30
0.0
 11
104.627
 21
114.127
 31
0.0
  0
LINE
  5
62
  8
0
 62
     7
 10
104.627
 20
114.127
 30
0.0
 11
105.22
 21
116.337
 31
0.0
  0
LINE
  5
63
  8
0
 62
     7
 10
105.22
 20
116.337
 30
0.0
 11
104.0349999999999
 21
116.337
 31
0.0
  0
LINE
  5
64
  8
0
 62
     7
 10
104.62
 20
128.12700000000001
 30
0.0
 11
104.62
 21
114.127
 31
0.0
  0
LINE
  5
65
  8
0
 62
     7
 10
95.351399999999998
 20
117.33799999999989
 30
0.0
 11
95.943899999999999
 21
115.127
 31
0.0
  0
LINE
  5
66
  8
0
 62
     7
 10
95.943899999999999
 20
115.127
 30
0.0
 11
96.536100000000005
 21
117.33799999999989
 31
0.0
  0
LINE
  5
67
  8
0
 62
     7
 10
96.536100000000005
 20
117.33799999999989
 30
0.0
 11
95.351399999999998
 21
117.33799999999989
 31
0.0
  0
LINE
  5
68
  8
0
 62
     7
 10
96.521299999999997
 20
125.916
 30
0.0
 11
95.929500000000004
 21
128.12700000000001
 31
0.0
  0
LINE
  5
69
  8
0
 62
     7
 10
95.929500000000004
 20
128.12700000000001
 30
0.0
 11
95.336899999999986
 21
125.916
 31
0.0
  0
LINE
  5
6A
  8
0
 62
     7
 10
95.336899999999986
 20
125.916
 30
0.0
 11
96.521299999999997
 21
125.916
 31
0.0
  0
LINE
  5
6B
  8
0
 62
     7
 10
95.936400000000006
 20
115.127
 30
0.0
 11
95.936400000000006
 21
128.12700000000001
 31
0.0
  0
LINE
  5
6C
  8
0
 62
     7
 10
71.511799999999994
 20
114.127
 30
0.0
 11
105.47799999999999
 21
114.127
 31
0.0
  0
LINE
  5
6D
  8
0
 62
     7
 10
87.681899999999999
 20
115.127
 30
0.0
 11
96.795599999999993
 21
115.127
 31
0.0
  0
LINE
  5
6E
  8
0
 62
     7
 10
87.681899999999999
 20
128.12700000000001
 30
0.0
 11
105.479
 21
128.12700000000001
 31
0.0
  0
LINE
  5
6F
  8
0
 62
     7
 10
79.559600000000003
 20
188.345
 30
0.0
 11
72.9161
 21
188.345
 31
0.0
  0
LINE
  5
70
  8
0
 62
     7
 10
70.166499999999999
 20
191.9309999999999
 30
0.0
 11
68.184600000000003
 21
193.07599999999999
 31
0.0
  0
LINE
  5
71
  8
0
 62
     7
 10
68.184600000000003
 20
193.07599999999999
 30
0.0
 11
69.328999999999994
 21
191.09399999999999
 31
0.0
  0
LINE
  5
72
  8
0
 62
     7
 10
69.328999999999994
 20
191.09399999999999
 30
0.0
 11
70.166499999999999
 21
191.9309999999999
 31
0.0
  0
LINE
  5
73
  8
0
 62
     7
 10
63.026499999999992
 20
197.40700000000001
 30
0.0
 11
65.008200000000002
 21
196.262
 31
0.0
  0
LINE
  5
74
  8
0
 62
     7
 10
65.008200000000002
 20
196.262
 30
0.0
 11
63.863999999999997
 21
198.244
 31
0.0
  0
LINE
  5
75
  8
0
 62
     7
 10
63.863999999999997
 20
198.244
 30
0.0
 11
63.026499999999992
 21
197.40700000000001
 31
0.0
  0
LINE
  5
76
  8
0
 62
     7
 10
60.813400000000001
 20
200.44699999999989
 30
0.0
 11
72.9161
 21
188.345
 31
0.0
  0
LINE
  5
77
  8
0
 62
     7
 10
105.2049999999999
 20
212.4559999999999
 30
0.0
 11
104.613
 21
214.666
 31
0.0
  0
LINE
  5
78
  8
0
 62
     7
 10
104.613
 20
214.666
 30
0.0
 11
104.021
 21
212.4559999999999
 31
0.0
  0
LINE
  5
79
  8
0
 62
     7
 10
104.021
 20
212.4559999999999
 30
0.0
 11
105.2049999999999
 21
212.4559999999999
 31
0.0
  0
LINE
  5
7A
  8
0
 62
     7
 10
104.0349999999999
 20
176.87700000000001
 30
0.0
 11
104.627
 21
174.666
 31
0.0
  0
LINE
  5
7B
  8
0
 62
     7
 10
104.627
 20
174.666
 30
0.0
 11
105.22
 21
176.87700000000001
 31
0.0
  0
LINE
  5
7C
  8
0
 62
     7
 10
105.22
 20
176.87700000000001
 30
0.0
 11
104.0349999999999
 21
176.87700000000001
 31
0.0
  0
LINE
  5
7D
  8
0
 62
     7
 10
104.62
 20
214.66699999999989
 30
0.0
 11
104.62
 21
174.666
 31
0.0
  0
LINE
  5
7E
  8
0
 62
     7
 10
95.351399999999998
 20
178.37700000000001
 30
0.0
 11
95.943899999999999
 21
176.167
 31
0.0
  0
LINE
  5
7F
  8
0
 62
     7
 10
95.943899999999999
 20
176.167
 30
0.0
 11
96.536100000000005
 21
178.37700000000001
 31
0.0
  0
LINE
  5
80
  8
0
 62
     7
 10
96.536100000000005
 20
178.37700000000001
 30
0.0
 11
95.351399999999998
 21
178.37700000000001
 31
0.0
  0
LINE
  5
81
  8
0
 62
     7
 10
96.521299999999997
 20
210.95599999999999
 30
0.0
 11
95.929500000000004
 21
213.166
 31
0.0
  0
LINE
  5
82
  8
0
 62
     7
 10
95.929500000000004
 20
213.166
 30
0.0
 11
95.336899999999986
 21
210.95599999999999
 31
0.0
  0
LINE
  5
83
  8
0
 62
     7
 10
95.336899999999986
 20
210.95599999999999
 30
0.0
 11
96.521299999999997
 21
210.95599999999999
 31
0.0
  0
LINE
  5
84
  8
0
 62
     7
 10
95.936400000000006
 20
176.166
 30
0.0
 11
95.936400000000006
 21
213.167
 31
0.0
  0
LINE
  5
85
  8
0
 62
     7
 10
96.795599999999993
 20
176.166
 30
0.0
 11
87.193299999999994
 21
176.166
 31
0.0
  0
LINE
  5
86
  8
0
 62
     7
 10
96.795599999999993
 20
213.167
 30
0.0
 11
87.193299999999994
 21
213.167
 31
0.0
  0
LINE
  5
87
  8
0
 62
     7
 10
105.47799999999999
 20
214.66699999999989
 30
0.0
 11
86.433300000000003
 21
214.66699999999989
 31
0.0
  0
LINE
  5
88
  8
0
 62
     7
 10
105.47799999999999
 20
174.666
 30
0.0
 11
86.433300000000003
 21
174.666
 31
0.0
  0
LINE
  5
89
  8
0
 62
     7
 10
84.383200000000002
 20
156.613
 30
0.0
 11
86.593900000000005
 21
157.20500000000001
 31
0.0
  0
LINE
  5
8A
  8
0
 62
     7
 10
86.593900000000005
 20
157.20500000000001
 30
0.0
 11
84.383200000000002
 21
157.797
 31
0.0
  0
LINE
  5
8B
  8
0
 62
     7
 10
84.383200000000002
 20
157.797
 30
0.0
 11
84.383200000000002
 21
156.613
 31
0.0
  0
LINE
  5
8C
  8
0
 62
     7
 10
48.803699999999999
 20
157.7829999999999
 30
0.0
 11
46.593299999999992
 21
157.191
 31
0.0
  0
LINE
  5
8D
  8
0
 62
     7
 10
46.593299999999992
 20
157.191
 30
0.0
 11
48.803699999999999
 21
156.5979999999999
 31
0.0
  0
LINE
  5
8E
  8
0
 62
     7
 10
48.803699999999999
 20
156.5979999999999
 30
0.0
 11
48.803699999999999
 21
157.7829999999999
 31
0.0
  0
LINE
  5
8F
  8
0
 62
     7
 10
86.593900000000005
 20
157.19799999999989
 30
0.0
 11
46.593299999999992
 21
157.19799999999989
 31
0.0
  0
LINE
  5
90
  8
0
 62
     7
 10
50.303699999999999
 20
165.21700000000001
 30
0.0
 11
48.093299999999999
 21
164.625
 31
0.0
  0
LINE
  5
91
  8
0
 62
     7
 10
48.093299999999999
 20
164.625
 30
0.0
 11
50.303699999999999
 21
164.0329999999999
 31
0.0
  0
LINE
  5
92
  8
0
 62
     7
 10
50.303699999999999
 20
164.0329999999999
 30
0.0
 11
50.303699999999999
 21
165.21700000000001
 31
0.0
  0
LINE
  5
93
  8
0
 62
     7
 10
82.883099999999999
 20
164.048
 30
0.0
 11
85.093900000000005
 21
164.6399999999999
 31
0.0
  0
LINE
  5
94
  8
0
 62
     7
 10
85.093900000000005
 20
164.6399999999999
 30
0.0
 11
82.883099999999999
 21
165.232
 31
0.0
  0
LINE
  5
95
  8
0
 62
     7
 10
82.883099999999999
 20
165.232
 30
0.0
 11
82.883099999999999
 21
164.048
 31
0.0
  0
LINE
  5
96
  8
0
 62
     7
 10
48.093299999999999
 20
164.6329999999999
 30
0.0
 11
85.093900000000005
 21
164.6329999999999
 31
0.0
  0
LINE
  5
97
  8
0
 62
     7
 10
48.093299999999999
 20
163.869
 30
0.0
 11
48.093299999999999
 21
174.06700000000001
 31
0.0
  0
LINE
  5
98
  8
0
 62
     7
 10
85.093900000000005
 20
163.869
 30
0.0
 11
85.093900000000005
 21
174.06700000000001
 31
0.0
  0
LINE
  5
99
  8
0
 62
     7
 10
86.593900000000005
 20
156.434
 30
0.0
 11
86.593900000000005
 21
174.82699999999991
 31
0.0
  0
LINE
  5
9A
  8
0
 62
     7
 10
46.593299999999992
 20
156.434
 30
0.0
 11
46.593299999999992
 21
174.82699999999991
 31
0.0
  0
LINE
  5
9B
  8
0
 62
     7
 10
70.343999999999994
 20
114.627
 30
0.0
 11
70.343999999999994
 21
115.127
 31
0.0
  0
LINE
  5
9C
  8
0
 62
     7
 10
63.343499999999999
 20
114.127
 30
0.0
 11
69.843699999999998
 21
114.127
 31
0.0
  0
ARC
  5
9D
  8
0
 62
     7
 10
69.843722999999997
 20
114.626975
 30
0.0
 40
0.5002310000000002
 50
270.00002000000001
 51
359.99998999999991
  0
LINE
  5
9E
  8
0
 62
     7
 10
62.843899999999998
 20
114.627
 30
0.0
 11
62.843899999999998
 21
115.127
 31
0.0
  0
ARC
  5
9F
  8
0
 62
     7
 10
63.363188000000001
 20
114.645971
 30
0.0
 40
0.519601
 50
182.09513999999999
 51
267.82591600000001
  0
LINE
  5
A0
  8
0
 62
     7
 10
86.593900000000005
 20
115.627
 30
0.0
 11
86.593900000000005
 21
127.627
 31
0.0
  0
LINE
  5
A1
  8
0
 62
     7
 10
47.093499999999992
 20
115.127
 30
0.0
 11
86.093699999999998
 21
115.127
 31
0.0
  0
ARC
  5
A2
  8
0
 62
     7
 10
86.074989000000016
 20
115.645769
 30
0.0
 40
0.519243
 50
272.05986000000001
 51
357.90067699999997
  0
LINE
  5
A3
  8
0
 62
     7
 10
47.093499999999992
 20
128.12700000000001
 30
0.0
 11
86.093699999999998
 21
128.12700000000001
 31
0.0
  0
ARC
  5
A4
  8
0
 62
     7
 10
86.093653000000003
 20
127.62678099999999
 30
0.0
 40
0.5002310000000002
 50
0.00001
 51
89.999980000000008
  0
LINE
  5
A5
  8
0
 62
     7
 10
46.593299999999992
 20
115.627
 30
0.0
 11
46.593299999999992
 21
127.627
 31
0.0
  0
ARC
  5
A6
  8
0
 62
     7
 10
47.112251000000001
 20
115.64581
 30
0.0
 40
0.519285
 50
182.10367600000001
 51
267.9358279999999
  0
ARC
  5
A7
  8
0
 62
     7
 10
47.093546999999987
 20
127.62678099999999
 30
0.0
 40
0.5002310000000002
 50
90.0
 51
179.99996999999991
  0
LINE
  5
A8
  8
0
  6
AIGENLINE002
 62
     7
 10
66.593599999999995
 20
112.114
 30
0.0
 11
66.593599999999995
 21
130.70099999999999
 31
0.0
  0
ARC
  5
A9
  8
0
 62
     7
 10
66.593772000000001
 20
194.66652300000001
 30
0.0
 40
2.2501790000000002
 50
0.004396
 51
90.004366000000005
  0
ARC
  5
AA
  8
0
 62
     7
 10
66.593772999999999
 20
194.666867
 30
0.0
 40
2.249833999999999
 50
90.004386999999994
 51
180.0043969999999
  0
ARC
  5
AB
  8
0
 62
     7
 10
66.593772000000001
 20
194.66652300000001
 30
0.0
 40
2.2498330000000002
 50
179.99558300000001
 51
269.995633
  0
ARC
  5
AC
  8
0
 62
     7
 10
66.593772000000001
 20
194.66686799999991
 30
0.0
 40
2.2501790000000002
 50
269.99563399999988
 51
359.99560400000001
  0
ARC
  5
AD
  8
0
 62
     7
 10
66.593598999999998
 20
194.666695
 30
0.0
 40
3.8998729999999999
 50
0.00001
 51
89.999980000000008
  0
ARC
  5
AE
  8
0
 62
     7
 10
66.593601000000007
 20
194.666695
 30
0.0
 40
3.8998729999999999
 50
90.0
 51
179.99996999999991
  0
ARC
  5
AF
  8
0
 62
     7
 10
66.593772000000001
 20
194.66652300000001
 30
0.0
 40
3.9000439999999998
 50
179.9974399999999
 51
269.99748899999997
  0
ARC
  5
B0
  8
0
 62
     7
 10
66.593427000000005
 20
194.66652400000001
 30
0.0
 40
3.9000460000000001
 50
270.00254999999993
 51
0.002521
  0
LINE
  5
B1
  8
0
  6
AIGENLINE002
 62
     7
 10
44.132100000000001
 20
194.667
 30
0.0
 11
89.015100000000004
 21
194.667
 31
0.0
  0
LINE
  5
B2
  8
0
  6
AIGENLINE002
 62
     7
 10
66.593599999999995
 20
172.09999999999999
 30
0.0
 11
66.593599999999995
 21
217.41800000000001
 31
0.0
  0
LINE
  5
B3
  8
0
 62
     7
 10
50.593800000000002
 20
213.167
 30
0.0
 11
82.594099999999997
 21
213.167
 31
0.0
  0
LINE
  5
B4
  8
0
 62
     7
 10
48.093299999999999
 20
178.66699999999989
 30
0.0
 11
48.093299999999999
 21
210.667
 31
0.0
  0
ARC
  5
B5
  8
0
 62
     7
 10
50.593441999999989
 20
210.66650899999991
 30
0.0
 40
2.5001220000000002
 50
89.992105000000009
 51
179.992075
  0
LINE
  5
B6
  8
0
 62
     7
 10
85.093900000000005
 20
178.66699999999989
 30
0.0
 11
85.093900000000005
 21
210.667
 31
0.0
  0
ARC
  5
B7
  8
0
 62
     7
 10
82.498296999999994
 20
210.57104799999991
 30
0.0
 40
2.59735
 50
2.1138789999999998
 51
87.886111
  0
LINE
  5
B8
  8
0
 62
     7
 10
50.593800000000002
 20
176.166
 30
0.0
 11
82.594099999999997
 21
176.166
 31
0.0
  0
ARC
  5
B9
  8
0
 62
     7
 10
82.498272999999983
 20
178.76200900000001
 30
0.0
 40
2.5973619999999991
 50
272.11441600000001
 51
357.89348899999987
  0
ARC
  5
BA
  8
0
 62
     7
 10
50.593614000000002
 20
178.66670899999991
 30
0.0
 40
2.5002930000000001
 50
180.00395700000001
 51
270.00396699999988
  0
LINE
  5
BB
  8
0
 62
     7
 10
86.593900000000005
 20
178.66699999999989
 30
0.0
 11
86.593900000000005
 21
210.667
 31
0.0
  0
LINE
  5
BC
  8
0
 62
     7
 10
50.593800000000002
 20
174.666
 30
0.0
 11
82.594099999999997
 21
174.666
 31
0.0
  0
ARC
  5
BD
  8
0
 62
     7
 10
82.593930000000015
 20
178.6663659999999
 30
0.0
 40
3.9999539999999998
 50
270.00248699999997
 51
0.002457
  0
LINE
  5
BE
  8
0
 62
     7
 10
46.593299999999992
 20
178.66699999999989
 30
0.0
 11
46.593299999999992
 21
210.667
 31
0.0
  0
ARC
  5
BF
  8
0
 62
     7
 10
50.593612999999991
 20
178.66670899999991
 30
0.0
 40
4.0002969999999989
 50
180.002477
 51
270.00248699999997
  0
LINE
  5
C0
  8
0
 62
     7
 10
50.593800000000002
 20
214.66699999999989
 30
0.0
 11
82.594099999999997
 21
214.66699999999989
 31
0.0
  0
ARC
  5
C1
  8
0
 62
     7
 10
82.594102000000007
 20
210.66685299999989
 30
0.0
 40
3.9997820000000002
 50
0.00001
 51
89.999980000000008
  0
ARC
  5
C2
  8
0
 62
     7
 10
50.593443000000001
 20
210.66650799999999
 30
0.0
 40
4.000125999999999
 50
89.995064999999997
 51
179.995036
  0
LINE
  5
C3
  8
_________2
 62
     7
 10
210.24000000000001
 20
148.93100000000001
 30
0.0
 11
188.49000000000001
 21
148.93100000000001
 31
0.0
  0
LINE
  5
C4
  8
_________2
 62
     7
 10
105.2389999999999
 20
17.428499999999989
 30
0.0
 11
105.2389999999999
 21
0.4482100000000001
 31
0.0
  0
LINE
  5
C5
  8
_________2
 62
     7
 10
105.2389999999999
 20
297.44999999999987
 30
0.0
 11
105.2389999999999
 21
280.42999999999989
 31
0.0
  0
LINE
  5
C6
  8
_________2
 62
     7
 10
21.988499999999991
 20
148.93100000000001
 30
0.0
 11
0.238058
 21
148.93100000000001
 31
0.0
  0
LINE
  5
C7
  8
_________2
 62
     7
 10
81.679900000000004
 20
51.324300000000001
 30
0.0
 11
79.493700000000004
 21
51.324300000000001
 31
0.0
  0
LINE
  5
C8
  8
_________2
 62
     7
 10
82.172600000000017
 20
51.324300000000001
 30
0.0
 11
81.920400000000001
 21
51.324300000000001
 31
0.0
  0
LINE
  5
C9
  8
_________2
 62
     7
 10
82.665199999999984
 20
51.324300000000001
 30
0.0
 11
85.590100000000007
 21
51.324300000000001
 31
0.0
  0
LINE
  5
CA
  8
_________2
 62
     7
 10
82.172600000000017
 20
51.324300000000001
 30
0.0
 11
82.424800000000005
 21
51.324300000000001
 31
0.0
  0
LINE
  5
CB
  8
_________2
 62
     7
 10
75.776399999999995
 20
51.324300000000001
 30
0.0
 11
73.589399999999998
 21
51.324300000000001
 31
0.0
  0
LINE
  5
CC
  8
_________2
 62
     7
 10
76.2684
 20
51.324300000000001
 30
0.0
 11
76.016900000000007
 21
51.324300000000001
 31
0.0
  0
LINE
  5
CD
  8
_________2
 62
     7
 10
76.2684
 20
51.817
 30
0.0
 11
76.2684
 21
54.003900000000002
 31
0.0
  0
LINE
  5
CE
  8
_________2
 62
     7
 10
76.2684
 20
51.324300000000001
 30
0.0
 11
76.2684
 21
51.576500000000003
 31
0.0
  0
LINE
  5
CF
  8
_________2
 62
     7
 10
76.76100000000001
 20
51.324300000000001
 30
0.0
 11
78.947999999999993
 21
51.324300000000001
 31
0.0
  0
LINE
  5
D0
  8
_________2
 62
     7
 10
76.2684
 20
51.324300000000001
 30
0.0
 11
76.520499999999998
 21
51.324300000000001
 31
0.0
  0
LINE
  5
D1
  8
_________2
 62
     7
 10
76.2684
 20
50.832399999999993
 30
0.0
 11
76.2684
 21
48.645400000000002
 31
0.0
  0
LINE
  5
D2
  8
_________2
 62
     7
 10
76.2684
 20
51.324300000000001
 30
0.0
 11
76.2684
 21
51.072800000000001
 31
0.0
  0
LINE
  5
D3
  8
_________2
 62
     7
 10
79.979399999999984
 20
50.104799999999997
 30
0.0
 11
85.157399999999996
 21
49.240000000000002
 31
0.0
  0
LINE
  5
D4
  8
_________2
 62
     7
 10
79.979399999999984
 20
52.543900000000001
 30
0.0
 11
85.157399999999996
 21
53.409300000000002
 31
0.0
  0
LINE
  5
D5
  8
_________2
 62
     7
 10
85.157399999999996
 20
49.240000000000002
 30
0.0
 11
85.157399999999996
 21
53.409300000000002
 31
0.0
  0
LINE
  5
D6
  8
_________2
 62
     7
 10
79.979399999999984
 20
50.104799999999997
 30
0.0
 11
79.979399999999984
 21
52.543900000000001
 31
0.0
  0
ARC
  5
D7
  8
_________2
 62
     7
 10
76.222110000000001
 20
51.277366999999991
 30
0.0
 40
1.2673709999999989
 50
2.1232950000000002
 51
87.909056000000007
  0
ARC
  5
D8
  8
_________2
 62
     7
 10
76.315273000000005
 20
51.277400999999998
 30
0.0
 40
1.267363
 50
92.121785999999986
 51
177.878185
  0
ARC
  5
D9
  8
_________2
 62
     7
 10
76.315273000000005
 20
51.371245999999992
 30
0.0
 40
1.267363
 50
182.12181499999991
 51
267.87821400000001
  0
ARC
  5
DA
  8
_________2
 62
     7
 10
76.221461000000005
 20
51.371928999999987
 30
0.0
 40
1.2680439999999991
 50
272.11916400000001
 51
357.84848499999993
  0
ARC
  5
DB
  8
_________2
 62
     7
 10
76.268349999999984
 20
51.324323
 30
0.0
 40
2.0849849999999992
 50
0.00001
 51
89.999980000000008
  0
ARC
  5
DC
  8
_________2
 62
     7
 10
76.348388
 20
51.245001999999992
 30
0.0
 40
2.1657860000000002
 50
92.117855000000034
 51
177.90105299999991
  0
ARC
  5
DD
  8
_________2
 62
     7
 10
76.348354
 20
51.404327000000002
 30
0.0
 40
2.1657779999999991
 50
182.11700400000001
 51
267.88302499999992
  0
ARC
  5
DE
  8
_________2
 62
     7
 10
76.188378999999983
 20
51.405009999999997
 30
0.0
 40
2.1664590000000001
 50
272.11546800000002
 51
357.86560400000002
  0
TEXT
  5
DF
  8
_________2
 62
     7
 10
109.5439999999999
 20
23.199100000000001
 30
0.0
 40
3.0923400000000001
  1
図番
 41
0.5
  0
LINE
  5
E0
  8
_________2
 62
     7
 10
108.4889999999999
 20
27.4283
 30
0.0
 11
188.49000000000001
 21
27.4283
 31
0.0
  0
TEXT
  5
E1
  8
_________2
 62
     7
 10
109.5439999999999
 20
33.198900000000002
 30
0.0
 40
3.0923400000000001
  1
品番
 41
0.5
  0
TEXT
  5
E2
  8
_________2
 62
     7
 10
109.5439999999999
 20
53.337699999999998
 30
0.0
 40
3.0923400000000001
  1
名称
 41
0.5
  0
TEXT
  5
E3
  8
_________2
 62
     7
 10
96.784058333333334
 20
48.341500000000011
 30
0.0
 40
3.6545800000000002
  1
mm
 41
0.5
 72
     1
 11
98.306799999999996
 21
48.341500000000011
 31
0.0
  0
TEXT
  5
E4
  8
_________2
 62
     7
 10
90.582099999999997
 20
53.337699999999998
 30
0.0
 40
3.0923400000000001
  1
単位
 41
0.5
  0
TEXT
  5
E5
  8
_________2
 62
     7
 10
90.582099999999997
 20
40.930399999999999
 30
0.0
 40
3.0923400000000001
  1
尺度
 41
0.5
  0
TEXT
  5
E6
  8
_________2
 62
     7
 10
95.030836166666674
 20
34.73749999999999
 30
0.0
 40
3.6545800000000002
  1
1 ： 10
 41
0.5
 72
     1
 11
98.898600000000002
 21
34.73749999999999
 31
0.0
  0
TEXT
  5
E7
  8
_________2
 62
     7
 10
141.7655125
 20
30.627400000000002
 30
0.0
 40
3.9357000000000002
  1
FLMWL40
 41
0.5
 72
     1
 11
148.489
 21
30.627400000000002
 31
0.0
  0
TEXT
  5
E8
  8
_________2
 62
     7
 10
141.7655125
 20
20.626999999999988
 30
0.0
 40
3.9357000000000002
  1
FLMWL40
 41
0.5
 72
     1
 11
148.489
 21
20.626999999999988
 31
0.0
  0
TEXT
  5
E9
  8
_________2
 62
     7
 10
29.525700000000001
 20
22.226900000000001
 30
0.0
 40
3.9357000000000002
  1
重量：11kg、オーバーフローなし
 41
0.5
  0
TEXT
  5
EA
  8
_________2
 62
     7
 10
114.11799999999999
 20
45.7453
 30
0.0
 40
3.9357000000000002
  1
ミニウォッシュ　洗面器
 41
0.5
  0
TEXT
  5
EB
  8
_________2
 62
     7
 10
44.303290666666669
 20
35.122599999999991
 30
0.0
 40
3.6545800000000002
  1
高橋
 41
0.5
 72
     1
 11
46.252400000000002
 21
35.122599999999991
 31
0.0
  0
TEXT
  5
EC
  8
_________2
 62
     7
 10
25.72929066666666
 20
35.122599999999991
 30
0.0
 40
3.6545800000000002
  1
石原
 41
0.5
 72
     1
 11
27.6784
 21
35.122599999999991
 31
0.0
  0
TEXT
  5
ED
  8
_________2
 62
     7
 10
72.724699999999999
 20
34.73749999999999
 30
0.0
 40
3.6545800000000002
  1
06.07.20
 41
0.5
  0
TEXT
  5
EE
  8
_________2
 62
     7
 10
71.531999999999996
 20
40.930399999999999
 30
0.0
 40
3.0923400000000001
  1
日付
 41
0.5
  0
TEXT
  5
EF
  8
_________2
 62
     7
 10
34.578299999999992
 20
40.930399999999999
 30
0.0
 40
3.0923400000000001
  1
検図
 41
0.5
  0
TEXT
  5
F0
  8
_________2
 62
     7
 10
22.960000000000001
 20
26.730999999999991
 30
0.0
 40
3.0923400000000001
  1
備考
 41
0.5
  0
TEXT
  5
F1
  8
_________2
 62
     7
 10
22.960000000000001
 20
40.930399999999999
 30
0.0
 40
3.0923400000000001
  1
製図
 41
0.5
  0
TEXT
  5
F2
  8
_________2
 62
     7
 10
28.727365333333339
 20
49.456400000000002
 30
0.0
 40
4.4979399999999989
  1
セラトレーディング株式会社
 41
0.5
 72
     1
 11
46.119399999999992
 21
49.456400000000002
 31
0.0
  0
LINE
  5
F3
  8
_________2
 62
     7
 10
188.49000000000001
 20
17.428499999999989
 30
0.0
 11
21.988499999999991
 21
17.428499999999989
 31
0.0
  0
LINE
  5
F4
  8
_________2
 62
     7
 10
21.988499999999991
 20
17.428499999999989
 30
0.0
 11
21.988499999999991
 21
280.42999999999989
 31
0.0
  0
LINE
  5
F5
  8
_________2
 62
     7
 10
21.988499999999991
 20
280.42999999999989
 30
0.0
 11
188.49000000000001
 21
280.42999999999989
 31
0.0
  0
LINE
  5
F6
  8
_________2
 62
     7
 10
188.49000000000001
 20
280.42999999999989
 30
0.0
 11
188.49000000000001
 21
17.428499999999989
 31
0.0
  0
LINE
  5
F7
  8
_________2
 62
     7
 10
70.488799999999998
 20
30.9285
 30
0.0
 11
70.488799999999998
 21
57.428400000000011
 31
0.0
  0
LINE
  5
F8
  8
_________2
 62
     7
 10
89.488600000000005
 20
30.9285
 30
0.0
 11
89.488600000000005
 21
57.428400000000011
 31
0.0
  0
LINE
  5
F9
  8
_________2
 62
     7
 10
108.4889999999999
 20
17.428499999999989
 30
0.0
 11
108.4889999999999
 21
57.428400000000011
 31
0.0
  0
LINE
  5
FA
  8
_________2
 62
     7
 10
33.488300000000002
 20
30.9285
 30
0.0
 11
33.488300000000002
 21
44.928800000000003
 31
0.0
  0
LINE
  5
FB
  8
_________2
 62
     7
 10
21.988499999999991
 20
30.9285
 30
0.0
 11
108.4889999999999
 21
30.9285
 31
0.0
  0
LINE
  5
FC
  8
_________2
 62
     7
 10
21.988499999999991
 20
44.928800000000003
 30
0.0
 11
108.4889999999999
 21
44.928800000000003
 31
0.0
  0
LINE
  5
FD
  8
_________2
 62
     7
 10
108.4889999999999
 20
37.428100000000001
 30
0.0
 11
188.49000000000001
 21
37.428100000000001
 31
0.0
  0
LINE
  5
FE
  8
_________2
 62
     7
 10
21.988499999999991
 20
57.428400000000011
 30
0.0
 11
188.49000000000001
 21
57.428400000000011
 31
0.0
  0
ENDSEC
  0
EOF
