  0
SECTION
  2
HEADER
  9
$ACADVER
  1
AC1009
  9
$INSBASE
 10
0.0
 20
0.0
 30
0.0
  9
$EXTMIN
 10
-397.79024755253539
 20
-842.22739074661376
 30
0.0
  9
$EXTMAX
 10
3687.9086407783739
 20
4995.9106768452293
 30
0.0
  9
$LIMMIN
 10
-397.79024755253539
 20
-842.22739074661376
  9
$LIMMAX
 10
3687.9086407783739
 20
4995.9106768452293
  9
$ORTHOMODE
 70
     0
  9
$REGENMODE
 70
     1
  9
$FILLMODE
 70
     1
  9
$QTEXTMODE
 70
     0
  9
$MIRRTEXT
 70
     1
  9
$DRAGMODE
 70
     2
  9
$LTSCALE
 40
1.0
  9
$OSMODE
 70
    37
  9
$ATTMODE
 70
     1
  9
$TEXTSIZE
 40
3.5
  9
$TRACEWID
 40
0.5
  9
$TEXTSTYLE
  7
STANDARD
  9
$CLAYER
  8
0
  9
$CELTYPE
  6
BYLAYER
  9
$CECOLOR
 62
   256
  9
$DIMSCALE
 40
1.0
  9
$DIMASZ
 40
0.18
  9
$DIMEXO
 40
0.0625
  9
$DIMDLI
 40
0.38
  9
$DIMRND
 40
0.0
  9
$DIMDLE
 40
0.0
  9
$DIMEXE
 40
0.18
  9
$DIMTP
 40
0.0
  9
$DIMTM
 40
0.0
  9
$DIMTXT
 40
0.18
  9
$DIMCEN
 40
0.09
  9
$DIMTSZ
 40
0.0
  9
$DIMTOL
 70
     0
  9
$DIMLIM
 70
     0
  9
$DIMTIH
 70
     1
  9
$DIMTOH
 70
     1
  9
$DIMSE1
 70
     0
  9
$DIMSE2
 70
     0
  9
$DIMTAD
 70
     0
  9
$DIMZIN
 70
     0
  9
$DIMBLK
  1

  9
$DIMASO
 70
     1
  9
$DIMSHO
 70
     1
  9
$DIMPOST
  1

  9
$DIMAPOST
  1

  9
$DIMALT
 70
     0
  9
$DIMALTD
 70
     2
  9
$DIMALTF
 40
25.399999999999999
  9
$DIMLFAC
 40
1.0
  9
$DIMTOFL
 70
     0
  9
$DIMTVP
 40
0.0
  9
$DIMTIX
 70
     0
  9
$DIMSOXD
 70
     0
  9
$DIMSAH
 70
     0
  9
$DIMBLK1
  1

  9
$DIMBLK2
  1

  9
$DIMSTYLE
  2
STANDARD
  9
$DIMCLRD
 70
     0
  9
$DIMCLRE
 70
     0
  9
$DIMCLRT
 70
     0
  9
$DIMTFAC
 40
1.0
  9
$DIMGAP
 40
0.09
  9
$LUNITS
 70
     2
  9
$LUPREC
 70
     4
  9
$SKETCHINC
 40
0.1
  9
$FILLETRAD
 40
2.0
  9
$AUNITS
 70
     0
  9
$AUPREC
 70
     0
  9
$MENU
  1
ACAD
  9
$ELEVATION
 40
0.0
  9
$PELEVATION
 40
0.0
  9
$THICKNESS
 40
0.0
  9
$LIMCHECK
 70
     0
  9
$BLIPMODE
 70
     0
  9
$CHAMFERA
 40
0.0
  9
$CHAMFERB
 40
0.0
  9
$SKPOLY
 70
     0
  9
$TDCREATE
 40
2458219.2465510298
  9
$TDUPDATE
 40
2458219.2465589689
  9
$TDINDWG
 40
0.0000079398
  9
$TDUSRTIMER
 40
0.0000079398
  9
$USRTIMER
 70
     1
  9
$ANGBASE
 50
0.0
  9
$ANGDIR
 70
     0
  9
$PDMODE
 70
     0
  9
$PDSIZE
 40
0.0
  9
$PLINEWID
 40
0.0
  9
$COORDS
 70
     1
  9
$SPLFRAME
 70
     0
  9
$SPLINETYPE
 70
     6
  9
$SPLINESEGS
 70
     8
  9
$ATTDIA
 70
     0
  9
$ATTREQ
 70
     1
  9
$HANDLING
 70
  4097
  9
$HANDSEED
  5
57E
  9
$SURFTAB1
 70
     6
  9
$SURFTAB2
 70
     6
  9
$SURFTYPE
 70
     6
  9
$SURFU
 70
     6
  9
$SURFV
 70
     6
  9
$UCSNAME
  2

  9
$UCSORG
 10
0.0
 20
0.0
 30
0.0
  9
$UCSXDIR
 10
1.0
 20
0.0
 30
0.0
  9
$UCSYDIR
 10
0.0
 20
1.0
 30
0.0
  9
$PUCSNAME
  2

  9
$PUCSORG
 10
0.0
 20
0.0
 30
0.0
  9
$PUCSXDIR
 10
1.0
 20
0.0
 30
0.0
  9
$PUCSYDIR
 10
0.0
 20
1.0
 30
0.0
  9
$USERI1
 70
     0
  9
$USERI2
 70
     0
  9
$USERI3
 70
     0
  9
$USERI4
 70
     0
  9
$USERI5
 70
     0
  9
$USERR1
 40
0.0
  9
$USERR2
 40
0.0
  9
$USERR3
 40
0.0
  9
$USERR4
 40
0.0
  9
$USERR5
 40
0.0
  9
$WORLDVIEW
 70
     1
  9
$SHADEDGE
 70
     3
  9
$SHADEDIF
 70
    70
  9
$TILEMODE
 70
     1
  9
$MAXACTVP
 70
    64
  9
$PLIMCHECK
 70
     0
  9
$PEXTMIN
 10
1.0000000000000000E+020
 20
1.0000000000000000E+020
 30
1.0000000000000000E+020
  9
$PEXTMAX
 10
-1.0000000000000000E+020
 20
-1.0000000000000000E+020
 30
-1.0000000000000000E+020
  9
$PLIMMIN
 10
0.0
 20
0.0
  9
$PLIMMAX
 10
12.0
 20
9.0
  9
$UNITMODE
 70
     0
  9
$VISRETAIN
 70
     1
  9
$PLINEGEN
 70
     0
  9
$PSLTSCALE
 70
     1
  0
ENDSEC
  0
SECTION
  2
TABLES
  0
TABLE
  2
VPORT
 70
     2
  0
VPORT
  2
*ACTIVE
 70
     0
 10
0.0
 20
0.0
 11
1.0
 21
1.0
 12
12.1283422459893
 22
4.5
 13
0.0
 23
0.0
 14
1.0
 24
1.0
 15
0.0
 25
0.0
 16
0.0
 26
0.0
 36
1.0
 17
0.0
 27
0.0
 37
0.0
 40
9.0
 41
2.6951871657754012
 42
50.0
 43
0.0
 44
0.0
 50
0.0
 51
0.0
 71
     0
 72
   100
 73
     1
 74
     1
 75
     0
 76
     0
 77
     0
 78
     0
  0
ENDTAB
  0
TABLE
  2
LTYPE
 70
     9
  0
LTYPE
  2
CONTINUOUS
 70
     0
  3
Solid line
 72
    65
 73
     0
 40
0.0
  0
LTYPE
  2
CENTER
 70
     0
  3
____ _ ____ _
 72
    65
 73
     4
 40
307.27042461009711
 49
192.0440153813106
 49
-38.408803076262132
 49
38.408803076262132
 49
-38.408803076262132
  0
LTYPE
  2
DASHDOT
 70
     0
  3
__ . __ . __ .
 72
    65
 73
     4
 40
153.6352123050485
 49
76.817606152524263
 49
-38.408803076262132
 49
0.0
 49
-38.408803076262132
  0
LTYPE
  2
DASHED
 70
     0
  3
__ __ __ __ __
 72
    65
 73
     2
 40
115.22640922878639
 49
76.817606152524263
 49
-38.408803076262132
  0
LTYPE
  2
DIVIDE
 70
     0
  3
__ . . __ . . 
 72
    65
 73
     6
 40
192.0440153813106
 49
76.817606152524263
 49
-38.408803076262132
 49
0.0
 49
-38.408803076262132
 49
0.0
 49
-38.408803076262132
  0
ENDTAB
  0
TABLE
  2
LAYER
 70
     3
  0
LAYER
  2
0
 70
     0
 62
     7
  6
CONTINUOUS
  0
LAYER
  2
1
 70
     0
 62
     7
  6
CONTINUOUS
  0
LAYER
  2
2
 70
     0
 62
     7
  6
CONTINUOUS
  0
ENDTAB
  0
TABLE
  2
STYLE
 70
     1
  0
STYLE
  2
STANDARD
 70
     0
 40
0.0
 41
1.0
 50
0.0
 71
     0
 42
3.5
  3
txt
  4
EXTFONT.SHX
  0
ENDTAB
  0
TABLE
  2
VIEW
 70
     0
  0
ENDTAB
  0
TABLE
  2
UCS
 70
     0
  0
ENDTAB
  0
TABLE
  2
APPID
 70
     1
  0
APPID
  2
ACAD
 70
     0
  0
ENDTAB
  0
TABLE
  2
DIMSTYLE
 70
     1
  0
DIMSTYLE
  2
STANDARD
 70
     0
  3

  4

  5

  6

  7

 40
1.0
 41
0.18
 42
0.0625
 43
0.38
 44
0.18
 45
0.0
 46
0.0
 47
0.0
 48
0.0
140
0.18
141
0.09
142
0.0
143
25.399999999999999
144
1.0
145
0.0
146
1.0
147
0.09
 71
     0
 72
     0
 73
     1
 74
     1
 75
     0
 76
     0
 77
     0
 78
     0
170
     0
171
     2
172
     0
173
     0
174
     0
175
     0
176
     0
177
     0
178
     0
  0
ENDTAB
  0
ENDSEC
  0
SECTION
  2
BLOCKS
  0
BLOCK
  8
0
  2
$MODEL_SPACE
 70
     0
 10
0.0
 20
0.0
 30
0.0
  3
$MODEL_SPACE
  1

  0
ENDBLK
  5
20
  8
0
  0
BLOCK
 67
     1
  8
0
  2
$PAPER_SPACE
 70
     0
 10
0.0
 20
0.0
 30
0.0
  3
$PAPER_SPACE
  1

  0
ENDBLK
  5
1C
 67
     1
  8
0
  0
BLOCK
  8
2
  2
*X0
 70
     1
 10
0.0
 20
0.0
 30
0.0
  3
*X0
  1

  0
LINE
  5
31
  8
2
 62
     7
 10
380.65748914164612
 20
-71.890850817744223
 30
0.0
 11
386.82740580647862
 21
-65.720934152911752
 31
0.0
  0
LINE
  5
32
  8
2
 62
     7
 10
385.1314503157808
 20
-74.487957455475055
 30
0.0
 11
393.89847361834398
 21
-65.720934152911752
 31
0.0
  0
LINE
  5
33
  8
2
 62
     7
 10
392.20251812764627
 20
-74.487957455475055
 30
0.0
 11
400.96954143020957
 21
-65.720934152911752
 31
0.0
  0
LINE
  5
34
  8
2
 62
     7
 10
395.85309457543019
 20
-77.908448819556625
 30
0.0
 11
408.04060924207511
 21
-65.720934152911752
 31
0.0
  0
LINE
  5
35
  8
2
 62
     7
 10
406.34465375137722
 20
-74.487957455475055
 30
0.0
 11
415.11167705394053
 21
-65.720934152911752
 31
0.0
  0
LINE
  5
36
  8
2
 62
     7
 10
395.85309457543019
 20
-84.979516631422129
 30
0.0
 11
405.15637459927422
 21
-75.676236607578304
 31
0.0
  0
LINE
  5
37
  8
2
 62
     7
 10
413.41572156324258
 20
-74.487957455475055
 30
0.0
 11
420.48812907650859
 21
-67.415549942209211
 31
0.0
  0
LINE
  5
38
  8
2
 62
     7
 10
395.85309457543019
 20
-92.050584443287605
 30
0.0
 11
405.15637459927422
 21
-82.747304419443765
 31
0.0
  0
LINE
  5
39
  8
2
 62
     7
 10
420.48678937510817
 20
-74.487957455475055
 30
0.0
 11
420.48812907650859
 21
-74.486617754074672
 31
0.0
  0
LINE
  5
3A
  8
2
 62
     7
 10
395.85309457543019
 20
-99.121652255153094
 30
0.0
 11
405.15637459927422
 21
-89.81837223130924
 31
0.0
  0
LINE
  5
3B
  8
2
 62
     7
 10
400.62151599712217
 20
-101.4242986453264
 30
0.0
 11
405.15637459927422
 21
-96.88944004317473
 31
0.0
  0
ENDBLK
  5
3C
  8
0
  0
BLOCK
  8
2
  2
*X1
 70
     1
 10
0.0
 20
0.0
 30
0.0
  3
*X1
  1

  0
LINE
  5
3F
  8
2
 62
     7
 10
441.5554243669128
 20
-67.561458087401434
 30
0.0
 11
443.40860137178771
 21
-65.708281082526639
 31
0.0
  0
LINE
  5
40
  8
2
 62
     7
 10
441.5554243669128
 20
-73.218312336893817
 30
0.0
 11
449.06545562128008
 21
-65.708281082526639
 31
0.0
  0
LINE
  5
41
  8
2
 62
     7
 10
441.5554243669128
 20
-78.8751665863862
 30
0.0
 11
454.72230987077239
 21
-65.708281082526639
 31
0.0
  0
LINE
  5
42
  8
2
 62
     7
 10
450.66873073343521
 20
-75.418714469356132
 30
0.0
 11
460.37916412026482
 21
-65.708281082526639
 31
0.0
  0
LINE
  5
43
  8
2
 62
     7
 10
441.5554243669128
 20
-84.532020835878583
 30
0.0
 11
449.96777283130109
 21
-76.119672371490154
 31
0.0
  0
LINE
  5
44
  8
2
 62
     7
 10
456.32558498292769
 20
-75.418714469356132
 30
0.0
 11
466.03601836975707
 21
-65.708281082526639
 31
0.0
  0
LINE
  5
45
  8
2
 62
     7
 10
441.5554243669128
 20
-90.188875085370967
 30
0.0
 11
451.32066012507983
 21
-80.423639327204
 31
0.0
  0
LINE
  5
46
  8
2
 62
     7
 10
461.98243923242012
 20
-75.418714469356132
 30
0.0
 11
471.69287261924961
 21
-65.708281082526639
 31
0.0
  0
LINE
  5
47
  8
2
 62
     7
 10
441.5554243669128
 20
-95.845729334863364
 30
0.0
 11
456.97751437457219
 21
-80.423639327204
 31
0.0
  0
LINE
  5
48
  8
2
 62
     7
 10
467.63929348191238
 20
-75.418714469356132
 30
0.0
 11
476.23922958925698
 21
-66.8187783620115
 31
0.0
  0
LINE
  5
49
  8
2
 62
     7
 10
452.90103482082668
 20
-90.15697313044187
 30
0.0
 11
462.63436862406451
 21
-80.423639327204
 31
0.0
  0
LINE
  5
4A
  8
2
 62
     7
 10
441.5554243669128
 20
-101.5025835843557
 30
0.0
 11
449.96777283130109
 21
-93.090235119967389
 31
0.0
  0
LINE
  5
4B
  8
2
 62
     7
 10
470.23539012456331
 20
-78.479472076197695
 30
0.0
 11
478.87573466935078
 21
-69.839127531410114
 31
0.0
  0
LINE
  5
4C
  8
2
 62
     7
 10
458.55788907031922
 20
-90.15697313044187
 30
0.0
 11
468.29122287355699
 21
-80.423639327204
 31
0.0
  0
LINE
  5
4D
  8
2
 62
     7
 10
446.58948997434339
 20
-102.1253722264174
 30
0.0
 11
449.96777283130109
 21
-98.747089369459758
 31
0.0
  0
LINE
  5
4E
  8
2
 62
     7
 10
464.21474331981142
 20
-90.15697313044187
 30
0.0
 11
480.47170067888902
 21
-73.900015771364252
 31
0.0
  0
LINE
  5
4F
  8
2
 62
     7
 10
469.43497699170382
 20
-90.593593708041681
 30
0.0
 11
480.17297003617563
 21
-79.855600663570058
 31
0.0
  0
LINE
  5
50
  8
2
 62
     7
 10
469.45210750343063
 20
-96.233317445807444
 30
0.0
 11
478.37641283593581
 21
-87.309012113302344
 31
0.0
  0
LINE
  5
51
  8
2
 62
     7
 10
469.46923801515709
 20
-101.87304118357321
 30
0.0
 11
478.64711886688099
 21
-92.695160331849465
 31
0.0
  0
LINE
  5
52
  8
2
 62
     7
 10
474.88327483284371
 20
-102.115858615379
 30
0.0
 11
478.64711886688099
 21
-98.352014581341876
 31
0.0
  0
ENDBLK
  5
53
  8
0
  0
BLOCK
  8
2
  2
*X2
 70
     1
 10
0.0
 20
0.0
 30
0.0
  3
*X2
  1

  0
LINE
  5
56
  8
2
 62
     7
 10
509.55613446815812
 20
-78.756707479049609
 30
0.0
 11
522.50729440624411
 21
-65.805547540963403
 31
0.0
  0
LINE
  5
57
  8
2
 62
     7
 10
501.74717360768977
 20
-92.222522589010168
 30
0.0
 11
526.3496503447044
 21
-67.6200458519954
 31
0.0
  0
LINE
  5
58
  8
2
 62
     7
 10
522.31187003168588
 20
-77.314680414506554
 30
0.0
 11
528.69115735307025
 21
-70.935393093121803
 31
0.0
  0
LINE
  5
59
  8
2
 62
     7
 10
496.81517886721332
 20
-102.81137157897891
 30
0.0
 11
518.56097844644705
 21
-81.065571999745217
 31
0.0
  0
LINE
  5
5A
  8
2
 62
     7
 10
524.22057521381385
 20
-81.062829481870963
 30
0.0
 11
530.7675201542138
 21
-74.515884541470783
 31
0.0
  0
LINE
  5
5B
  8
2
 62
     7
 10
502.47679536544382
 20
-102.8066093302407
 30
0.0
 11
518.92330487283107
 21
-86.360099822853414
 31
0.0
  0
LINE
  5
5C
  8
2
 62
     7
 10
526.12928039594181
 20
-84.810978549235315
 30
0.0
 11
532.84388295535723
 21
-78.096375989819734
 31
0.0
  0
LINE
  5
5D
  8
2
 62
     7
 10
515.65898928116098
 20
-95.28126966401588
 30
0.0
 11
524.59626786925867
 21
-86.343991075918467
 31
0.0
  0
LINE
  5
5E
  8
2
 62
     7
 10
521.31584353065352
 20
-95.28126966401588
 30
0.0
 11
534.92024575650055
 21
-81.676867438168685
 31
0.0
  0
LINE
  5
5F
  8
2
 62
     7
 10
526.97269778014595
 20
-95.28126966401588
 30
0.0
 11
536.99660855764398
 21
-85.257358886517636
 31
0.0
  0
LINE
  5
60
  8
2
 62
     7
 10
532.0115802154005
 20
-95.899241478253444
 30
0.0
 11
539.07297135878753
 21
-88.837850334866602
 31
0.0
  0
LINE
  5
61
  8
2
 62
     7
 10
534.18873118630256
 20
-99.378944756843794
 30
0.0
 11
541.14933415993096
 21
-92.418341783215524
 31
0.0
  0
LINE
  5
62
  8
2
 62
     7
 10
536.42118868801174
 20
-102.8033415046272
 30
0.0
 11
543.22569696107439
 21
-95.99883323156449
 31
0.0
  0
LINE
  5
63
  8
2
 62
     7
 10
542.07328869353023
 20
-102.808095748601
 30
0.0
 11
545.30205976221771
 21
-99.579324679913441
 31
0.0
  0
ENDBLK
  5
64
  8
0
  0
BLOCK
  8
2
  2
*X3
 70
     1
 10
0.0
 20
0.0
 30
0.0
  3
*X3
  1

  0
LINE
  5
67
  8
2
 62
     7
 10
564.8460074531863
 20
-68.72166848996018
 30
0.0
 11
567.85939486061977
 21
-65.70828108252671
 31
0.0
  0
LINE
  5
68
  8
2
 62
     7
 10
564.8460074531863
 20
-74.378522739452549
 30
0.0
 11
573.5162491101122
 21
-65.708281082526696
 31
0.0
  0
LINE
  5
69
  8
2
 62
     7
 10
564.8460074531863
 20
-80.035376988944947
 30
0.0
 11
579.17310335960451
 21
-65.708281082526682
 31
0.0
  0
LINE
  5
6A
  8
2
 62
     7
 10
574.78665691180186
 20
-75.751581779821805
 30
0.0
 11
584.82995760909694
 21
-65.708281082526653
 31
0.0
  0
LINE
  5
6B
  8
2
 62
     7
 10
564.8460074531863
 20
-85.692231238437316
 30
0.0
 11
573.99788132837932
 21
-76.54035736324451
 31
0.0
  0
LINE
  5
6C
  8
2
 62
     7
 10
580.44351116129417
 20
-75.751581779821805
 30
0.0
 11
590.48681185858925
 21
-65.708281082526639
 31
0.0
  0
LINE
  5
6D
  8
2
 62
     7
 10
564.8460074531863
 20
-91.349085487929713
 30
0.0
 11
573.99788132837932
 21
-82.197211612736893
 31
0.0
  0
LINE
  5
6E
  8
2
 62
     7
 10
586.10036541078671
 20
-75.751581779821805
 30
0.0
 11
596.14366610808167
 21
-65.708281082526639
 31
0.0
  0
LINE
  5
6F
  8
2
 62
     7
 10
564.8460074531863
 20
-97.005939737422082
 30
0.0
 11
573.99788132837932
 21
-87.854065862229291
 31
0.0
  0
LINE
  5
70
  8
2
 62
     7
 10
591.75721966027913
 20
-75.751581779821805
 30
0.0
 11
601.14292546136016
 21
-66.365875978740803
 31
0.0
  0
LINE
  5
71
  8
2
 62
     7
 10
564.8460074531863
 20
-102.66279398691449
 30
0.0
 11
574.73971178936335
 21
-92.769089650737286
 31
0.0
  0
LINE
  5
72
  8
2
 62
     7
 10
593.74343385590714
 20
-79.422221833686123
 30
0.0
 11
602.94582054381385
 21
-70.219835145779214
 31
0.0
  0
LINE
  5
73
  8
2
 62
     7
 10
570.35326534156047
 20
-102.81239034803239
 30
0.0
 11
580.39656603885578
 21
-92.769089650737286
 31
0.0
  0
LINE
  5
74
  8
2
 62
     7
 10
593.74343385590714
 20
-85.079076083178521
 30
0.0
 11
602.94582054381385
 21
-75.876689395271583
 31
0.0
  0
LINE
  5
75
  8
2
 62
     7
 10
576.0101195910529
 20
-102.81239034803239
 30
0.0
 11
586.05342028834809
 21
-92.769089650737286
 31
0.0
  0
LINE
  5
76
  8
2
 62
     7
 10
593.74343385590714
 20
-90.735930332670904
 30
0.0
 11
602.94582054381385
 21
-81.533543644763967
 31
0.0
  0
LINE
  5
77
  8
2
 62
     7
 10
581.66697384054532
 20
-102.81239034803239
 30
0.0
 11
591.71027453784075
 21
-92.769089650737286
 31
0.0
  0
LINE
  5
78
  8
2
 62
     7
 10
587.32382809003775
 20
-102.81239034803239
 30
0.0
 11
602.94582054381385
 21
-87.190397894256364
 31
0.0
  0
LINE
  5
79
  8
2
 62
     7
 10
592.98068233953029
 20
-102.81239034803239
 30
0.0
 11
602.94582054381385
 21
-92.847252143748761
 31
0.0
  0
LINE
  5
7A
  8
2
 62
     7
 10
598.6375365890226
 20
-102.81239034803239
 30
0.0
 11
602.94582054381385
 21
-98.504106393241116
 31
0.0
  0
ENDBLK
  5
7B
  8
0
  0
BLOCK
  8
2
  2
*X4
 70
     1
 10
0.0
 20
0.0
 30
0.0
  3
*X4
  1

  0
LINE
  5
7E
  8
2
 62
     7
 10
627.03649991417467
 20
-68.756572773388058
 30
0.0
 11
630.08479160503623
 21
-65.708281082526582
 31
0.0
  0
LINE
  5
7F
  8
2
 62
     7
 10
627.03649991417467
 20
-74.413427022880441
 30
0.0
 11
635.74164585452866
 21
-65.708281082526582
 31
0.0
  0
LINE
  5
80
  8
2
 62
     7
 10
627.03649991417467
 20
-80.070281272372824
 30
0.0
 11
636.03628337306327
 21
-71.070497813484195
 31
0.0
  0
LINE
  5
81
  8
2
 62
     7
 10
627.03649991417467
 20
-85.727135521865193
 30
0.0
 11
636.03628337306327
 21
-76.727352062976593
 31
0.0
  0
LINE
  5
82
  8
2
 62
     7
 10
627.03649991417467
 20
-91.383989771357591
 30
0.0
 11
636.03628337306327
 21
-82.38420631246899
 31
0.0
  0
LINE
  5
83
  8
2
 62
     7
 10
627.03649991417467
 20
-97.040844020849946
 30
0.0
 11
636.03628337306327
 21
-88.041060561961416
 31
0.0
  0
LINE
  5
84
  8
2
 62
     7
 10
627.03649991417467
 20
-102.6976982703424
 30
0.0
 11
636.03628337306327
 21
-93.697914811453842
 31
0.0
  0
LINE
  5
85
  8
2
 62
     7
 10
632.57866208597727
 20
-102.81239034803239
 30
0.0
 11
636.03628337306327
 21
-99.354769060946239
 31
0.0
  0
ENDBLK
  5
86
  8
0
  0
BLOCK
  8
2
  2
*X5
 70
     1
 10
0.0
 20
0.0
 30
0.0
  3
*X5
  1

  0
LINE
  5
89
  8
2
 62
     7
 10
650.95949409981563
 20
-67.460995585716546
 30
0.0
 11
652.71220860300559
 21
-65.708281082526582
 31
0.0
  0
LINE
  5
8A
  8
2
 62
     7
 10
650.96300351013315
 20
-73.114340424891424
 30
0.0
 11
658.36906285249802
 21
-65.708281082526582
 31
0.0
  0
LINE
  5
8B
  8
2
 62
     7
 10
650.96651292045067
 20
-78.767685264066301
 30
0.0
 11
661.73702138560373
 21
-67.997176798913642
 31
0.0
  0
LINE
  5
8C
  8
2
 62
     7
 10
650.9700223307683
 20
-84.421030103241165
 30
0.0
 11
664.4611387866355
 21
-70.92991364737432
 31
0.0
  0
LINE
  5
8D
  8
2
 62
     7
 10
661.83216964554947
 20
-79.215737037952351
 30
0.0
 11
667.18525618766716
 21
-73.862650495834984
 31
0.0
  0
LINE
  5
8E
  8
2
 62
     7
 10
650.97353174108571
 20
-90.074374942416057
 30
0.0
 11
659.61094565077258
 21
-81.436961032729258
 31
0.0
  0
LINE
  5
8F
  8
2
 62
     7
 10
664.54640411862681
 20
-82.158356814367366
 30
0.0
 11
669.90937358869871
 21
-76.795387344295676
 31
0.0
  0
LINE
  5
90
  8
2
 62
     7
 10
650.97704115140323
 20
-95.727719781590935
 30
0.0
 11
659.61094565077258
 21
-87.093815282221655
 31
0.0
  0
LINE
  5
91
  8
2
 62
     7
 10
683.76588164936572
 20
-68.595733533120779
 30
0.0
 11
686.65333409995992
 21
-65.708281082526526
 31
0.0
  0
LINE
  5
92
  8
2
 62
     7
 10
667.26063859170415
 20
-85.100976590782395
 30
0.0
 11
672.63349098973038
 21
-79.728124192756354
 31
0.0
  0
LINE
  5
93
  8
2
 62
     7
 10
650.98055056172075
 20
-101.3810646207657
 30
0.0
 11
659.61094565077258
 21
-92.750669531714024
 31
0.0
  0
LINE
  5
94
  8
2
 62
     7
 10
683.76588164936572
 20
-74.252587782613148
 30
0.0
 11
692.31018834945235
 21
-65.708281082526526
 31
0.0
  0
LINE
  5
95
  8
2
 62
     7
 10
669.9748730647816
 20
-88.043596367197424
 30
0.0
 11
675.35760839076215
 21
-82.660861041217018
 31
0.0
  0
LINE
  5
96
  8
2
 62
     7
 10
655.20607908394675
 20
-102.8123903480323
 30
0.0
 11
659.61094565077258
 21
-98.407523781206393
 31
0.0
  0
LINE
  5
97
  8
2
 62
     7
 10
683.76588164936572
 20
-79.909442032105545
 30
0.0
 11
692.39884477239491
 21
-71.27647890907663
 31
0.0
  0
LINE
  5
98
  8
2
 62
     7
 10
672.68910753785883
 20
-90.986216143612467
 30
0.0
 11
678.0817257917937
 21
-85.59359788967771
 31
0.0
  0
LINE
  5
99
  8
2
 62
     7
 10
683.76588164936572
 20
-85.566296281597957
 30
0.0
 11
692.40235418271209
 21
-76.929823748251579
 31
0.0
  0
LINE
  5
9A
  8
2
 62
     7
 10
675.40334201093629
 20
-93.928835920027524
 30
0.0
 11
680.80584319282536
 21
-88.526334738138374
 31
0.0
  0
LINE
  5
9B
  8
2
 62
     7
 10
683.76588164936572
 20
-91.223150531090326
 30
0.0
 11
692.40586359302984
 21
-82.583168587426513
 31
0.0
  0
LINE
  5
9C
  8
2
 62
     7
 10
678.11757648401363
 20
-96.871455696442496
 30
0.0
 11
683.52996059385714
 21
-91.459071586599066
 31
0.0
  0
LINE
  5
9D
  8
2
 62
     7
 10
680.83181095709085
 20
-99.814075472857567
 30
0.0
 11
692.40937300334713
 21
-88.236513426601491
 31
0.0
  0
LINE
  5
9E
  8
2
 62
     7
 10
683.54604543016808
 20
-102.7566952492726
 30
0.0
 11
692.41288241366453
 21
-93.889858265776425
 31
0.0
  0
LINE
  5
9F
  8
2
 62
     7
 10
689.14720458090108
 20
-102.8123903480323
 30
0.0
 11
692.41639182398194
 21
-99.54320310495136
 31
0.0
  0
ENDBLK
  5
A0
  8
0
  0
BLOCK
  8
2
  2
*X6
 70
     1
 10
0.0
 20
0.0
 30
0.0
  3
*X6
  1

  0
LINE
  5
A3
  8
2
 62
     7
 10
705.05951402895084
 20
-75.586372400997732
 30
0.0
 11
714.93654146647566
 21
-65.709344963472802
 31
0.0
  0
LINE
  5
A4
  8
2
 62
     7
 10
705.05845014800445
 20
-81.244290531436334
 30
0.0
 11
720.59445959691402
 21
-65.708281082526639
 31
0.0
  0
LINE
  5
A5
  8
2
 62
     7
 10
716.20801314911114
 20
-75.751581779821805
 30
0.0
 11
726.25131384640645
 21
-65.708281082526639
 31
0.0
  0
LINE
  5
A6
  8
2
 62
     7
 10
705.05845014800445
 20
-86.901144780928732
 30
0.0
 11
714.26083683591139
 21
-77.698758093021723
 31
0.0
  0
LINE
  5
A7
  8
2
 62
     7
 10
721.86486739860356
 20
-75.751581779821805
 30
0.0
 11
731.90816809589876
 21
-65.708281082526639
 31
0.0
  0
LINE
  5
A8
  8
2
 62
     7
 10
705.05845014800445
 20
-92.557999030421129
 30
0.0
 11
714.26083683591139
 21
-83.355612342514107
 31
0.0
  0
LINE
  5
A9
  8
2
 62
     7
 10
727.52172164809588
 20
-75.751581779821805
 30
0.0
 11
737.56502234539107
 21
-65.708281082526639
 31
0.0
  0
LINE
  5
AA
  8
2
 62
     7
 10
706.07273610478057
 20
-97.200567323137363
 30
0.0
 11
714.26083683591139
 21
-89.012466592006504
 31
0.0
  0
LINE
  5
AB
  8
2
 62
     7
 10
733.1785758975883
 20
-75.751581779821805
 30
0.0
 11
743.15826323863223
 21
-65.771894438778006
 31
0.0
  0
LINE
  5
AC
  8
2
 62
     7
 10
708.53713089394046
 20
-100.39302678347001
 30
0.0
 11
716.16106802667309
 21
-92.769089650737286
 31
0.0
  0
LINE
  5
AD
  8
2
 62
     7
 10
738.83543014708073
 20
-75.751581779821805
 30
0.0
 11
743.15826323863223
 21
-71.428748688270389
 31
0.0
  0
LINE
  5
AE
  8
2
 62
     7
 10
712.19401416733092
 20
-102.3929977595715
 30
0.0
 11
721.81792227616552
 21
-92.769089650737286
 31
0.0
  0
LINE
  5
AF
  8
2
 62
     7
 10
734.00638936343933
 20
-86.237476812955762
 30
0.0
 11
736.49228439657327
 21
-83.751581779821777
 31
0.0
  0
LINE
  5
B0
  8
2
 62
     7
 10
717.4314758283632
 20
-102.8123903480323
 30
0.0
 11
727.47477652565783
 21
-92.769089650737286
 31
0.0
  0
LINE
  5
B1
  8
2
 62
     7
 10
734.00638936343933
 20
-91.89433106244816
 30
0.0
 11
742.14913864606558
 21
-83.751581779821777
 31
0.0
  0
LINE
  5
B2
  8
2
 62
     7
 10
723.0883300778554
 20
-102.8123903480323
 30
0.0
 11
733.13163077515026
 21
-92.769089650737286
 31
0.0
  0
LINE
  5
B3
  8
2
 62
     7
 10
728.74518432734772
 20
-102.8123903480323
 30
0.0
 11
743.15826323863223
 21
-88.399311436747524
 31
0.0
  0
LINE
  5
B4
  8
2
 62
     7
 10
734.40203857684003
 20
-102.8123903480323
 30
0.0
 11
743.15826323863223
 21
-94.056165686239936
 31
0.0
  0
LINE
  5
B5
  8
2
 62
     7
 10
740.05889282633223
 20
-102.81239034803239
 30
0.0
 11
743.15826323863223
 21
-99.713019935732291
 31
0.0
  0
ENDBLK
  5
B6
  8
0
  0
BLOCK
  8
2
  2
*X7
 70
     1
 10
0.0
 20
0.0
 30
0.0
  3
*X7
  1

  0
LINE
  5
B9
  8
2
 62
     7
 10
673.74983961994599
 20
57.152726425276391
 30
0.0
 11
689.30646923303686
 21
72.709356038367503
 31
0.0
  0
LINE
  5
BA
  8
2
 62
     7
 10
669.99412741843878
 20
47.740159974276978
 30
0.0
 11
698.71903568403616
 21
76.465068239874356
 31
0.0
  0
LINE
  5
BB
  8
2
 62
     7
 10
668.85164909782816
 20
40.940827404173767
 30
0.0
 11
705.51836825413966
 21
77.607546560485318
 31
0.0
  0
LINE
  5
BC
  8
2
 62
     7
 10
668.72170147414181
 20
35.154025530994538
 30
0.0
 11
711.30517014218231
 21
77.737494199035595
 31
0.0
  0
LINE
  5
BD
  8
2
 62
     7
 10
693.4848034275534
 20
54.260273234914742
 30
0.0
 11
716.96202439167496
 21
77.737494199035865
 31
0.0
  0
LINE
  5
BE
  8
2
 62
     7
 10
668.72170150668717
 20
29.497171314047669
 30
0.0
 11
690.22349946590259
 21
50.998969273263413
 31
0.0
  0
LINE
  5
BF
  8
2
 62
     7
 10
699.14165767704594
 20
54.260273234914742
 30
0.0
 11
722.6188786411675
 21
77.737494199036135
 31
0.0
  0
LINE
  5
C0
  8
2
 62
     7
 10
668.72170153923275
 20
23.840317097100801
 30
0.0
 11
690.22349946590259
 21
45.342115023771029
 31
0.0
  0
LINE
  5
C1
  8
2
 62
     7
 10
704.79851192653825
 20
54.260273234914742
 30
0.0
 11
728.27573289066015
 21
77.737494199036405
 31
0.0
  0
LINE
  5
C2
  8
2
 62
     7
 10
668.72170157177823
 20
18.18346288015394
 30
0.0
 11
690.22349946590259
 21
39.685260774278653
 31
0.0
  0
LINE
  5
C3
  8
2
 62
     7
 10
710.45536617603068
 20
54.260273234914742
 30
0.0
 11
733.93258714015292
 21
77.737494199036689
 31
0.0
  0
LINE
  5
C4
  8
2
 62
     7
 10
668.7217016043237
 20
12.526608663207069
 30
0.0
 11
690.22349946590259
 21
34.028406524786263
 31
0.0
  0
LINE
  5
C5
  8
2
 62
     7
 10
716.11222042552322
 20
54.260273234914742
 30
0.0
 11
739.58944138964557
 21
77.737494199036945
 31
0.0
  0
LINE
  5
C6
  8
2
 62
     7
 10
668.72170163686917
 20
6.8697544462601998
 30
0.0
 11
690.22349946590259
 21
28.37155227529389
 31
0.0
  0
LINE
  5
C7
  8
2
 62
     7
 10
721.76907467501553
 20
54.260273234914742
 30
0.0
 11
745.24629563913822
 21
77.737494199037215
 31
0.0
  0
LINE
  5
C8
  8
2
 62
     7
 10
668.72170166941464
 20
1.2129002293133311
 30
0.0
 11
690.22349946590259
 21
22.7146980258015
 31
0.0
  0
LINE
  5
C9
  8
2
 62
     7
 10
727.42592892450807
 20
54.260273234914742
 30
0.0
 11
750.90314988863076
 21
77.737494199037485
 31
0.0
  0
LINE
  5
CA
  8
2
 62
     7
 10
668.72170170196011
 20
-4.4439539876335354
 30
0.0
 11
693.35129812961441
 21
20.185642440021471
 31
0.0
  0
LINE
  5
CB
  8
2
 62
     7
 10
733.0827831740005
 20
54.260273234914742
 30
0.0
 11
756.02877275536889
 21
77.206262816283243
 31
0.0
  0
LINE
  5
CC
  8
2
 62
     7
 10
668.72170173450547
 20
-10.1008082045804
 30
0.0
 11
699.00815237910672
 21
20.185642440021471
 31
0.0
  0
LINE
  5
CD
  8
2
 62
     7
 10
736.91189427509289
 20
52.43253008651476
 30
0.0
 11
758.83922172262328
 21
74.359857534045148
 31
0.0
  0
LINE
  5
CE
  8
2
 62
     7
 10
668.72170176705106
 20
-15.757662421527259
 30
0.0
 11
704.66500662859914
 21
20.185642440021471
 31
0.0
  0
LINE
  5
CF
  8
2
 62
     7
 10
736.91189427509289
 20
46.775675837022384
 30
0.0
 11
759.34034649641831
 21
69.204128058348388
 31
0.0
  0
LINE
  5
D0
  8
2
 62
     7
 10
668.72170179959653
 20
-21.414516638474129
 30
0.0
 11
710.32186087809168
 21
20.185642440021471
 31
0.0
  0
LINE
  5
D1
  8
2
 62
     7
 10
736.91189427509289
 20
41.118821587529993
 30
0.0
 11
759.34034649641831
 21
63.547273808855969
 31
0.0
  0
LINE
  5
D2
  8
2
 62
     7
 10
692.89680925133473
 20
-2.8962634362276849
 30
0.0
 11
715.97871512758411
 21
20.185642440021471
 31
0.0
  0
LINE
  5
D3
  8
2
 62
     7
 10
668.721701832142
 20
-27.071370855421009
 30
0.0
 11
690.22349946590191
 21
-5.5695732216605913
 31
0.0
  0
LINE
  5
D4
  8
2
 62
     7
 10
736.91189427509289
 20
35.46196733803761
 30
0.0
 11
759.34034649641831
 21
57.890419559363572
 31
0.0
  0
LINE
  5
D5
  8
2
 62
     7
 10
698.55366350082716
 20
-2.8962634362276849
 30
0.0
 11
721.63556937707654
 21
20.185642440021471
 31
0.0
  0
LINE
  5
D6
  8
2
 62
     7
 10
668.72170186468736
 20
-32.72822507236787
 30
0.0
 11
690.22349946590191
 21
-11.22642747115299
 31
0.0
  0
LINE
  5
D7
  8
2
 62
     7
 10
736.91189427509289
 20
29.805113088545241
 30
0.0
 11
759.34034649641831
 21
52.233565309871167
 31
0.0
  0
LINE
  5
D8
  8
2
 62
     7
 10
704.21051775031981
 20
-2.8962634362276849
 30
0.0
 11
727.29242362656908
 21
20.185642440021471
 31
0.0
  0
LINE
  5
D9
  8
2
 62
     7
 10
668.72170189723295
 20
-38.385079289314753
 30
0.0
 11
690.22349946590191
 21
-16.88328172064541
 31
0.0
  0
LINE
  5
DA
  8
2
 62
     7
 10
736.91189427509289
 20
24.148258839052851
 30
0.0
 11
759.34034649641831
 21
46.576711060378763
 31
0.0
  0
LINE
  5
DB
  8
2
 62
     7
 10
709.86737199981212
 20
-2.8962634362276849
 30
0.0
 11
732.94927787606139
 21
20.185642440021471
 31
0.0
  0
LINE
  5
DC
  8
2
 62
     7
 10
668.72170192977842
 20
-44.041933506261607
 30
0.0
 11
690.22349946590191
 21
-22.540135970137818
 31
0.0
  0
LINE
  5
DD
  8
2
 62
     7
 10
715.52422624930466
 20
-2.8962634362276849
 30
0.0
 11
759.34034649641831
 21
40.919856810886358
 31
0.0
  0
LINE
  5
DE
  8
2
 62
     7
 10
669.99075956219235
 20
-48.429730123339993
 30
0.0
 11
690.22349946590191
 21
-28.19699021963023
 31
0.0
  0
LINE
  5
DF
  8
2
 62
     7
 10
721.18108049879686
 20
-2.8962634362276849
 30
0.0
 11
759.34034649641831
 21
35.263002561393947
 31
0.0
  0
LINE
  5
E0
  8
2
 62
     7
 10
672.92791506446918
 20
-51.149428870555482
 30
0.0
 11
690.22349946590191
 21
-33.853844469122649
 31
0.0
  0
LINE
  5
E1
  8
2
 62
     7
 10
726.83793474828917
 20
-2.8962634362276849
 30
0.0
 11
759.34034649641831
 21
29.606148311901539
 31
0.0
  0
LINE
  5
E2
  8
2
 62
     7
 10
677.6277099415604
 20
-52.106488242956686
 30
0.0
 11
690.22349946590191
 21
-39.51069871861506
 31
0.0
  0
LINE
  5
E3
  8
2
 62
     7
 10
732.49478899778171
 20
-2.8962634362276849
 30
0.0
 11
759.34034649641831
 21
23.94929406240913
 31
0.0
  0
LINE
  5
E4
  8
2
 62
     7
 10
683.36690649167724
 20
-52.024145942332318
 30
0.0
 11
690.14115716527772
 21
-45.249895268731777
 31
0.0
  0
LINE
  5
E5
  8
2
 62
     7
 10
736.97743684619218
 20
-4.0704698373096333
 30
0.0
 11
759.34034649641831
 21
18.292439812916719
 31
0.0
  0
LINE
  5
E6
  8
2
 62
     7
 10
736.97743684619218
 20
-9.7273240868020139
 30
0.0
 11
759.34034649641831
 21
12.63558556342433
 31
0.0
  0
LINE
  5
E7
  8
2
 62
     7
 10
736.97743684619218
 20
-15.38417833629439
 30
0.0
 11
759.34034649641831
 21
6.9787313139319176
 31
0.0
  0
LINE
  5
E8
  8
2
 62
     7
 10
736.97743684619218
 20
-21.041032585786759
 30
0.0
 11
759.34034649641831
 21
1.321877064439509
 31
0.0
  0
LINE
  5
E9
  8
2
 62
     7
 10
736.97743684619218
 20
-26.697886835279149
 30
0.0
 11
759.34034649641831
 21
-4.334977185052896
 31
0.0
  0
LINE
  5
EA
  8
2
 62
     7
 10
736.97743684619218
 20
-32.354741084771533
 30
0.0
 11
759.34034649641831
 21
-9.9918314345453041
 31
0.0
  0
LINE
  5
EB
  8
2
 62
     7
 10
736.97743684619218
 20
-38.011595334263923
 30
0.0
 11
759.34034649641831
 21
-15.64868568403771
 31
0.0
  0
LINE
  5
EC
  8
2
 62
     7
 10
737.12753704088118
 20
-43.518349389067097
 30
0.0
 11
759.34034649641831
 21
-21.30553993353012
 31
0.0
  0
LINE
  5
ED
  8
2
 62
     7
 10
738.74944144885717
 20
-47.553299230583661
 30
0.0
 11
759.34034649641831
 21
-26.962394183022528
 31
0.0
  0
LINE
  5
EE
  8
2
 62
     7
 10
741.58739354224622
 20
-50.372201386687209
 30
0.0
 11
759.34034649641831
 21
-32.619248432514937
 31
0.0
  0
LINE
  5
EF
  8
2
 62
     7
 10
745.64651631626509
 20
-51.96993286216042
 30
0.0
 11
759.34034649641831
 21
-38.276102682007341
 31
0.0
  0
LINE
  5
F0
  8
2
 62
     7
 10
751.16681518496148
 20
-52.10648824295663
 30
0.0
 11
759.34034649641831
 21
-43.932956931499739
 31
0.0
  0
ENDBLK
  5
F1
  8
0
  0
BLOCK
  8
2
  2
*X8
 70
     1
 10
0.0
 20
0.0
 30
0.0
  3
*X8
  1

  0
LINE
  5
F4
  8
2
 62
     7
 10
587.52534793515235
 20
55.781048482868641
 30
0.0
 11
605.17992284506681
 21
73.435623392782986
 31
0.0
  0
LINE
  5
F5
  8
2
 62
     7
 10
584.28405332340515
 20
46.882899621629107
 30
0.0
 11
614.07807170630656
 21
76.676918004530251
 31
0.0
  0
LINE
  5
F6
  8
2
 62
     7
 10
583.30366114618244
 20
40.245653194913871
 30
0.0
 11
620.71531813302147
 21
77.657310181753004
 31
0.0
  0
LINE
  5
F7
  8
2
 62
     7
 10
583.22347714747661
 20
34.508614946715078
 30
0.0
 11
626.45235639979671
 21
77.737494199035936
 31
0.0
  0
LINE
  5
F8
  8
2
 62
     7
 10
608.63198968516826
 20
54.260273234914649
 30
0.0
 11
632.10921064928914
 21
77.737494199035865
 31
0.0
  0
LINE
  5
F9
  8
2
 62
     7
 10
583.22347718002197
 20
28.85176072976822
 30
0.0
 11
604.72527513552359
 21
50.353558685270968
 31
0.0
  0
LINE
  5
FA
  8
2
 62
     7
 10
614.28884393466001
 20
54.260273234914173
 30
0.0
 11
637.76606489878156
 21
77.737494199035794
 31
0.0
  0
LINE
  5
FB
  8
2
 62
     7
 10
583.22347721256745
 20
23.194906512821369
 30
0.0
 11
604.72527513552359
 21
44.69670443577855
 31
0.0
  0
LINE
  5
FC
  8
2
 62
     7
 10
619.94569818415175
 20
54.260273234913683
 30
0.0
 11
643.42291914827365
 21
77.737494199035723
 31
0.0
  0
LINE
  5
FD
  8
2
 62
     7
 10
583.22347724511303
 20
17.538052295874511
 30
0.0
 11
604.72527513552359
 21
39.039850186286131
 31
0.0
  0
LINE
  5
FE
  8
2
 62
     7
 10
625.60255243364372
 20
54.260273234913178
 30
0.0
 11
648.99971584146772
 21
77.65743664273738
 31
0.0
  0
LINE
  5
FF
  8
2
 62
     7
 10
583.2234772776585
 20
11.88119807892765
 30
0.0
 11
604.72527513552359
 21
33.382995936793712
 31
0.0
  0
LINE
  5
100
  8
2
 62
     7
 10
631.25940668313558
 20
54.260273234912702
 30
0.0
 11
652.54704660950097
 21
75.547913161278174
 31
0.0
  0
LINE
  5
101
  8
2
 62
     7
 10
583.22347731020386
 20
6.2243438619807927
 30
0.0
 11
604.72527513552359
 21
27.726141687301279
 31
0.0
  0
LINE
  5
102
  8
2
 62
     7
 10
636.91626093262744
 20
54.260273234912212
 30
0.0
 11
653.7657691010271
 21
71.10978140331197
 31
0.0
  0
LINE
  5
103
  8
2
 62
     7
 10
583.22347734274945
 20
0.5674896450339322
 30
0.0
 11
604.72527513552359
 21
22.069287437808882
 31
0.0
  0
LINE
  5
104
  8
2
 62
     7
 10
642.57311518211907
 20
54.260273234911722
 30
0.0
 11
653.7657691010271
 21
65.452927153819573
 31
0.0
  0
LINE
  5
105
  8
2
 62
     7
 10
583.22347737529492
 20
-5.0893645719129266
 30
0.0
 11
604.72527513552359
 21
16.412433188316459
 31
0.0
  0
LINE
  5
106
  8
2
 62
     7
 10
648.23308744720862
 20
54.263391250508732
 30
0.0
 11
653.76265108543112
 21
59.792954888731217
 31
0.0
  0
LINE
  5
107
  8
2
 62
     7
 10
583.22347740784028
 20
-10.74621878885978
 30
0.0
 11
604.72527513552359
 21
10.75557893882403
 31
0.0
  0
LINE
  5
108
  8
2
 62
     7
 10
583.22347744038575
 20
-16.40307300580665
 30
0.0
 11
604.72527513552359
 21
5.0987246893316183
 31
0.0
  0
LINE
  5
109
  8
2
 62
     7
 10
583.22347747293122
 20
-22.059927222753512
 30
0.0
 11
604.72527513552359
 21
-0.5581295601608005
 31
0.0
  0
LINE
  5
10A
  8
2
 62
     7
 10
583.22347750547681
 20
-27.71678143970037
 30
0.0
 11
604.72527513552359
 21
-6.2149838096532193
 31
0.0
  0
LINE
  5
10B
  8
2
 62
     7
 10
583.22347753802217
 20
-33.373635656647231
 30
0.0
 11
604.72527513552359
 21
-11.87183805914564
 31
0.0
  0
LINE
  5
10C
  8
2
 62
     7
 10
583.22347757056775
 20
-39.030489873594092
 30
0.0
 11
604.72527513552359
 21
-17.52869230863806
 31
0.0
  0
LINE
  5
10D
  8
2
 62
     7
 10
583.24320716570026
 20
-44.667614527953852
 30
0.0
 11
604.72527513552359
 21
-23.185546558130479
 31
0.0
  0
LINE
  5
10E
  8
2
 62
     7
 10
584.75455843685324
 20
-48.813117506293217
 30
0.0
 11
604.72527513552359
 21
-28.842400807622891
 31
0.0
  0
LINE
  5
10F
  8
2
 62
     7
 10
587.85973813892576
 20
-51.364792053713238
 30
0.0
 11
604.72527513552359
 21
-34.499255057115299
 31
0.0
  0
LINE
  5
110
  8
2
 62
     7
 10
592.77489619917492
 20
-52.106488242956452
 30
0.0
 11
604.72527513552359
 21
-40.156109306607732
 31
0.0
  0
LINE
  5
111
  8
2
 62
     7
 10
598.67243145125451
 20
-51.865807240369243
 30
0.0
 11
604.48459413293642
 21
-46.053644558687317
 31
0.0
  0
ENDBLK
  5
112
  8
0
  0
BLOCK
  8
2
  2
*X9
 70
     1
 10
0.0
 20
0.0
 30
0.0
  3
*X9
  1

  0
LINE
  5
115
  8
2
 62
     7
 10
478.38967700067332
 20
54.125608288744729
 30
0.0
 11
498.48931004079782
 21
74.225241328869302
 31
0.0
  0
LINE
  5
116
  8
2
 62
     7
 10
475.6944688283088
 20
45.773545866887929
 30
0.0
 11
506.84137246265459
 21
76.920449501233776
 31
0.0
  0
LINE
  5
117
  8
2
 62
     7
 10
474.91049000021661
 20
39.33271278930323
 30
0.0
 11
513.28220554023926
 21
77.704428329326049
 31
0.0
  0
LINE
  5
118
  8
2
 62
     7
 10
474.8774241540641
 20
33.64279269365872
 30
0.0
 11
518.97212565944164
 21
77.737494199036092
 31
0.0
  0
LINE
  5
119
  8
2
 62
     7
 10
501.15175894481331
 20
54.260273234914919
 30
0.0
 11
524.6289799089343
 21
77.737494199036334
 31
0.0
  0
LINE
  5
11A
  8
2
 62
     7
 10
474.87742418660957
 20
27.985938476711858
 30
0.0
 11
496.37922213713119
 21
49.487736427233187
 31
0.0
  0
LINE
  5
11B
  8
2
 62
     7
 10
506.80861319430562
 20
54.260273234914777
 30
0.0
 11
530.28583415842695
 21
77.737494199036604
 31
0.0
  0
LINE
  5
11C
  8
2
 62
     7
 10
474.87742421915522
 20
22.329084259764979
 30
0.0
 11
496.37922213713119
 21
43.83088217774079
 31
0.0
  0
LINE
  5
11D
  8
2
 62
     7
 10
512.46546744379771
 20
54.260273234914649
 30
0.0
 11
535.9426884079196
 21
77.73749419903686
 31
0.0
  0
LINE
  5
11E
  8
2
 62
     7
 10
474.8774242517008
 20
16.672230042818111
 30
0.0
 11
496.37922213713119
 21
38.174027928248421
 31
0.0
  0
LINE
  5
11F
  8
2
 62
     7
 10
518.12232169329002
 20
54.2602732349145
 30
0.0
 11
541.59954265741237
 21
77.73749419903713
 31
0.0
  0
LINE
  5
120
  8
2
 62
     7
 10
474.87742428424622
 20
11.01537582587124
 30
0.0
 11
496.37922213713119
 21
32.517173678756031
 31
0.0
  0
LINE
  5
121
  8
2
 62
     7
 10
523.77917594278222
 20
54.260273234914379
 30
0.0
 11
547.25639690690491
 21
77.737494199037371
 31
0.0
  0
LINE
  5
122
  8
2
 62
     7
 10
474.8774243167918
 20
5.358521608924371
 30
0.0
 11
496.37922213713119
 21
26.86031942926364
 31
0.0
  0
LINE
  5
123
  8
2
 62
     7
 10
529.4360301922743
 20
54.260273234914251
 30
0.0
 11
552.91325115639756
 21
77.737494199037613
 31
0.0
  0
LINE
  5
124
  8
2
 62
     7
 10
474.87742434933728
 20
-0.2983326080225002
 30
0.0
 11
499.72987041745961
 21
24.554113460099909
 31
0.0
  0
LINE
  5
125
  8
2
 62
     7
 10
535.09288444176661
 20
54.260273234914102
 30
0.0
 11
558.57010540589022
 21
77.737494199037883
 31
0.0
  0
LINE
  5
126
  8
2
 62
     7
 10
474.8774243818828
 20
-5.9551868249693714
 30
0.0
 11
505.3867246669522
 21
24.554113460100151
 31
0.0
  0
LINE
  5
127
  8
2
 62
     7
 10
540.74973869125881
 20
54.26027323491396
 30
0.0
 11
563.13654561455689
 21
76.647080158212162
 31
0.0
  0
LINE
  5
128
  8
2
 62
     7
 10
474.87742441442839
 20
-11.61204104191623
 30
0.0
 11
511.0435789164448
 21
24.55411346010041
 31
0.0
  0
LINE
  5
129
  8
2
 62
     7
 10
546.4065929407509
 20
54.260273234913853
 30
0.0
 11
565.36808218468639
 21
73.221762478849442
 31
0.0
  0
LINE
  5
12A
  8
2
 62
     7
 10
474.87742444697381
 20
-17.268895258863122
 30
0.0
 11
516.70043316593751
 21
24.554113460100659
 31
0.0
  0
LINE
  5
12B
  8
2
 62
     7
 10
552.06344719024321
 20
54.260273234913697
 30
0.0
 11
565.49606916764765
 21
67.692895212318319
 31
0.0
  0
LINE
  5
12C
  8
2
 62
     7
 10
498.88006645130952
 20
1.0768924959795889
 30
0.0
 11
522.35728741543016
 21
24.554113460100918
 31
0.0
  0
LINE
  5
12D
  8
2
 62
     7
 10
474.87742447951939
 20
-22.92574947580999
 30
0.0
 11
496.37922213713131
 21
-1.4239518181982449
 31
0.0
  0
LINE
  5
12E
  8
2
 62
     7
 10
557.72030143973541
 20
54.260273234913569
 30
0.0
 11
565.49606916764765
 21
62.036040962825922
 31
0.0
  0
LINE
  5
12F
  8
2
 62
     7
 10
504.5369207008016
 20
1.076892495979455
 30
0.0
 11
528.01414166492282
 21
24.554113460101171
 31
0.0
  0
LINE
  5
130
  8
2
 62
     7
 10
474.87742451206498
 20
-28.582603692756859
 30
0.0
 11
496.37922213713131
 21
-7.0808060676906566
 31
0.0
  0
LINE
  5
131
  8
2
 62
     7
 10
510.19377495029403
 20
1.076892495979322
 30
0.0
 11
533.67099591441547
 21
24.554113460101419
 31
0.0
  0
LINE
  5
132
  8
2
 62
     7
 10
474.87742454461051
 20
-34.239457909703731
 30
0.0
 11
496.37922213713119
 21
-12.737660317183069
 31
0.0
  0
LINE
  5
133
  8
2
 62
     7
 10
515.85062919978623
 20
1.076892495979189
 30
0.0
 11
539.32785016390801
 21
24.554113460101672
 31
0.0
  0
LINE
  5
134
  8
2
 62
     7
 10
474.87742457715592
 20
-39.896312126650592
 30
0.0
 11
496.37922213713108
 21
-18.394514566675468
 31
0.0
  0
LINE
  5
135
  8
2
 62
     7
 10
521.50748344927842
 20
1.076892495979056
 30
0.0
 11
544.98470441340066
 21
24.55411346010192
 31
0.0
  0
LINE
  5
136
  8
2
 62
     7
 10
474.98978146322253
 20
-45.440809490076468
 30
0.0
 11
496.37922213713108
 21
-24.051368816167891
 31
0.0
  0
LINE
  5
137
  8
2
 62
     7
 10
527.16433769877062
 20
1.076892495978923
 30
0.0
 11
550.64155866289332
 21
24.55411346010218
 31
0.0
  0
LINE
  5
138
  8
2
 62
     7
 10
476.7903372434601
 20
-49.297107959331207
 30
0.0
 11
497.45817792395547
 21
-28.62926727883556
 31
0.0
  0
LINE
  5
139
  8
2
 62
     7
 10
532.82119194826282
 20
1.0768924959787891
 30
0.0
 11
556.29841291238608
 21
24.554113460102421
 31
0.0
  0
LINE
  5
13A
  8
2
 62
     7
 10
480.12598327001928
 20
-51.618316182264472
 30
0.0
 11
503.11503217344813
 21
-28.629267278835322
 31
0.0
  0
LINE
  5
13B
  8
2
 62
     7
 10
538.47804619775502
 20
1.076892495978655
 30
0.0
 11
561.64261346615683
 21
24.241459764380689
 31
0.0
  0
LINE
  5
13C
  8
2
 62
     7
 10
485.29466545881968
 20
-52.106488242956502
 30
0.0
 11
508.77188642294078
 21
-28.629267278835069
 31
0.0
  0
LINE
  5
13D
  8
2
 62
     7
 10
544.13490044724711
 20
1.076892495978522
 30
0.0
 11
564.73827828823414
 21
21.68027033696551
 31
0.0
  0
LINE
  5
13E
  8
2
 62
     7
 10
490.95151970831222
 20
-52.106488242956573
 30
0.0
 11
514.42874067243349
 21
-28.629267278834821
 31
0.0
  0
LINE
  5
13F
  8
2
 62
     7
 10
549.7917546967393
 20
1.076892495978389
 30
0.0
 11
565.49606916764776
 21
16.781206966886892
 31
0.0
  0
LINE
  5
140
  8
2
 62
     7
 10
496.60837395780442
 20
-52.10648824295663
 30
0.0
 11
520.08559492192614
 21
-28.629267278834568
 31
0.0
  0
LINE
  5
141
  8
2
 62
     7
 10
555.44860894623162
 20
1.0768924959782571
 30
0.0
 11
565.49606916764776
 21
11.12435271739451
 31
0.0
  0
LINE
  5
142
  8
2
 62
     7
 10
502.26522820729662
 20
-52.106488242956701
 30
0.0
 11
525.74244917141868
 21
-28.629267278834309
 31
0.0
  0
LINE
  5
143
  8
2
 62
     7
 10
561.31662993338796
 20
1.2880592336423431
 30
0.0
 11
565.28490242998498
 21
5.256331730239423
 31
0.0
  0
LINE
  5
144
  8
2
 62
     7
 10
507.92208245678898
 20
-52.106488242956772
 30
0.0
 11
531.39930342091145
 21
-28.62926727883405
 31
0.0
  0
LINE
  5
145
  8
2
 62
     7
 10
513.57893670628118
 20
-52.106488242956829
 30
0.0
 11
537.0561576704041
 21
-28.629267278833801
 31
0.0
  0
LINE
  5
146
  8
2
 62
     7
 10
519.23579095577361
 20
-52.106488242956878
 30
0.0
 11
542.71301191989676
 21
-28.629267278833559
 31
0.0
  0
LINE
  5
147
  8
2
 62
     7
 10
524.89264520526592
 20
-52.106488242956956
 30
0.0
 11
548.36986616938918
 21
-28.6292672788333
 31
0.0
  0
LINE
  5
148
  8
2
 62
     7
 10
530.54949945475823
 20
-52.10648824295702
 30
0.0
 11
554.02672041888206
 21
-28.629267278833051
 31
0.0
  0
LINE
  5
149
  8
2
 62
     7
 10
536.20635370425055
 20
-52.106488242957077
 30
0.0
 11
559.68357466837472
 21
-28.629267278832799
 31
0.0
  0
LINE
  5
14A
  8
2
 62
     7
 10
541.86320795374274
 20
-52.106488242957141
 30
0.0
 11
563.7425941728651
 21
-30.227102023834728
 31
0.0
  0
LINE
  5
14B
  8
2
 62
     7
 10
547.52006220323506
 20
-52.106488242957212
 30
0.0
 11
565.49199881668744
 21
-34.134551629504926
 31
0.0
  0
LINE
  5
14C
  8
2
 62
     7
 10
553.17691645272748
 20
-52.106488242957269
 30
0.0
 11
565.49606916764776
 21
-39.787335528036898
 31
0.0
  0
LINE
  5
14D
  8
2
 62
     7
 10
558.83377070221979
 20
-52.10648824295734
 30
0.0
 11
565.49606916764776
 21
-45.444189777529282
 31
0.0
  0
ENDBLK
  5
14E
  8
0
  0
BLOCK
  8
2
  2
*X10
 70
     1
 10
0.0
 20
0.0
 30
0.0
  3
*X10
  1

  0
LINE
  5
151
  8
2
 62
     7
 10
372.37006713366333
 20
55.586229162090071
 30
0.0
 11
390.31659469459009
 21
73.532756723016718
 31
0.0
  0
LINE
  5
152
  8
2
 62
     7
 10
369.19504432318229
 20
46.754352102116648
 30
0.0
 11
399.14847175456327
 21
76.707779533497543
 31
0.0
  0
LINE
  5
153
  8
2
 62
     7
 10
368.23914970682978
 20
40.141603236271813
 30
0.0
 11
405.76122062040821
 21
77.663674149850152
 31
0.0
  0
LINE
  5
154
  8
2
 62
     7
 10
368.16532967678251
 20
34.410928956732192
 30
0.0
 11
411.49189491908641
 21
77.737494199036092
 31
0.0
  0
LINE
  5
155
  8
2
 62
     7
 10
393.67152820445767
 20
54.260273234914919
 30
0.0
 11
417.14874916857912
 21
77.737494199036334
 31
0.0
  0
LINE
  5
156
  8
2
 62
     7
 10
368.16532970932798
 20
28.75407473978532
 30
0.0
 11
389.66712766426832
 21
50.25587269472593
 31
0.0
  0
LINE
  5
157
  8
2
 62
     7
 10
399.32838245394981
 20
54.260273234914777
 30
0.0
 11
422.80560341807183
 21
77.737494199036604
 31
0.0
  0
LINE
  5
158
  8
2
 62
     7
 10
368.16532974187339
 20
23.097220522838452
 30
0.0
 11
389.66712766426832
 21
44.599018445233533
 31
0.0
  0
LINE
  5
159
  8
2
 62
     7
 10
404.98523670344213
 20
54.260273234914649
 30
0.0
 11
428.46245766756442
 21
77.73749419903686
 31
0.0
  0
LINE
  5
15A
  8
2
 62
     7
 10
368.16532977441898
 20
17.44036630589158
 30
0.0
 11
389.66712766426832
 21
38.942164195741121
 31
0.0
  0
LINE
  5
15B
  8
2
 62
     7
 10
410.64209095293432
 20
54.2602732349145
 30
0.0
 11
434.11931191705708
 21
77.73749419903713
 31
0.0
  0
LINE
  5
15C
  8
2
 62
     7
 10
368.16532980696462
 20
11.78351208894472
 30
0.0
 11
389.66712766426832
 21
33.285309946248717
 31
0.0
  0
LINE
  5
15D
  8
2
 62
     7
 10
416.29894520242669
 20
54.260273234914379
 30
0.0
 11
439.77616616654961
 21
77.737494199037371
 31
0.0
  0
LINE
  5
15E
  8
2
 62
     7
 10
368.16532983950998
 20
6.1266578719978471
 30
0.0
 11
389.66712766426832
 21
27.628455696756308
 31
0.0
  0
LINE
  5
15F
  8
2
 62
     7
 10
421.95579945191901
 20
54.260273234914251
 30
0.0
 11
445.43302041604238
 21
77.737494199037613
 31
0.0
  0
LINE
  5
160
  8
2
 62
     7
 10
368.16532987205551
 20
0.4698036550509794
 30
0.0
 11
389.66712766426832
 21
21.9716014472639
 31
0.0
  0
LINE
  5
161
  8
2
 62
     7
 10
427.61265370141109
 20
54.260273234914102
 30
0.0
 11
451.08987466553498
 21
77.737494199037883
 31
0.0
  0
LINE
  5
162
  8
2
 62
     7
 10
368.16532990460121
 20
-5.1870505618958882
 30
0.0
 11
389.66712766426832
 21
16.314747197771489
 31
0.0
  0
LINE
  5
163
  8
2
 62
     7
 10
433.26950795090352
 20
54.26027323491396
 30
0.0
 11
455.9599404135144
 21
76.950705697525009
 31
0.0
  0
LINE
  5
164
  8
2
 62
     7
 10
368.16532993714668
 20
-10.843904778842751
 30
0.0
 11
389.66712766426832
 21
10.657892948279089
 31
0.0
  0
LINE
  5
165
  8
2
 62
     7
 10
438.9263622003956
 20
54.260273234913853
 30
0.0
 11
458.49112448092433
 21
73.825035515442437
 31
0.0
  0
LINE
  5
166
  8
2
 62
     7
 10
368.1653299696921
 20
-16.50075899578961
 30
0.0
 11
389.66712766426832
 21
5.0010386987866786
 31
0.0
  0
LINE
  5
167
  8
2
 62
     7
 10
444.58321644988803
 20
54.260273234913697
 30
0.0
 11
458.78397469478512
 21
68.461031479810885
 31
0.0
  0
LINE
  5
168
  8
2
 62
     7
 10
368.16533000223768
 20
-22.157613212736479
 30
0.0
 11
389.66712766426832
 21
-0.655815550705727
 31
0.0
  0
LINE
  5
169
  8
2
 62
     7
 10
450.24007069938011
 20
54.260273234913569
 30
0.0
 11
458.78397469478512
 21
62.804177230318523
 31
0.0
  0
LINE
  5
16A
  8
2
 62
     7
 10
368.16533003478332
 20
-27.814467429683361
 30
0.0
 11
389.66712766426832
 21
-6.3126698001981341
 31
0.0
  0
LINE
  5
16B
  8
2
 62
     7
 10
368.16533006732868
 20
-33.471321646630223
 30
0.0
 11
389.66712766426832
 21
-11.96952404969054
 31
0.0
  0
LINE
  5
16C
  8
2
 62
     7
 10
368.16533009987432
 20
-39.128175863577098
 30
0.0
 11
389.66712766426832
 21
-17.626378299182939
 31
0.0
  0
LINE
  5
16D
  8
2
 62
     7
 10
368.192186830835
 20
-44.758173382108652
 30
0.0
 11
389.66712766426832
 21
-23.283232548675361
 31
0.0
  0
LINE
  5
16E
  8
2
 62
     7
 10
369.73795432631812
 20
-48.8692601361181
 30
0.0
 11
389.97794718360041
 21
-28.629267278835631
 31
0.0
  0
LINE
  5
16F
  8
2
 62
     7
 10
372.86869531057528
 20
-51.395373401353247
 30
0.0
 11
395.634801433093
 21
-28.629267278835378
 31
0.0
  0
LINE
  5
170
  8
2
 62
     7
 10
377.81443471846461
 20
-52.106488242956473
 30
0.0
 11
401.2916556825856
 21
-28.62926727883513
 31
0.0
  0
LINE
  5
171
  8
2
 62
     7
 10
383.47128896795681
 20
-52.106488242956537
 30
0.0
 11
406.9485099320782
 21
-28.62926727883487
 31
0.0
  0
LINE
  5
172
  8
2
 62
     7
 10
389.12814321744912
 20
-52.106488242956608
 30
0.0
 11
412.60536418157091
 21
-28.629267278834611
 31
0.0
  0
LINE
  5
173
  8
2
 62
     7
 10
394.78499746694149
 20
-52.106488242956679
 30
0.0
 11
418.26221843106362
 21
-28.629267278834369
 31
0.0
  0
LINE
  5
174
  8
2
 62
     7
 10
400.4418517164338
 20
-52.106488242956743
 30
0.0
 11
423.91907268055633
 21
-28.629267278834121
 31
0.0
  0
LINE
  5
175
  8
2
 62
     7
 10
406.09870596592611
 20
-52.1064882429568
 30
0.0
 11
429.57592693004881
 21
-28.629267278833868
 31
0.0
  0
LINE
  5
176
  8
2
 62
     7
 10
411.75556021541831
 20
-52.10648824295685
 30
0.0
 11
435.23278117954158
 21
-28.629267278833598
 31
0.0
  0
LINE
  5
177
  8
2
 62
     7
 10
417.41241446491063
 20
-52.106488242956928
 30
0.0
 11
440.88963542903412
 21
-28.62926727883336
 31
0.0
  0
LINE
  5
178
  8
2
 62
     7
 10
423.06926871440311
 20
-52.106488242956992
 30
0.0
 11
446.54648967852683
 21
-28.629267278833101
 31
0.0
  0
LINE
  5
179
  8
2
 62
     7
 10
428.72612296389542
 20
-52.106488242957063
 30
0.0
 11
452.20334392801942
 21
-28.629267278832849
 31
0.0
  0
LINE
  5
17A
  8
2
 62
     7
 10
434.38297721338768
 20
-52.106488242957113
 30
0.0
 11
456.62061683131122
 21
-29.868848625033511
 31
0.0
  0
LINE
  5
17B
  8
2
 62
     7
 10
440.03983146287987
 20
-52.106488242957177
 30
0.0
 11
458.7106665105278
 21
-33.435653195309193
 31
0.0
  0
LINE
  5
17C
  8
2
 62
     7
 10
445.6966857123723
 20
-52.106488242957241
 30
0.0
 11
458.78397469478512
 21
-39.019199260544312
 31
0.0
  0
LINE
  5
17D
  8
2
 62
     7
 10
451.3535399618645
 20
-52.106488242957319
 30
0.0
 11
458.78397469478512
 21
-44.676053510036709
 31
0.0
  0
ENDBLK
  5
17E
  8
0
  0
BLOCK
  8
2
  2
*D11
 70
     1
 10
0.0
 20
0.0
 30
0.0
  3
*D11
  1

  0
LINE
  5
181
  8
2
 62
     7
 10
1551.44596087172
 20
587.46255276358886
 30
0.0
 11
1551.44596087172
 21
907.46255276359068
 31
0.0
  0
LINE
  5
182
  8
2
 62
     7
 10
1231.934773122663
 20
907.46255276359068
 30
0.0
 11
1571.44596087172
 21
907.46255276359068
 31
0.0
  0
LINE
  5
183
  8
2
 62
     7
 10
1449.136226402991
 20
587.46255276358886
 30
0.0
 11
1571.44596087172
 21
587.46255276358886
 31
0.0
  0
SOLID
  5
184
  8
2
 62
     7
 10
1551.44596087172
 20
587.46255276358886
 30
0.0
 11
1546.2459608717199
 21
627.46255276358886
 31
0.0
 12
1556.64596087172
 22
627.46255276358886
 32
0.0
 13
1556.64596087172
 23
627.46255276358886
 33
0.0
  0
SOLID
  5
185
  8
2
 62
     7
 10
1551.44596087172
 20
907.46255276359068
 30
0.0
 11
1556.64596087172
 21
867.46255276359068
 31
0.0
 12
1546.2459608717199
 22
867.46255276359068
 32
0.0
 13
1546.2459608717199
 23
867.46255276359068
 33
0.0
  0
TEXT
  5
186
  8
2
 62
     7
 10
1536.44596087172
 20
754.5179027973436
 30
0.0
 40
40.0
  1
320
 50
90.0
 41
0.9
  0
TEXT
  5
187
  8
2
 62
     7
 10
1536.44596087172
 20
658.96234724178828
 30
0.0
 40
40.0
  1
給水
 50
90.0
 41
0.9
  0
ENDBLK
  5
188
  8
0
  0
BLOCK
  8
2
  2
*D12
 70
     1
 10
0.0
 20
0.0
 30
0.0
  3
*D12
  1

  0
LINE
  5
18B
  8
2
 62
     7
 10
2923.7528382216519
 20
1193.463052763592
 30
0.0
 11
2923.7528382216519
 21
1388.99909138872
 31
0.0
  0
LINE
  5
18C
  8
2
 62
     7
 10
2923.7528382216519
 20
1161.4634527635919
 30
0.0
 11
2923.7528382216519
 21
1193.463052763592
 31
0.0
  0
LINE
  5
18D
  8
2
 62
     7
 10
2923.7528382216519
 20
1081.4634527635919
 30
0.0
 11
2923.7528382216519
 21
1161.4634527635919
 31
0.0
  0
LINE
  5
18E
  8
2
 62
     7
 10
2843.7528382216519
 20
1193.463052763592
 30
0.0
 11
2943.7528382216519
 21
1193.463052763592
 31
0.0
  0
LINE
  5
18F
  8
2
 62
     7
 10
2843.7528382216519
 20
1161.4634527635919
 30
0.0
 11
2943.7528382216519
 21
1161.4634527635919
 31
0.0
  0
SOLID
  5
190
  8
2
 62
     7
 10
2923.7528382216519
 20
1161.4634527635919
 30
0.0
 11
2928.9528382216522
 21
1121.4634527635919
 31
0.0
 12
2918.5528382216521
 22
1121.4634527635919
 32
0.0
 13
2918.5528382216521
 23
1121.4634527635919
 33
0.0
  0
SOLID
  5
191
  8
2
 62
     7
 10
2923.7528382216519
 20
1193.463052763592
 30
0.0
 11
2918.5528382216521
 21
1233.4630527635929
 31
0.0
 12
2928.9528382216522
 22
1233.4630527635929
 32
0.0
 13
2928.9528382216522
 23
1233.4630527635929
 33
0.0
  0
TEXT
  5
192
  8
2
 62
     7
 10
2908.7528382216519
 20
1328.9990913887209
 30
0.0
 40
40.0
  1
32
 50
90.0
 41
0.9
  0
TEXT
  5
193
  8
2
 62
     7
 10
2908.7528382216519
 20
1280.9990913887209
 30
0.0
 40
40.0
  1
%%c
 50
90.0
 41
0.9
  0
ENDBLK
  5
194
  8
0
  0
BLOCK
  8
2
  2
*D13
 70
     1
 10
0.0
 20
0.0
 30
0.0
  3
*D13
  1

  0
LINE
  5
197
  8
2
 62
     7
 10
650.67157876275689
 20
1177.462552763594
 30
0.0
 11
650.67157876275689
 21
587.46255276359079
 31
0.0
  0
LINE
  5
198
  8
2
 62
     7
 10
852.32521236695356
 20
587.46255276359079
 30
0.0
 11
630.67157876275689
 21
587.46255276359079
 31
0.0
  0
LINE
  5
199
  8
2
 62
     7
 10
1056.273063380557
 20
1177.462552763594
 30
0.0
 11
630.67157876275689
 21
1177.462552763594
 31
0.0
  0
SOLID
  5
19A
  8
2
 62
     7
 10
650.67157876275689
 20
1177.462552763594
 30
0.0
 11
655.87157876275683
 21
1137.4625527635931
 31
0.0
 12
645.47157876275685
 22
1137.4625527635931
 32
0.0
 13
645.47157876275685
 23
1137.4625527635931
 33
0.0
  0
SOLID
  5
19B
  8
2
 62
     7
 10
650.67157876275689
 20
587.46255276359079
 30
0.0
 11
645.47157876275685
 21
627.46255276359068
 31
0.0
 12
655.87157876275671
 22
627.46255276359068
 32
0.0
 13
655.87157876275671
 23
627.46255276359068
 33
0.0
  0
TEXT
  5
19C
  8
2
 62
     7
 10
635.67157876275678
 20
887.24033054136885
 30
0.0
 40
40.0
  1
590
 50
90.0
 41
0.9
  0
TEXT
  5
19D
  8
2
 62
     7
 10
635.67157876275678
 20
791.68477498581331
 30
0.0
 40
40.0
  1
排水
 50
90.0
 41
0.9
  0
ENDBLK
  5
19E
  8
0
  0
BLOCK
  8
2
  2
*D14
 70
     1
 10
0.0
 20
0.0
 30
0.0
  3
*D14
  1

  0
LINE
  5
1A1
  8
2
 62
     7
 10
650.67137876275683
 20
1177.4625527635931
 30
0.0
 11
650.67137876275683
 21
1387.467453449854
 31
0.0
  0
LINE
  5
1A2
  8
2
 62
     7
 10
955.80586606247016
 20
1387.467453449854
 30
0.0
 11
630.67137876275683
 21
1387.467453449854
 31
0.0
  0
LINE
  5
1A3
  8
2
 62
     7
 10
1056.273063380554
 20
1177.4625527635931
 30
0.0
 11
630.67137876275683
 21
1177.4625527635931
 31
0.0
  0
SOLID
  5
1A4
  8
2
 62
     7
 10
650.67137876275683
 20
1177.4625527635931
 30
0.0
 11
645.4713787627569
 21
1217.4625527635931
 31
0.0
 12
655.87137876275676
 22
1217.4625527635931
 32
0.0
 13
655.87137876275676
 23
1217.4625527635931
 33
0.0
  0
SOLID
  5
1A5
  8
2
 62
     7
 10
650.67137876275683
 20
1387.467453449854
 30
0.0
 11
655.87137876275699
 21
1347.467453449854
 31
0.0
 12
645.4713787627569
 22
1347.467453449854
 32
0.0
 13
645.4713787627569
 23
1347.467453449854
 33
0.0
  0
TEXT
  5
1A6
  8
2
 62
     7
 10
635.67137876275683
 20
1240.476399768082
 30
0.0
 40
40.0
  1
210
 50
90.0
 41
0.9
  0
ENDBLK
  5
1A7
  8
0
  0
BLOCK
  8
2
  2
*D15
 70
     1
 10
0.0
 20
0.0
 30
0.0
  3
*D15
  1

  0
LINE
  5
1AA
  8
2
 62
     7
 10
750.67137876275683
 20
2979.46014932037
 30
0.0
 11
750.67137876275683
 21
3155.4601709659541
 31
0.0
  0
LINE
  5
1AB
  8
2
 62
     7
 10
1005.746293606853
 20
3155.4601709659541
 30
0.0
 11
730.67137876275683
 21
3155.4601709659541
 31
0.0
  0
LINE
  5
1AC
  8
2
 62
     7
 10
1005.7462942199789
 20
2979.46014932037
 30
0.0
 11
730.67137876275683
 21
2979.46014932037
 31
0.0
  0
SOLID
  5
1AD
  8
2
 62
     7
 10
750.67137876275683
 20
2979.46014932037
 30
0.0
 11
745.47137876275679
 21
3019.4601493203691
 31
0.0
 12
755.87137876275665
 22
3019.4601493203691
 32
0.0
 13
755.87137876275665
 23
3019.4601493203691
 33
0.0
  0
SOLID
  5
1AE
  8
2
 62
     7
 10
750.67137876275683
 20
3155.4601709659541
 30
0.0
 11
755.87137876275699
 21
3115.4601709659541
 31
0.0
 12
745.47137876275679
 22
3115.4601709659541
 32
0.0
 13
745.47137876275679
 23
3115.4601709659541
 33
0.0
  0
TEXT
  5
1AF
  8
2
 62
     7
 10
735.67137876275683
 20
3025.462283397364
 30
0.0
 40
40.0
  1
176
 50
90.0
 41
0.9
  0
ENDBLK
  5
1B0
  8
0
  0
BLOCK
  8
2
  2
*D16
 70
     1
 10
0.0
 20
0.0
 30
0.0
  3
*D16
  1

  0
LINE
  5
1B3
  8
2
 62
     7
 10
1203.7528382216569
 20
760.4627527635912
 30
0.0
 11
1283.7528382216569
 21
760.4627527635912
 31
0.0
  0
LINE
  5
1B4
  8
2
 62
     7
 10
1103.7528382216569
 20
760.4627527635912
 30
0.0
 11
1203.7528382216569
 21
760.4627527635912
 31
0.0
  0
LINE
  5
1B5
  8
2
 62
     7
 10
831.0345164994153
 20
760.4627527635912
 30
0.0
 11
1103.7528382216569
 21
760.4627527635912
 31
0.0
  0
LINE
  5
1B6
  8
2
 62
     7
 10
1203.7528382216569
 20
859.512521422639
 30
0.0
 11
1203.7528382216569
 21
740.4627527635912
 31
0.0
  0
LINE
  5
1B7
  8
2
 62
     7
 10
1103.7528382216569
 20
1041.3274732612199
 30
0.0
 11
1103.7528382216569
 21
740.4627527635912
 31
0.0
  0
SOLID
  5
1B8
  8
2
 62
     7
 10
1103.7528382216569
 20
760.4627527635912
 30
0.0
 11
1063.7528382216569
 21
755.26275276359104
 31
0.0
 12
1063.7528382216569
 22
765.66275276359113
 32
0.0
 13
1063.7528382216569
 23
765.66275276359113
 33
0.0
  0
SOLID
  5
1B9
  8
2
 62
     7
 10
1203.7528382216569
 20
760.4627527635912
 30
0.0
 11
1243.7528382216569
 21
765.66275276359113
 31
0.0
 12
1243.7528382216569
 22
755.26275276359104
 32
0.0
 13
1243.7528382216569
 23
755.26275276359104
 33
0.0
  0
TEXT
  5
1BA
  8
2
 62
     7
 10
926.59007205497073
 20
775.4627527635912
 30
0.0
 40
40.0
  1
100
 41
0.9
  0
TEXT
  5
1BB
  8
2
 62
     7
 10
831.0345164994153
 20
775.4627527635912
 30
0.0
 40
40.0
  1
給水
 41
0.9
  0
ENDBLK
  5
1BC
  8
0
  0
BLOCK
  8
2
  2
*D17
 70
     1
 10
0.0
 20
0.0
 30
0.0
  3
*D17
  1

  0
LINE
  5
1BF
  8
2
 62
     7
 10
1551.445860871723
 20
907.46255276359068
 30
0.0
 11
1551.445860871723
 21
1387.4674555759341
 31
0.0
  0
LINE
  5
1C0
  8
2
 62
     7
 10
1351.809695158536
 20
1387.4674555759341
 30
0.0
 11
1571.4458608717221
 21
1387.4674555759341
 31
0.0
  0
LINE
  5
1C1
  8
2
 62
     7
 10
1231.934773122663
 20
907.46255276359068
 30
0.0
 11
1571.4458608717221
 21
907.46255276359068
 31
0.0
  0
SOLID
  5
1C2
  8
2
 62
     7
 10
1551.445860871723
 20
907.46255276359068
 30
0.0
 11
1546.2458608717229
 21
947.46255276359057
 31
0.0
 12
1556.645860871723
 22
947.46255276359057
 32
0.0
 13
1556.645860871723
 23
947.46255276359057
 33
0.0
  0
SOLID
  5
1C3
  8
2
 62
     7
 10
1551.445860871723
 20
1387.4674555759341
 30
0.0
 11
1556.645860871723
 21
1347.4674555759341
 31
0.0
 12
1546.2458608717229
 22
1347.4674555759341
 32
0.0
 13
1546.2458608717229
 23
1347.4674555759341
 33
0.0
  0
TEXT
  5
1C4
  8
2
 62
     7
 10
1536.445860871723
 20
1099.467620144497
 30
0.0
 40
40.0
  1
480
 50
90.0
 41
0.9
  0
ENDBLK
  5
1C5
  8
0
  0
BLOCK
  8
2
  2
*D18
 70
     1
 10
0.0
 20
0.0
 30
0.0
  3
*D18
  1

  0
LINE
  5
1C8
  8
2
 62
     7
 10
550.67137876275683
 20
587.46255276359045
 30
0.0
 11
550.67137876275683
 21
1387.467453449854
 31
0.0
  0
LINE
  5
1C9
  8
2
 62
     7
 10
955.80586606247016
 20
1387.467453449854
 30
0.0
 11
530.67137876275683
 21
1387.467453449854
 31
0.0
  0
LINE
  5
1CA
  8
2
 62
     7
 10
852.32521236695197
 20
587.46255276359045
 30
0.0
 11
530.67137876275683
 21
587.46255276359045
 31
0.0
  0
SOLID
  5
1CB
  8
2
 62
     7
 10
550.67137876275683
 20
587.46255276359045
 30
0.0
 11
545.4713787627569
 21
627.46255276359045
 31
0.0
 12
555.87137876275676
 22
627.46255276359045
 32
0.0
 13
555.87137876275676
 23
627.46255276359045
 33
0.0
  0
SOLID
  5
1CC
  8
2
 62
     7
 10
550.67137876275683
 20
1387.467453449854
 30
0.0
 11
555.87137876275699
 21
1347.467453449854
 31
0.0
 12
545.4713787627569
 22
1347.467453449854
 32
0.0
 13
545.4713787627569
 23
1347.467453449854
 33
0.0
  0
TEXT
  5
1CD
  8
2
 62
     7
 10
535.67137876275683
 20
949.47837409135695
 30
0.0
 40
40.0
  1
800
 50
90.0
 41
0.9
  0
ENDBLK
  5
1CE
  8
0
  0
BLOCK
  8
2
  2
*D19
 70
     1
 10
0.0
 20
0.0
 30
0.0
  3
*D19
  1

  0
LINE
  5
1D1
  8
2
 62
     7
 10
750.67137876275683
 20
1387.467453449854
 30
0.0
 11
750.67137876275683
 21
1467.467453449854
 31
0.0
  0
LINE
  5
1D2
  8
2
 62
     7
 10
750.67137876275683
 20
1287.4627746741101
 30
0.0
 11
750.67137876275683
 21
1387.467453449854
 31
0.0
  0
LINE
  5
1D3
  8
2
 62
     7
 10
750.67137876275683
 20
1207.4627746741101
 30
0.0
 11
750.67137876275683
 21
1287.4627746741101
 31
0.0
  0
LINE
  5
1D4
  8
2
 62
     7
 10
955.80586606247016
 20
1387.467453449854
 30
0.0
 11
730.67137876275683
 21
1387.467453449854
 31
0.0
  0
LINE
  5
1D5
  8
2
 62
     7
 10
871.27869166878725
 20
1287.4627746741101
 30
0.0
 11
730.67137876275683
 21
1287.4627746741101
 31
0.0
  0
SOLID
  5
1D6
  8
2
 62
     7
 10
750.67137876275683
 20
1287.4627746741101
 30
0.0
 11
755.87137876275699
 21
1247.4627746741101
 31
0.0
 12
745.47137876275679
 22
1247.4627746741101
 32
0.0
 13
745.47137876275679
 23
1247.4627746741101
 33
0.0
  0
SOLID
  5
1D7
  8
2
 62
     7
 10
750.67137876275683
 20
1387.467453449854
 30
0.0
 11
745.47137876275679
 21
1427.467453449854
 31
0.0
 12
755.87137876275665
 22
1427.467453449854
 32
0.0
 13
755.87137876275665
 23
1427.467453449854
 33
0.0
  0
TEXT
  5
1D8
  8
2
 62
     7
 10
735.67137876275683
 20
1296.470307873371
 30
0.0
 40
40.0
  1
100
 50
90.0
 41
0.9
  0
ENDBLK
  5
1D9
  8
0
  0
BLOCK
  8
2
  2
*D20
 70
     1
 10
0.0
 20
0.0
 30
0.0
  3
*D20
  1

  0
LINE
  5
1DC
  8
2
 62
     7
 10
1553.7554953404469
 20
3067.4640852961461
 30
0.0
 11
1553.7554953404469
 21
3187.4625527635908
 31
0.0
  0
LINE
  5
1DD
  8
2
 62
     7
 10
1453.7554953404469
 20
3187.4625527635908
 30
0.0
 11
1573.7554953404469
 21
3187.4625527635908
 31
0.0
  0
LINE
  5
1DE
  8
2
 62
     7
 10
1371.7267670747731
 20
3067.4640852961461
 30
0.0
 11
1573.7554953404469
 21
3067.4640852961461
 31
0.0
  0
SOLID
  5
1DF
  8
2
 62
     7
 10
1553.7554953404469
 20
3067.4640852961461
 30
0.0
 11
1548.5554953404469
 21
3107.4640852961461
 31
0.0
 12
1558.9554953404461
 22
3107.4640852961461
 32
0.0
 13
1558.9554953404461
 23
3107.4640852961461
 33
0.0
  0
SOLID
  5
1E0
  8
2
 62
     7
 10
1553.7554953404469
 20
3187.4625527635908
 30
0.0
 11
1558.9554953404461
 21
3147.4625527635899
 31
0.0
 12
1548.5554953404469
 22
3147.4625527635899
 32
0.0
 13
1548.5554953404469
 23
3147.4625527635899
 33
0.0
  0
TEXT
  5
1E1
  8
2
 62
     7
 10
1538.7554953404469
 20
3090.8147488826112
 30
0.0
 40
40.0
  1
120
 50
90.0
 41
0.9
  0
ENDBLK
  5
1E2
  8
0
  0
BLOCK
  8
2
  2
*D21
 70
     1
 10
0.0
 20
0.0
 30
0.0
  3
*D21
  1

  0
LINE
  5
1E5
  8
2
 62
     7
 10
1241.753358839956
 20
3307.4625527635908
 30
0.0
 11
1148.894639066704
 21
3307.4625527635908
 31
0.0
  0
LINE
  5
1E6
  8
2
 62
     7
 10
1293.7551156396439
 20
3307.4625527635908
 30
0.0
 11
1241.753358839956
 21
3307.4625527635908
 31
0.0
  0
LINE
  5
1E7
  8
2
 62
     7
 10
1241.753358839956
 20
3115.4623534985608
 30
0.0
 11
1241.753358839956
 21
3327.4625527635899
 31
0.0
  0
LINE
  5
1E8
  8
2
 62
     7
 10
1293.7551156396439
 20
3094.9657798242702
 30
0.0
 11
1293.7551156396439
 21
3327.4625527635899
 31
0.0
  0
CIRCLE
  5
1E9
  8
2
 62
     7
 10
1293.7551156396439
 20
3307.4625527635908
 30
0.0
 40
10.0
  0
SOLID
  5
1EA
  8
2
 62
     7
 10
1241.753358839956
 20
3307.4625527635908
 30
0.0
 11
1201.753358839956
 21
3302.2625527635901
 31
0.0
 12
1201.753358839956
 22
3312.6625527635902
 32
0.0
 13
1201.753358839956
 23
3312.6625527635902
 33
0.0
  0
TEXT
  5
1EB
  8
2
 62
     7
 10
1148.894639066704
 20
3322.4625527635908
 30
0.0
 40
40.0
  1
52
 41
0.9
  0
ENDBLK
  5
1EC
  8
0
  0
BLOCK
  8
2
  2
*D22
 70
     1
 10
0.0
 20
0.0
 30
0.0
  3
*D22
  1

  0
LINE
  5
1EF
  8
2
 62
     7
 10
1353.75550218023
 20
3307.4625527635908
 30
0.0
 11
1455.915866239224
 21
3307.4625527635908
 31
0.0
  0
LINE
  5
1F0
  8
2
 62
     7
 10
1293.7551156396439
 20
3307.4625527635908
 30
0.0
 11
1353.75550218023
 21
3307.4625527635908
 31
0.0
  0
LINE
  5
1F1
  8
2
 62
     7
 10
1353.75550218023
 20
3115.4623530184831
 30
0.0
 11
1353.75550218023
 21
3327.4625527635899
 31
0.0
  0
LINE
  5
1F2
  8
2
 62
     7
 10
1293.7551156396439
 20
3094.9657798242702
 30
0.0
 11
1293.7551156396439
 21
3327.4625527635899
 31
0.0
  0
CIRCLE
  5
1F3
  8
2
 62
     7
 10
1293.7551156396439
 20
3307.4625527635908
 30
0.0
 40
10.0
  0
SOLID
  5
1F4
  8
2
 62
     7
 10
1353.75550218023
 20
3307.4625527635908
 30
0.0
 11
1393.7555021802309
 21
3312.6625527635902
 31
0.0
 12
1393.7555021802309
 22
3302.2625527635901
 32
0.0
 13
1393.7555021802309
 23
3302.2625527635901
 33
0.0
  0
TEXT
  5
1F5
  8
2
 62
     7
 10
1395.915866239224
 20
3322.4625527635908
 30
0.0
 40
40.0
  1
60
 41
0.9
  0
ENDBLK
  5
1F6
  8
0
  0
BLOCK
  8
2
  2
*D23
 70
     1
 10
0.0
 20
0.0
 30
0.0
  3
*D23
  1

  0
LINE
  5
1F9
  8
2
 62
     7
 10
1103.7528382216531
 20
3407.4625527635908
 30
0.0
 11
1353.75550218023
 21
3407.4625527635908
 31
0.0
  0
LINE
  5
1FA
  8
2
 62
     7
 10
1353.75550218023
 20
3115.4623530184831
 30
0.0
 11
1353.75550218023
 21
3427.4625527635908
 31
0.0
  0
LINE
  5
1FB
  8
2
 62
     7
 10
1103.7528382216531
 20
3208.2229226897612
 30
0.0
 11
1103.7528382216531
 21
3427.4625527635908
 31
0.0
  0
SOLID
  5
1FC
  8
2
 62
     7
 10
1103.7528382216531
 20
3407.4625527635908
 30
0.0
 11
1143.7528382216531
 21
3412.6625527635902
 31
0.0
 12
1143.7528382216531
 22
3402.2625527635901
 32
0.0
 13
1143.7528382216531
 23
3402.2625527635901
 33
0.0
  0
SOLID
  5
1FD
  8
2
 62
     7
 10
1353.75550218023
 20
3407.4625527635908
 30
0.0
 11
1313.7555021802309
 21
3402.2625527635901
 31
0.0
 12
1313.7555021802309
 22
3412.6625527635902
 32
0.0
 13
1313.7555021802309
 23
3412.6625527635902
 33
0.0
  0
TEXT
  5
1FE
  8
2
 62
     7
 10
1180.1328024279439
 20
3422.4625527635899
 30
0.0
 40
40.0
  1
250
 41
0.9
  0
ENDBLK
  5
1FF
  8
0
  0
BLOCK
  8
2
  2
*D24
 70
     1
 10
0.0
 20
0.0
 30
0.0
  3
*D24
  1

  0
LINE
  5
202
  8
2
 62
     7
 10
965.74723822165481
 20
2737.4625527635908
 30
0.0
 11
1241.753638221656
 21
2737.4625527635908
 31
0.0
  0
LINE
  5
203
  8
2
 62
     7
 10
1241.753638221656
 20
3019.4560852961458
 30
0.0
 11
1241.753638221656
 21
2717.4625527635899
 31
0.0
  0
LINE
  5
204
  8
2
 62
     7
 10
965.74723822165481
 20
3019.4560852961458
 30
0.0
 11
965.74723822165481
 21
2717.4625527635899
 31
0.0
  0
SOLID
  5
205
  8
2
 62
     7
 10
965.74723822165481
 20
2737.4625527635908
 30
0.0
 11
1005.747238221655
 21
2742.6625527635911
 31
0.0
 12
1005.747238221655
 22
2732.262552763591
 32
0.0
 13
1005.747238221655
 23
2732.262552763591
 33
0.0
  0
SOLID
  5
206
  8
2
 62
     7
 10
1241.753638221656
 20
2737.4625527635908
 30
0.0
 11
1201.753638221656
 21
2732.262552763591
 31
0.0
 12
1201.753638221656
 22
2742.6625527635911
 32
0.0
 13
1201.753638221656
 23
2742.6625527635911
 33
0.0
  0
TEXT
  5
207
  8
2
 62
     7
 10
1063.575950829483
 20
2752.4625527635899
 30
0.0
 40
40.0
  1
276
 41
0.9
  0
ENDBLK
  5
208
  8
0
  0
BLOCK
  8
2
  2
*D25
 70
     1
 10
0.0
 20
0.0
 30
0.0
  3
*D25
  1

  0
LINE
  5
20B
  8
2
 62
     7
 10
953.7496382216541
 20
2637.4625527635908
 30
0.0
 11
1353.755494056606
 21
2637.4625527635908
 31
0.0
  0
LINE
  5
20C
  8
2
 62
     7
 10
1353.755494056606
 20
3019.4565821851302
 30
0.0
 11
1353.755494056606
 21
2617.4625527635908
 31
0.0
  0
LINE
  5
20D
  8
2
 62
     7
 10
953.7496382216541
 20
3019.4560852961458
 30
0.0
 11
953.7496382216541
 21
2617.4625527635908
 31
0.0
  0
SOLID
  5
20E
  8
2
 62
     7
 10
953.7496382216541
 20
2637.4625527635908
 30
0.0
 11
993.74963822165398
 21
2642.6625527635902
 31
0.0
 12
993.74963822165398
 22
2632.262552763591
 32
0.0
 13
993.74963822165398
 23
2632.262552763591
 33
0.0
  0
SOLID
  5
20F
  8
2
 62
     7
 10
1353.755494056606
 20
2637.4625527635908
 30
0.0
 11
1313.755494056606
 21
2632.262552763591
 31
0.0
 12
1313.755494056606
 22
2642.6625527635902
 32
0.0
 13
1313.755494056606
 23
2642.6625527635902
 33
0.0
  0
TEXT
  5
210
  8
2
 62
     7
 10
1055.752838221654
 20
2652.4625527635908
 30
0.0
 40
40.0
  1
400
 41
0.9
  0
ENDBLK
  5
211
  8
0
  0
BLOCK
  8
2
  2
*D26
 70
     1
 10
0.0
 20
0.0
 30
0.0
  3
*D26
  1

  0
LINE
  5
214
  8
2
 62
     7
 10
650.67137876275683
 20
2967.4601172961479
 30
0.0
 11
650.67137876275683
 21
3167.4629572550489
 31
0.0
  0
LINE
  5
215
  8
2
 62
     7
 10
1005.746290832325
 20
3167.4629572550489
 30
0.0
 11
630.67137876275683
 21
3167.4629572550489
 31
0.0
  0
LINE
  5
216
  8
2
 62
     7
 10
1005.746296371843
 20
2967.4601172961479
 30
0.0
 11
630.67137876275683
 21
2967.4601172961479
 31
0.0
  0
SOLID
  5
217
  8
2
 62
     7
 10
650.67137876275683
 20
2967.4601172961479
 30
0.0
 11
645.4713787627569
 21
3007.460117296147
 31
0.0
 12
655.87137876275676
 22
3007.460117296147
 32
0.0
 13
655.87137876275676
 23
3007.460117296147
 33
0.0
  0
SOLID
  5
218
  8
2
 62
     7
 10
650.67137876275683
 20
3167.4629572550489
 30
0.0
 11
655.87137876275699
 21
3127.462957255048
 31
0.0
 12
645.4713787627569
 22
3127.462957255048
 32
0.0
 13
645.4713787627569
 23
3127.462957255048
 33
0.0
  0
TEXT
  5
219
  8
2
 62
     7
 10
635.67137876275683
 20
3019.462283397364
 30
0.0
 40
40.0
  1
200
 50
90.0
 41
0.9
  0
ENDBLK
  5
21A
  8
0
  0
BLOCK
  8
2
  2
*D27
 70
     1
 10
0.0
 20
0.0
 30
0.0
  3
*D27
  1

  0
LINE
  5
21D
  8
2
 62
     7
 10
550.67137876275683
 20
2967.4601172961479
 30
0.0
 11
550.67137876275683
 21
3187.4625527635931
 31
0.0
  0
LINE
  5
21E
  8
2
 62
     7
 10
853.74992454176925
 20
3187.4625527635931
 30
0.0
 11
530.67137876275683
 21
3187.4625527635931
 31
0.0
  0
LINE
  5
21F
  8
2
 62
     7
 10
1005.746296371843
 20
2967.4601172961479
 30
0.0
 11
530.67137876275683
 21
2967.4601172961479
 31
0.0
  0
SOLID
  5
220
  8
2
 62
     7
 10
550.67137876275683
 20
2967.4601172961479
 30
0.0
 11
545.4713787627569
 21
3007.460117296147
 31
0.0
 12
555.87137876275676
 22
3007.460117296147
 32
0.0
 13
555.87137876275676
 23
3007.460117296147
 33
0.0
  0
SOLID
  5
221
  8
2
 62
     7
 10
550.67137876275683
 20
3187.4625527635931
 30
0.0
 11
555.87137876275699
 21
3147.4625527635931
 31
0.0
 12
545.4713787627569
 22
3147.4625527635931
 32
0.0
 13
545.4713787627569
 23
3147.4625527635931
 33
0.0
  0
TEXT
  5
222
  8
2
 62
     7
 10
535.67137876275683
 20
3029.4625527635899
 30
0.0
 40
40.0
  1
220
 50
90.0
 41
0.9
  0
ENDBLK
  5
223
  8
0
  0
ENDSEC
  0
SECTION
  2
ENTITIES
  0
INSERT
  5
224
  8
2
 62
     7
  2
*X0
 10
0.0
 20
0.0
 30
0.0
  0
INSERT
  5
225
  8
2
 62
     7
  2
*X1
 10
0.0
 20
0.0
 30
0.0
  0
INSERT
  5
226
  8
2
 62
     7
  2
*X2
 10
0.0
 20
0.0
 30
0.0
  0
INSERT
  5
227
  8
2
 62
     7
  2
*X3
 10
0.0
 20
0.0
 30
0.0
  0
INSERT
  5
228
  8
2
 62
     7
  2
*X4
 10
0.0
 20
0.0
 30
0.0
  0
INSERT
  5
229
  8
2
 62
     7
  2
*X5
 10
0.0
 20
0.0
 30
0.0
  0
INSERT
  5
22A
  8
2
 62
     7
  2
*X6
 10
0.0
 20
0.0
 30
0.0
  0
INSERT
  5
22B
  8
2
 62
     7
  2
*X7
 10
0.0
 20
0.0
 30
0.0
  0
INSERT
  5
22C
  8
2
 62
     7
  2
*X8
 10
0.0
 20
0.0
 30
0.0
  0
INSERT
  5
22D
  8
2
 62
     7
  2
*X9
 10
0.0
 20
0.0
 30
0.0
  0
INSERT
  5
22E
  8
2
 62
     7
  2
*X10
 10
0.0
 20
0.0
 30
0.0
  0
POINT
  5
22F
  8
1
  6
DASHED
 62
     7
 10
3533.7528382216542
 20
4837.462552763589
 30
0.0
  0
POINT
  5
230
  8
1
  6
DASHED
 62
     7
 10
33.752838221654422
 20
87.462552763590793
 30
0.0
  0
POINT
  5
231
  8
2
  6
DASHED
 62
     7
 10
1449.136226402991
 20
587.46255276358886
 30
0.0
  0
POINT
  5
232
  8
2
  6
DASHED
 62
     7
 10
1231.934773122663
 20
907.46255276359068
 30
0.0
  0
POINT
  5
233
  8
2
  6
DASHED
 62
     7
 10
2843.7528382216519
 20
1161.4634527635919
 30
0.0
  0
POINT
  5
234
  8
2
  6
DASHED
 62
     7
 10
2843.7528382216519
 20
1193.463052763592
 30
0.0
  0
POINT
  5
235
  8
2
  6
DASHED
 62
     7
 10
1056.273063380557
 20
1177.462552763594
 30
0.0
  0
POINT
  5
236
  8
2
  6
DASHED
 62
     7
 10
852.32521236695356
 20
587.46255276359079
 30
0.0
  0
POINT
  5
237
  8
2
  6
DASHED
 62
     7
 10
1056.273063380554
 20
1177.4625527635931
 30
0.0
  0
POINT
  5
238
  8
2
  6
DASHED
 62
     7
 10
955.80586606247016
 20
1387.467453449854
 30
0.0
  0
POINT
  5
239
  8
2
  6
DASHED
 62
     7
 10
1005.7462942199789
 20
2979.46014932037
 30
0.0
  0
POINT
  5
23A
  8
2
  6
DASHED
 62
     7
 10
1005.746293606853
 20
3155.4601709659541
 30
0.0
  0
POINT
  5
23B
  8
2
  6
DASHED
 62
     7
 10
2733.7528382216519
 20
569.65718826766351
 30
0.0
  0
POINT
  5
23C
  8
2
  6
DASHED
 62
     7
 10
2803.7528382216528
 20
587.4625527635958
 30
0.0
  0
POINT
  5
23D
  8
2
  6
DASHED
 62
     7
 10
2683.7558364170118
 20
527.46265276359372
 30
0.0
  0
POINT
  5
23E
  8
2
  6
DASHED
 62
     7
 10
2803.7528382216528
 20
587.4625527635942
 30
0.0
  0
POINT
  5
23F
  8
2
  6
DASHED
 62
     7
 10
1103.7528382216569
 20
1041.3274732612199
 30
0.0
  0
POINT
  5
240
  8
2
  6
DASHED
 62
     7
 10
1203.7528382216569
 20
859.512521422639
 30
0.0
  0
POINT
  5
241
  8
2
  6
DASHED
 62
     7
 10
1231.934773122663
 20
907.46255276359068
 30
0.0
  0
POINT
  5
242
  8
2
  6
DASHED
 62
     7
 10
1449.136226402991
 20
587.46255276358886
 30
0.0
  0
POINT
  5
243
  8
2
  6
DASHED
 62
     7
 10
1231.934773122663
 20
907.46255276359068
 30
0.0
  0
POINT
  5
244
  8
2
  6
DASHED
 62
     7
 10
1351.809695158536
 20
1387.4674555759341
 30
0.0
  0
POINT
  5
245
  8
2
  6
DASHED
 62
     7
 10
852.32521236695197
 20
587.46255276359045
 30
0.0
  0
POINT
  5
246
  8
2
  6
DASHED
 62
     7
 10
955.80586606247016
 20
1387.467453449854
 30
0.0
  0
POINT
  5
247
  8
2
  6
DASHED
 62
     7
 10
871.27869166878907
 20
1287.4627746741121
 30
0.0
  0
POINT
  5
248
  8
2
  6
DASHED
 62
     7
 10
852.32521236695356
 20
587.46255276359079
 30
0.0
  0
POINT
  5
249
  8
2
  6
DASHED
 62
     7
 10
871.27869166878725
 20
1287.4627746741101
 30
0.0
  0
POINT
  5
24A
  8
2
  6
DASHED
 62
     7
 10
955.80586606247016
 20
1387.467453449854
 30
0.0
  0
POINT
  5
24B
  8
2
  6
DASHED
 62
     7
 10
1371.7267670747731
 20
3067.4640852961461
 30
0.0
  0
POINT
  5
24C
  8
2
  6
DASHED
 62
     7
 10
1453.7554953404469
 20
3187.4625527635908
 30
0.0
  0
POINT
  5
24D
  8
2
  6
DASHED
 62
     7
 10
1293.7551156396439
 20
3094.9657798242702
 30
0.0
  0
POINT
  5
24E
  8
2
  6
DASHED
 62
     7
 10
1241.753358839956
 20
3115.4623534985608
 30
0.0
  0
POINT
  5
24F
  8
2
  6
DASHED
 62
     7
 10
1293.7551156396439
 20
3094.9657798242702
 30
0.0
  0
POINT
  5
250
  8
2
  6
DASHED
 62
     7
 10
1353.75550218023
 20
3115.4623530184831
 30
0.0
  0
POINT
  5
251
  8
2
  6
DASHED
 62
     7
 10
1053.7488382216541
 20
3185.4640852961461
 30
0.0
  0
POINT
  5
252
  8
2
  6
DASHED
 62
     7
 10
1253.748038221654
 20
3185.464085296147
 30
0.0
  0
POINT
  5
253
  8
2
  6
DASHED
 62
     7
 10
1103.7528382216531
 20
3208.2229226897612
 30
0.0
  0
POINT
  5
254
  8
2
  6
DASHED
 62
     7
 10
1353.75550218023
 20
3115.4623530184831
 30
0.0
  0
POINT
  5
255
  8
2
  6
DASHED
 62
     7
 10
965.74723822165481
 20
3019.4560852961458
 30
0.0
  0
POINT
  5
256
  8
2
  6
DASHED
 62
     7
 10
1241.753638221656
 20
3019.4560852961458
 30
0.0
  0
POINT
  5
257
  8
2
  6
DASHED
 62
     7
 10
953.7496382216541
 20
3019.4560852961458
 30
0.0
  0
POINT
  5
258
  8
2
  6
DASHED
 62
     7
 10
1353.755494056606
 20
3019.4565821851302
 30
0.0
  0
POINT
  5
259
  8
2
  6
DASHED
 62
     7
 10
1005.746296371843
 20
2967.4601172961479
 30
0.0
  0
POINT
  5
25A
  8
2
  6
DASHED
 62
     7
 10
1005.746290832325
 20
3167.4629572550489
 30
0.0
  0
POINT
  5
25B
  8
2
  6
DASHED
 62
     7
 10
1005.746296371843
 20
2967.4601172961479
 30
0.0
  0
POINT
  5
25C
  8
2
  6
DASHED
 62
     7
 10
853.74992454176925
 20
3187.4625527635931
 30
0.0
  0
POINT
  5
25D
  8
2
  6
DASHED
 62
     7
 10
1103.752838221654
 20
1041.3274732612199
 30
0.0
  0
POINT
  5
25E
  8
2
  6
DASHED
 62
     7
 10
1027.752940068423
 20
522.89811360750173
 30
0.0
  0
POINT
  5
25F
  8
2
  6
DASHED
 62
     7
 10
1011.877840068435
 20
547.46255276359068
 30
0.0
  0
POINT
  5
260
  8
2
  6
DASHED
 62
     7
 10
1043.6278400684371
 20
623.57439688200509
 30
0.0
  0
POINT
  5
261
  8
2
  6
DASHED
 62
     7
 10
1449.1362264029949
 20
587.46255276359318
 30
0.0
  0
POINT
  5
262
  8
2
  6
DASHED
 62
     7
 10
852.32521236695072
 20
587.46255276358886
 30
0.0
  0
POINT
  5
263
  8
2
  6
DASHED
 62
     7
 10
2803.7528382216528
 20
587.46255276359182
 30
0.0
  0
POINT
  5
264
  8
2
  6
DASHED
 62
     7
 10
1449.136226402994
 20
587.46255276359045
 30
0.0
  0
POINT
  5
265
  8
2
  6
DASHED
 62
     7
 10
1103.7528382216531
 20
1041.3274732612199
 30
0.0
  0
POINT
  5
266
  8
2
  6
DASHED
 62
     7
 10
2803.7528382216528
 20
587.46255276359182
 30
0.0
  0
POINT
  5
267
  8
2
  6
DASHED
 62
     7
 10
2803.7528382216528
 20
587.46255276359182
 30
0.0
  0
POINT
  5
268
  8
2
  6
DASHED
 62
     7
 10
1449.136226402991
 20
587.46255276359079
 30
0.0
  0
POINT
  5
269
  8
2
  6
DASHED
 62
     7
 10
852.32521236695072
 20
587.46255276358886
 30
0.0
  0
POINT
  5
26A
  8
2
  6
DASHED
 62
     7
 10
1449.136226402991
 20
587.46255276358886
 30
0.0
  0
POINT
  5
26B
  8
2
  6
DASHED
 62
     7
 10
1449.136226402991
 20
587.46255276358886
 30
0.0
  0
POINT
  5
26C
  8
2
  6
DASHED
 62
     7
 10
1449.136226402994
 20
587.46255276358886
 30
0.0
  0
POINT
  5
26D
  8
2
  6
DASHED
 62
     7
 10
852.32521236695072
 20
587.46255276358886
 30
0.0
  0
POINT
  5
26E
  8
2
  6
DASHED
 62
     7
 10
852.32521236695072
 20
587.46255276359079
 30
0.0
  0
POINT
  5
26F
  8
2
  6
DASHED
 62
     7
 10
852.32521236695197
 20
587.46255276359045
 30
0.0
  0
POINT
  5
270
  8
2
  6
DASHED
 62
     7
 10
2629.7527363748832
 20
560.88970752916885
 30
0.0
  0
POINT
  5
271
  8
2
  6
DASHED
 62
     7
 10
1087.8778398091431
 20
1045.2922213522611
 30
0.0
  0
POINT
  5
272
  8
2
  6
DASHED
 62
     7
 10
1119.627836634148
 20
1045.2922213522611
 30
0.0
  0
POINT
  5
273
  8
2
  6
DASHED
 62
     7
 10
1449.136226402991
 20
587.46255276359238
 30
0.0
  0
POINT
  5
274
  8
2
  6
DASHED
 62
     7
 10
1449.136226402991
 20
587.46255276359238
 30
0.0
  0
POINT
  5
275
  8
2
  6
DASHED
 62
     7
 10
1449.136226402991
 20
587.46255276359238
 30
0.0
  0
POINT
  5
276
  8
2
  6
DASHED
 62
     7
 10
852.32521236695072
 20
587.46255276359238
 30
0.0
  0
POINT
  5
277
  8
2
  6
DASHED
 62
     7
 10
994.94476545745817
 20
595.08199999557019
 30
0.0
  0
POINT
  5
278
  8
2
  6
DASHED
 62
     7
 10
852.32521236695072
 20
587.46255276359238
 30
0.0
  0
POINT
  5
279
  8
2
  6
DASHED
 62
     7
 10
852.32521236695072
 20
587.46255276359238
 30
0.0
  0
POINT
  5
27A
  8
2
  6
DASHED
 62
     7
 10
2803.7528382216528
 20
1780.094211196611
 30
0.0
  0
POINT
  5
27B
  8
2
  6
DASHED
 62
     7
 10
2803.7528382216528
 20
587.46255276359182
 30
0.0
  0
POINT
  5
27C
  8
2
  6
DASHED
 62
     7
 10
2803.7528382216528
 20
587.46255276359182
 30
0.0
  0
POINT
  5
27D
  8
2
  6
DASHED
 62
     7
 10
1103.7528382216531
 20
1041.327473261216
 30
0.0
  0
POINT
  5
27E
  8
2
  6
DASHED
 62
     7
 10
1103.7528382216531
 20
1041.327473261216
 30
0.0
  0
POINT
  5
27F
  8
2
  6
DASHED
 62
     7
 10
1119.628138221655
 20
1050.2922213522611
 30
0.0
  0
POINT
  5
280
  8
2
  6
DASHED
 62
     7
 10
1087.878138222178
 20
1045.2922213522611
 30
0.0
  0
POINT
  5
281
  8
2
  6
DASHED
 62
     7
 10
852.32521236695072
 20
587.46255276359079
 30
0.0
  0
POINT
  5
282
  8
2
  6
DASHED
 62
     7
 10
2803.7528382216528
 20
587.4625527635942
 30
0.0
  0
POINT
  5
283
  8
2
  6
DASHED
 62
     7
 10
2604.754300339649
 20
519.54636871458843
 30
0.0
  0
POINT
  5
284
  8
2
  6
DASHED
 62
     7
 10
2803.7528382216528
 20
587.4625527635958
 30
0.0
  0
POINT
  5
285
  8
2
  6
DASHED
 62
     7
 10
2733.7528382216551
 20
599.39878218932881
 30
0.0
  0
POINT
  5
286
  8
2
  6
DASHED
 62
     7
 10
1103.752838221654
 20
1041.327473261216
 30
0.0
  0
POINT
  5
287
  8
2
  6
DASHED
 62
     7
 10
1003.752838221654
 20
613.07205670721714
 30
0.0
  0
POINT
  5
288
  8
2
  6
DASHED
 62
     7
 10
1203.7528382216569
 20
860.51965509141326
 30
0.0
  0
POINT
  5
289
  8
2
  6
DASHED
 62
     7
 10
1103.7528382216569
 20
1041.327473261219
 30
0.0
  0
POINT
  5
28A
  8
2
  6
DASHED
 62
     7
 10
2803.7528382216528
 20
587.4625527635942
 30
0.0
  0
POINT
  5
28B
  8
2
  6
DASHED
 62
     7
 10
2733.7528382216542
 20
618.73996599506791
 30
0.0
  0
POINT
  5
28C
  8
2
  6
DASHED
 62
     7
 10
2604.754300339649
 20
523.22589937146495
 30
0.0
  0
POINT
  5
28D
  8
2
  6
DASHED
 62
     7
 10
2803.7528382216528
 20
587.46255276359182
 30
0.0
  0
POINT
  5
28E
  8
2
  6
DASHED
 62
     7
 10
852.32521236695527
 20
587.46255276359261
 30
0.0
  0
POINT
  5
28F
  8
2
  6
DASHED
 62
     7
 10
1119.6278366341519
 20
1045.292221352262
 30
0.0
  0
POINT
  5
290
  8
2
  6
DASHED
 62
     7
 10
1087.8841382221781
 20
1045.2922213522611
 30
0.0
  0
LINE
  5
291
  8
2
 62
     7
 10
3433.7528382216542
 20
4037.4625527635899
 30
0.0
 11
3433.7528382216542
 21
3937.462552763589
 31
0.0
  0
LINE
  5
292
  8
2
 62
     7
 10
2523.7528382216542
 20
4037.4625527635899
 30
0.0
 11
2523.7528382216542
 21
3937.462552763589
 31
0.0
  0
LINE
  5
293
  8
2
 62
     7
 10
3533.7528382216542
 20
4037.4625527635899
 30
0.0
 11
3533.7528382216542
 21
3937.462552763589
 31
0.0
  0
LINE
  5
294
  8
2
 62
     7
 10
1893.752838221654
 20
4037.4625527635899
 30
0.0
 11
1893.752838221654
 21
3937.462552763589
 31
0.0
  0
LINE
  5
295
  8
2
 62
     7
 10
1893.752838221654
 20
3937.462552763589
 30
0.0
 11
3533.7528382216542
 21
3937.462552763589
 31
0.0
  0
LINE
  5
296
  8
2
 62
     7
 10
1893.752838221654
 20
4037.4625527635899
 30
0.0
 11
3533.7528382216542
 21
4037.4625527635899
 31
0.0
  0
LINE
  5
297
  8
2
 62
     7
 10
3433.7528382216542
 20
4137.462552763589
 30
0.0
 11
3433.7528382216542
 21
4037.4625527635899
 31
0.0
  0
LINE
  5
298
  8
2
 62
     7
 10
2523.7528382216542
 20
4137.462552763589
 30
0.0
 11
2523.7528382216542
 21
4037.4625527635899
 31
0.0
  0
LINE
  5
299
  8
2
 62
     7
 10
3533.7528382216542
 20
4137.462552763589
 30
0.0
 11
3533.7528382216542
 21
4037.4625527635899
 31
0.0
  0
LINE
  5
29A
  8
2
 62
     7
 10
1893.752838221654
 20
4137.462552763589
 30
0.0
 11
1893.752838221654
 21
4037.4625527635899
 31
0.0
  0
LINE
  5
29B
  8
2
 62
     7
 10
1893.752838221654
 20
4037.4625527635899
 30
0.0
 11
3533.7528382216542
 21
4037.4625527635899
 31
0.0
  0
LINE
  5
29C
  8
2
 62
     7
 10
1893.752838221654
 20
4137.462552763589
 30
0.0
 11
3533.7528382216542
 21
4137.462552763589
 31
0.0
  0
LINE
  5
29D
  8
2
 62
     7
 10
3433.7528382216542
 20
4237.4625527635899
 30
0.0
 11
3433.7528382216542
 21
4137.462552763589
 31
0.0
  0
LINE
  5
29E
  8
2
 62
     7
 10
2523.7528382216542
 20
4237.4625527635899
 30
0.0
 11
2523.7528382216542
 21
4137.462552763589
 31
0.0
  0
LINE
  5
29F
  8
2
 62
     7
 10
3533.7528382216542
 20
4237.4625527635899
 30
0.0
 11
3533.7528382216542
 21
4137.462552763589
 31
0.0
  0
LINE
  5
2A0
  8
2
 62
     7
 10
1893.752838221654
 20
4237.4625527635899
 30
0.0
 11
1893.752838221654
 21
4137.462552763589
 31
0.0
  0
LINE
  5
2A1
  8
2
 62
     7
 10
1893.752838221654
 20
4137.462552763589
 30
0.0
 11
3533.7528382216542
 21
4137.462552763589
 31
0.0
  0
LINE
  5
2A2
  8
2
 62
     7
 10
1893.752838221654
 20
4237.4625527635899
 30
0.0
 11
3533.7528382216542
 21
4237.4625527635899
 31
0.0
  0
LINE
  5
2A3
  8
2
 62
     7
 10
3433.7528382216542
 20
4337.462552763589
 30
0.0
 11
3433.7528382216542
 21
4237.4625527635899
 31
0.0
  0
LINE
  5
2A4
  8
2
 62
     7
 10
2523.7528382216542
 20
4337.462552763589
 30
0.0
 11
2523.7528382216542
 21
4237.4625527635899
 31
0.0
  0
LINE
  5
2A5
  8
2
 62
     7
 10
3533.7528382216542
 20
4337.462552763589
 30
0.0
 11
3533.7528382216542
 21
4237.4625527635899
 31
0.0
  0
LINE
  5
2A6
  8
2
 62
     7
 10
1893.752838221654
 20
4337.462552763589
 30
0.0
 11
1893.752838221654
 21
4237.4625527635899
 31
0.0
  0
LINE
  5
2A7
  8
2
 62
     7
 10
1893.752838221654
 20
4237.4625527635899
 30
0.0
 11
3533.7528382216542
 21
4237.4625527635899
 31
0.0
  0
LINE
  5
2A8
  8
2
 62
     7
 10
1893.752838221654
 20
4337.462552763589
 30
0.0
 11
3533.7528382216542
 21
4337.462552763589
 31
0.0
  0
LINE
  5
2A9
  8
2
 62
     7
 10
3433.7528382216542
 20
4437.4625527635899
 30
0.0
 11
3433.7528382216542
 21
4337.462552763589
 31
0.0
  0
LINE
  5
2AA
  8
2
 62
     7
 10
2523.7528382216542
 20
4437.4625527635899
 30
0.0
 11
2523.7528382216542
 21
4337.462552763589
 31
0.0
  0
LINE
  5
2AB
  8
2
 62
     7
 10
3533.7528382216542
 20
4437.4625527635899
 30
0.0
 11
3533.7528382216542
 21
4337.462552763589
 31
0.0
  0
LINE
  5
2AC
  8
2
 62
     7
 10
1893.752838221654
 20
4437.4625527635899
 30
0.0
 11
1893.752838221654
 21
4337.462552763589
 31
0.0
  0
LINE
  5
2AD
  8
2
 62
     7
 10
1893.752838221654
 20
4337.462552763589
 30
0.0
 11
3533.7528382216542
 21
4337.462552763589
 31
0.0
  0
LINE
  5
2AE
  8
2
 62
     7
 10
1893.752838221654
 20
4437.4625527635899
 30
0.0
 11
3533.7528382216542
 21
4437.4625527635899
 31
0.0
  0
LINE
  5
2AF
  8
2
 62
     7
 10
3433.7528382216542
 20
4537.4625527635899
 30
0.0
 11
3433.7528382216542
 21
4437.4625527635899
 31
0.0
  0
LINE
  5
2B0
  8
2
 62
     7
 10
2523.7528382216542
 20
4537.4625527635899
 30
0.0
 11
2523.7528382216542
 21
4437.4625527635899
 31
0.0
  0
LINE
  5
2B1
  8
2
 62
     7
 10
3533.7528382216542
 20
4537.4625527635899
 30
0.0
 11
3533.7528382216542
 21
4437.4625527635899
 31
0.0
  0
LINE
  5
2B2
  8
2
 62
     7
 10
1893.752838221654
 20
4537.4625527635899
 30
0.0
 11
1893.752838221654
 21
4437.4625527635899
 31
0.0
  0
LINE
  5
2B3
  8
2
 62
     7
 10
1893.752838221654
 20
4437.4625527635899
 30
0.0
 11
3533.7528382216542
 21
4437.4625527635899
 31
0.0
  0
LINE
  5
2B4
  8
2
 62
     7
 10
1893.752838221654
 20
4537.4625527635899
 30
0.0
 11
3533.7528382216542
 21
4537.4625527635899
 31
0.0
  0
LINE
  5
2B5
  8
2
 62
     7
 10
3433.7528382216542
 20
4637.462552763589
 30
0.0
 11
3433.7528382216542
 21
4537.4625527635899
 31
0.0
  0
LINE
  5
2B6
  8
2
 62
     7
 10
2523.7528382216542
 20
4637.462552763589
 30
0.0
 11
2523.7528382216542
 21
4537.4625527635899
 31
0.0
  0
LINE
  5
2B7
  8
2
 62
     7
 10
3533.7528382216542
 20
4637.462552763589
 30
0.0
 11
3533.7528382216542
 21
4537.4625527635899
 31
0.0
  0
LINE
  5
2B8
  8
2
 62
     7
 10
1893.752838221654
 20
4637.462552763589
 30
0.0
 11
1893.752838221654
 21
4537.4625527635899
 31
0.0
  0
LINE
  5
2B9
  8
2
 62
     7
 10
1893.752838221654
 20
4537.4625527635899
 30
0.0
 11
3533.7528382216542
 21
4537.4625527635899
 31
0.0
  0
LINE
  5
2BA
  8
2
 62
     7
 10
1893.752838221654
 20
4637.462552763589
 30
0.0
 11
3533.7528382216542
 21
4637.462552763589
 31
0.0
  0
LINE
  5
2BB
  8
2
 62
     7
 10
3433.7528382216542
 20
4737.4625527635899
 30
0.0
 11
3433.7528382216542
 21
4637.462552763589
 31
0.0
  0
LINE
  5
2BC
  8
2
 62
     7
 10
2523.7528382216542
 20
4737.4625527635899
 30
0.0
 11
2523.7528382216542
 21
4637.462552763589
 31
0.0
  0
LINE
  5
2BD
  8
2
 62
     7
 10
3533.7528382216542
 20
4737.4625527635899
 30
0.0
 11
3533.7528382216542
 21
4637.462552763589
 31
0.0
  0
LINE
  5
2BE
  8
2
 62
     7
 10
1893.752838221654
 20
4737.4625527635899
 30
0.0
 11
1893.752838221654
 21
4637.462552763589
 31
0.0
  0
LINE
  5
2BF
  8
2
 62
     7
 10
1893.752838221654
 20
4637.462552763589
 30
0.0
 11
3533.7528382216542
 21
4637.462552763589
 31
0.0
  0
LINE
  5
2C0
  8
2
 62
     7
 10
1893.752838221654
 20
4737.4625527635899
 30
0.0
 11
3533.7528382216542
 21
4737.4625527635899
 31
0.0
  0
LINE
  5
2C1
  8
2
 62
     7
 10
3533.7528382216542
 20
4837.462552763589
 30
0.0
 11
3533.7528382216542
 21
4737.4625527635899
 31
0.0
  0
LINE
  5
2C2
  8
2
 62
     7
 10
1893.752838221654
 20
4837.462552763589
 30
0.0
 11
1893.752838221654
 21
4737.4625527635899
 31
0.0
  0
LINE
  5
2C3
  8
2
 62
     7
 10
1893.752838221654
 20
4737.4625527635899
 30
0.0
 11
3533.7528382216542
 21
4737.4625527635899
 31
0.0
  0
LINE
  5
2C4
  8
2
 62
     7
 10
1893.752838221654
 20
4837.462552763589
 30
0.0
 11
3533.7528382216542
 21
4837.462552763589
 31
0.0
  0
LINE
  5
2C5
  8
2
 62
     7
 10
395.85309457543019
 20
-74.487957455475055
 30
0.0
 11
380.65748914164612
 21
-74.487957455475055
 31
0.0
  0
LINE
  5
2C6
  8
2
 62
     7
 10
743.15826323863223
 20
-75.751581779821805
 30
0.0
 11
743.15826323863223
 21
-65.708281082526597
 31
0.0
  0
LINE
  5
2C7
  8
2
 62
     7
 10
743.15826323863223
 20
-83.751581779821819
 30
0.0
 11
734.00638936343933
 21
-83.751581779821819
 31
0.0
  0
LINE
  5
2C8
  8
2
 62
     7
 10
743.15826323863223
 20
-102.81239034803239
 30
0.0
 11
715.05845014800457
 21
-102.8123903480323
 31
0.0
  0
LINE
  5
2C9
  8
2
 62
     7
 10
714.26083683591139
 20
-92.769089650737214
 30
0.0
 11
714.26083683591139
 21
-75.751581779821805
 31
0.0
  0
LINE
  5
2CA
  8
2
 62
     7
 10
734.00638936343933
 20
-92.769089650737214
 30
0.0
 11
714.26083683591139
 21
-92.769089650737214
 31
0.0
  0
LINE
  5
2CB
  8
2
 62
     7
 10
734.00638936343933
 20
-83.751581779821819
 30
0.0
 11
734.00638936343933
 21
-92.769089650737214
 31
0.0
  0
LINE
  5
2CC
  8
2
 62
     7
 10
714.26083683591139
 20
-75.751581779821805
 30
0.0
 11
743.15826323863223
 21
-75.751581779821805
 31
0.0
  0
LINE
  5
2CD
  8
2
 62
     7
 10
743.15826323863223
 20
-102.81239034803239
 30
0.0
 11
743.15826323863223
 21
-83.751581779821819
 31
0.0
  0
LINE
  5
2CE
  8
2
 62
     7
 10
705.05845014800445
 20
-75.708281082526554
 30
0.0
 11
705.05845014800445
 21
-92.812390348032281
 31
0.0
  0
LINE
  5
2CF
  8
2
 62
     7
 10
743.15826323863223
 20
-65.708281082526597
 30
0.0
 11
715.05845014800457
 21
-65.708281082526568
 31
0.0
  0
LINE
  5
2D0
  8
2
 62
     7
 10
659.61094565077258
 20
-65.708281082526597
 30
0.0
 11
683.76588164936572
 21
-91.713060042660445
 31
0.0
  0
LINE
  5
2D1
  8
2
 62
     7
 10
659.61094565077258
 20
-76.80761138789849
 30
0.0
 11
683.59741786987217
 21
-102.8123903480323
 31
0.0
  0
LINE
  5
2D2
  8
2
 62
     7
 10
683.59741786987217
 20
-102.8123903480323
 30
0.0
 11
692.41842122777132
 21
-102.8123903480323
 31
0.0
  0
LINE
  5
2D3
  8
2
 62
     7
 10
692.41842122777132
 20
-102.8123903480323
 30
0.0
 11
692.39538821853876
 21
-65.708281082526597
 31
0.0
  0
LINE
  5
2D4
  8
2
 62
     7
 10
692.39538821853876
 20
-65.708281082526597
 30
0.0
 11
683.76588164936572
 21
-65.708281082526597
 31
0.0
  0
LINE
  5
2D5
  8
2
 62
     7
 10
683.76588164936572
 20
-65.708281082526597
 30
0.0
 11
683.76588164936572
 21
-91.713060042660445
 31
0.0
  0
LINE
  5
2D6
  8
2
 62
     7
 10
598.94582054381408
 20
-102.81239034803239
 30
0.0
 11
564.8460074531863
 21
-102.81239034803239
 31
0.0
  0
LINE
  5
2D7
  8
2
 62
     7
 10
514.96968146370875
 20
-69.421557228751055
 30
0.0
 11
495.6060043518184
 21
-102.8123886718554
 31
0.0
  0
LINE
  5
2D8
  8
2
 62
     7
 10
547.1769459065988
 20
-102.8123886718554
 30
0.0
 11
527.81326879470896
 21
-69.421557228751055
 31
0.0
  0
LINE
  5
2D9
  8
2
 62
     7
 10
536.33123109727705
 20
-102.8032658371171
 30
0.0
 11
547.1769459065988
 21
-102.8123886718554
 31
0.0
  0
LINE
  5
2DA
  8
2
 62
     7
 10
531.62493289876431
 20
-95.28126966401588
 30
0.0
 11
536.33123109727705
 21
-102.8032658371171
 31
0.0
  0
LINE
  5
2DB
  8
2
 62
     7
 10
521.39147512920863
 20
-75.507289033360991
 30
0.0
 11
526.90660997810585
 21
-86.337430709424311
 31
0.0
  0
LINE
  5
2DC
  8
2
 62
     7
 10
420.48812907650859
 20
-74.487957455475055
 30
0.0
 11
405.15637459927399
 21
-74.487957455475055
 31
0.0
  0
LINE
  5
2DD
  8
2
 62
     7
 10
653.7657691010271
 20
59.97856583429229
 30
0.0
 11
653.7657691010271
 21
72.019201599654494
 31
0.0
  0
LINE
  5
2DE
  8
2
 62
     7
 10
648.04747650164597
 20
77.737494199035652
 30
0.0
 11
623.22347712889723
 21
77.73749419903595
 31
0.0
  0
LINE
  5
2DF
  8
2
 62
     7
 10
604.72527513552427
 20
54.260273234914983
 30
0.0
 11
648.04747650164597
 21
54.260273234911203
 31
0.0
  0
LINE
  5
2E0
  8
2
 62
     7
 10
604.72527513552359
 20
-44.106488242956523
 30
0.0
 11
604.72527513552427
 21
54.260273234914983
 31
0.0
  0
LINE
  5
2E1
  8
2
 62
     7
 10
591.22347759977117
 20
-52.106488242956452
 30
0.0
 11
596.72527513552359
 21
-52.106488242956488
 31
0.0
  0
LINE
  5
2E2
  8
2
 62
     7
 10
583.22347712889928
 20
37.737493968904253
 30
0.0
 11
583.22347759977129
 21
-44.10648828898271
 31
0.0
  0
LINE
  5
2E3
  8
2
 62
     7
 10
496.37922213713119
 20
24.554113460099739
 30
0.0
 11
496.37922213713119
 21
54.260273234914983
 31
0.0
  0
LINE
  5
2E4
  8
2
 62
     7
 10
565.49606916764765
 20
6.7951850953592068
 30
0.0
 11
565.49606916764765
 21
18.835820860721409
 31
0.0
  0
LINE
  5
2E5
  8
2
 62
     7
 10
496.37922213713119
 20
1.07689249597957
 30
0.0
 11
559.77777656826663
 21
1.076892495978079
 31
0.0
  0
LINE
  5
2E6
  8
2
 62
     7
 10
559.77777656826663
 20
24.55411346010256
 30
0.0
 11
496.37922213713119
 21
24.554113460099739
 31
0.0
  0
LINE
  5
2E7
  8
2
 62
     7
 10
559.77777656826663
 20
-28.62926727883282
 30
0.0
 11
496.37922213713091
 21
-28.629267278835641
 31
0.0
  0
LINE
  5
2E8
  8
2
 62
     7
 10
565.49606916764765
 20
-46.388195643576168
 30
0.0
 11
565.49606916764765
 21
-34.34755987821395
 31
0.0
  0
LINE
  5
2E9
  8
2
 62
     7
 10
482.87742460137832
 20
-52.106488242956452
 30
0.0
 11
559.77777656826663
 21
-52.106488242957319
 31
0.0
  0
LINE
  5
2EA
  8
2
 62
     7
 10
496.37922213713119
 20
54.260273234914983
 30
0.0
 11
559.77777656826663
 21
54.260273234913463
 31
0.0
  0
LINE
  5
2EB
  8
2
 62
     7
 10
496.37922213713091
 20
-28.629267278835641
 30
0.0
 11
496.37922213713119
 21
1.07689249597957
 31
0.0
  0
LINE
  5
2EC
  8
2
 62
     7
 10
559.77777656826663
 20
77.737494199037954
 30
0.0
 11
514.87742413050455
 21
77.73749419903595
 31
0.0
  0
LINE
  5
2ED
  8
2
 62
     7
 10
565.49606916764765
 20
59.978565834294599
 30
0.0
 11
565.49606916764765
 21
72.01920159965681
 31
0.0
  0
LINE
  5
2EE
  8
2
 62
     7
 10
474.87742413050631
 20
37.737493968904253
 30
0.0
 11
474.87742460137832
 21
-44.10648828898271
 31
0.0
  0
LINE
  5
2EF
  8
2
 62
     7
 10
453.06568209540421
 20
-28.62926727883282
 30
0.0
 11
389.66712766426832
 21
-28.629267278835641
 31
0.0
  0
LINE
  5
2F0
  8
2
 62
     7
 10
458.78397469478512
 20
-46.388195643576168
 30
0.0
 11
458.78397469478512
 21
-34.34755987821395
 31
0.0
  0
LINE
  5
2F1
  8
2
 62
     7
 10
376.16533012851602
 20
-52.106488242956452
 30
0.0
 11
453.06568209540421
 21
-52.106488242957319
 31
0.0
  0
LINE
  5
2F2
  8
2
 62
     7
 10
389.66712766426872
 20
54.260273234914983
 30
0.0
 11
453.06568209540421
 21
54.260273234913463
 31
0.0
  0
LINE
  5
2F3
  8
2
 62
     7
 10
389.66712766426832
 20
-28.629267278835641
 30
0.0
 11
389.66712766426872
 21
54.260273234914983
 31
0.0
  0
LINE
  5
2F4
  8
2
 62
     7
 10
453.06568209540421
 20
77.737494199037954
 30
0.0
 11
408.16532965764219
 21
77.73749419903595
 31
0.0
  0
LINE
  5
2F5
  8
2
 62
     7
 10
458.78397469478512
 20
59.978565834294599
 30
0.0
 11
458.78397469478512
 21
72.01920159965681
 31
0.0
  0
LINE
  5
2F6
  8
2
 62
     7
 10
368.16532965764389
 20
37.737493968904253
 30
0.0
 11
368.16533012851602
 21
-44.10648828898271
 31
0.0
  0
LINE
  5
2F7
  8
2
 62
     7
 10
690.22349946590259
 20
20.185642440021539
 30
0.0
 11
690.22349946590259
 21
54.26027323491472
 31
0.0
  0
LINE
  5
2F8
  8
2
 62
     7
 10
690.22349946590259
 20
20.185642440021539
 30
0.0
 11
736.91189427509289
 21
20.185642440021539
 31
0.0
  0
LINE
  5
2F9
  8
2
 62
     7
 10
676.72170193014972
 20
-52.106488242956679
 30
0.0
 11
682.22349946590214
 21
-52.106488242956679
 31
0.0
  0
LINE
  5
2FA
  8
2
 62
     7
 10
690.22349946590191
 20
-44.106488242956701
 30
0.0
 11
690.22349946590225
 21
-2.8962634362276591
 31
0.0
  0
LINE
  5
2FB
  8
2
 62
     7
 10
753.62205389703774
 20
77.737494199037585
 30
0.0
 11
708.72170145927589
 21
77.737494199035496
 31
0.0
  0
LINE
  5
2FC
  8
2
 62
     7
 10
759.34034649641831
 20
-44.106488242956701
 30
0.0
 11
759.3403464964191
 21
72.019201599656483
 31
0.0
  0
LINE
  5
2FD
  8
2
 62
     7
 10
420.48812907650859
 20
-74.487957455475055
 30
0.0
 11
420.48812907650859
 21
-65.720934152911738
 31
0.0
  0
LINE
  5
2FE
  8
2
 62
     7
 10
395.85309457543019
 20
-74.487957455475055
 30
0.0
 11
395.85309457543019
 21
-101.4242986453264
 31
0.0
  0
LINE
  5
2FF
  8
2
 62
     7
 10
668.72170145927771
 20
37.737493968903962
 30
0.0
 11
668.72170193014972
 21
-44.106488288982959
 31
0.0
  0
LINE
  5
300
  8
2
 62
     7
 10
690.22349946590225
 20
-2.8962634362276591
 30
0.0
 11
736.97743684619218
 21
-2.8962634362276591
 31
0.0
  0
LINE
  5
301
  8
2
 62
     7
 10
736.97743684619218
 20
-2.8962634362276591
 30
0.0
 11
736.97743684619218
 21
-41.764411644123669
 31
0.0
  0
LINE
  5
302
  8
2
 62
     7
 10
747.31951344502522
 20
-52.106488242956679
 30
0.0
 11
751.34034649641819
 21
-52.106488242956679
 31
0.0
  0
LINE
  5
303
  8
2
 62
     7
 10
690.22349946590259
 20
54.26027323491472
 30
0.0
 11
736.91189427509289
 21
54.260273234914742
 31
0.0
  0
LINE
  5
304
  8
2
 62
     7
 10
736.91189427509289
 20
54.260273234914742
 30
0.0
 11
736.91189427509289
 21
20.185642440021539
 31
0.0
  0
LINE
  5
305
  8
2
 62
     7
 10
659.61094565077258
 20
-65.708281082526597
 30
0.0
 11
650.95840607236721
 21
-65.708281082526597
 31
0.0
  0
LINE
  5
306
  8
2
 62
     7
 10
650.95840607236721
 20
-65.708281082526597
 30
0.0
 11
650.98143908160023
 21
-102.8123903480323
 31
0.0
  0
LINE
  5
307
  8
2
 62
     7
 10
650.98143908160023
 20
-102.8123903480323
 30
0.0
 11
659.61094565077258
 21
-102.8123903480323
 31
0.0
  0
LINE
  5
308
  8
2
 62
     7
 10
659.61094565077258
 20
-102.8123903480323
 30
0.0
 11
659.61094565077258
 21
-76.80761138789849
 31
0.0
  0
LINE
  5
309
  8
2
 62
     7
 10
636.03628337306327
 20
-102.8123903480323
 30
0.0
 11
636.03628337306338
 21
-65.708281082526597
 31
0.0
  0
LINE
  5
30A
  8
2
 62
     7
 10
636.03628337306338
 20
-65.708281082526597
 30
0.0
 11
627.03649991417467
 21
-65.708281082526597
 31
0.0
  0
LINE
  5
30B
  8
2
 62
     7
 10
627.03649991417467
 20
-65.708281082526597
 30
0.0
 11
627.03649991417467
 21
-102.81239034803239
 31
0.0
  0
LINE
  5
30C
  8
2
 62
     7
 10
627.03649991417467
 20
-102.81239034803239
 30
0.0
 11
636.03628337306327
 21
-102.8123903480323
 31
0.0
  0
LINE
  5
30D
  8
2
 62
     7
 10
593.74343385590714
 20
-75.751581779821805
 30
0.0
 11
593.74343385590714
 21
-92.769089650737286
 31
0.0
  0
LINE
  5
30E
  8
2
 62
     7
 10
593.74343385590714
 20
-92.769089650737286
 30
0.0
 11
573.99788132837932
 21
-92.769089650737286
 31
0.0
  0
LINE
  5
30F
  8
2
 62
     7
 10
573.99788132837932
 20
-92.769089650737286
 30
0.0
 11
573.99788132837932
 21
-75.751581779821805
 31
0.0
  0
LINE
  5
310
  8
2
 62
     7
 10
573.99788132837932
 20
-75.751581779821805
 30
0.0
 11
593.74343385590714
 21
-75.751581779821805
 31
0.0
  0
LINE
  5
311
  8
2
 62
     7
 10
564.8460074531863
 20
-65.708281082526653
 30
0.0
 11
564.8460074531863
 21
-102.81239034803239
 31
0.0
  0
LINE
  5
312
  8
2
 62
     7
 10
602.94582054381385
 20
-98.812390348032366
 30
0.0
 11
602.94582054381385
 21
-69.708281082526639
 31
0.0
  0
LINE
  5
313
  8
2
 62
     7
 10
598.94582054381408
 20
-65.708281082526611
 30
0.0
 11
564.8460074531863
 21
-65.708281082526653
 31
0.0
  0
LINE
  5
314
  8
2
 62
     7
 10
495.6060043518184
 20
-102.8123886718554
 30
0.0
 11
506.45171916114009
 21
-102.8032658371171
 31
0.0
  0
LINE
  5
315
  8
2
 62
     7
 10
506.45171916114009
 20
-102.8032658371171
 30
0.0
 11
511.15801735965312
 21
-95.28126966401588
 31
0.0
  0
LINE
  5
316
  8
2
 62
     7
 10
511.15801735965312
 20
-95.28126966401588
 30
0.0
 11
531.62493289876431
 21
-95.28126966401588
 31
0.0
  0
LINE
  5
317
  8
2
 62
     7
 10
526.90660997810585
 20
-86.337430709424311
 30
0.0
 11
515.86036721050903
 21
-86.368797233309124
 31
0.0
  0
LINE
  5
318
  8
2
 62
     7
 10
515.86036721050903
 20
-86.368797233309124
 30
0.0
 11
521.39147512920863
 21
-75.507289033360991
 31
0.0
  0
LINE
  5
319
  8
2
 62
     7
 10
449.96777283130109
 20
-90.156973130441855
 30
0.0
 11
469.43365076824472
 21
-90.156973130441855
 31
0.0
  0
LINE
  5
31A
  8
2
 62
     7
 10
469.43365076824472
 20
-90.156973130441855
 30
0.0
 11
469.46997556668572
 21
-102.115858615379
 31
0.0
  0
LINE
  5
31B
  8
2
 62
     7
 10
469.46997556668572
 20
-102.115858615379
 30
0.0
 11
478.64711886688099
 21
-102.115858615379
 31
0.0
  0
LINE
  5
31C
  8
2
 62
     7
 10
478.64711886688099
 20
-102.115858615379
 30
0.0
 11
478.64711886688099
 21
-87.572779905026437
 31
0.0
  0
LINE
  5
31D
  8
2
 62
     7
 10
478.64711886688099
 20
-87.572779905026437
 30
0.0
 11
476.52359342955299
 21
-85.503680767049062
 31
0.0
  0
LINE
  5
31E
  8
2
 62
     7
 10
474.65033426890182
 20
-65.708281082526639
 30
0.0
 11
441.5554243669128
 21
-65.708281082526639
 31
0.0
  0
LINE
  5
31F
  8
2
 62
     7
 10
441.5554243669128
 20
-65.708281082526639
 30
0.0
 11
441.5554243669128
 21
-102.1395487013186
 31
0.0
  0
LINE
  5
320
  8
2
 62
     7
 10
441.5554243669128
 20
-102.1395487013186
 30
0.0
 11
449.96777283130109
 21
-102.115858615379
 31
0.0
  0
LINE
  5
321
  8
2
 62
     7
 10
449.96777283130109
 20
-102.115858615379
 30
0.0
 11
449.96777283130109
 21
-90.156973130441855
 31
0.0
  0
LINE
  5
322
  8
2
 62
     7
 10
470.24029808921159
 20
-80.423639327203986
 30
0.0
 11
449.96777283130109
 21
-80.423639327203986
 31
0.0
  0
LINE
  5
323
  8
2
 62
     7
 10
449.96777283130109
 20
-80.423639327203986
 30
0.0
 11
449.96777283130109
 21
-75.418714469356104
 31
0.0
  0
LINE
  5
324
  8
2
 62
     7
 10
449.96777283130109
 20
-75.418714469356104
 30
0.0
 11
470.22766337671061
 21
-75.418714469356104
 31
0.0
  0
LINE
  5
325
  8
2
 62
     7
 10
470.22766337671061
 20
-75.418714469356104
 30
0.0
 11
470.24029808921159
 21
-80.423639327203986
 31
0.0
  0
LINE
  5
326
  8
2
 62
     7
 10
395.85309457543019
 20
-101.4242986453264
 30
0.0
 11
405.15637459927399
 21
-101.4242986453264
 31
0.0
  0
LINE
  5
327
  8
2
 62
     7
 10
405.15637459927399
 20
-101.4242986453264
 30
0.0
 11
405.15637459927399
 21
-74.487957455475055
 31
0.0
  0
LINE
  5
328
  8
2
 62
     7
 10
420.48812907650859
 20
-65.720934152911738
 30
0.0
 11
380.65748914164612
 21
-65.720934152911738
 31
0.0
  0
LINE
  5
329
  8
2
 62
     7
 10
380.65748914164612
 20
-65.720934152911738
 30
0.0
 11
380.65748914164612
 21
-74.487957455475055
 31
0.0
  0
LINE
  5
32A
  8
2
 62
     7
 10
33.752838221654443
 20
4837.462552763589
 30
0.0
 11
3533.7528382216542
 21
4837.462552763589
 31
0.0
  0
LINE
  5
32B
  8
2
 62
     7
 10
3533.7528382216542
 20
4837.462552763589
 30
0.0
 11
3533.7528382216542
 21
-505.03744723640921
 31
0.0
  0
LINE
  5
32C
  8
2
 62
     7
 10
33.752838221654443
 20
-702.53744723640921
 30
0.0
 11
3533.7528382216542
 21
-702.53744723640921
 31
0.0
  0
LINE
  5
32D
  8
2
 62
     7
 10
33.752838221654422
 20
87.462552763590793
 30
0.0
 11
3533.7528382216519
 21
87.462552763590793
 31
0.0
  0
LINE
  5
32E
  8
2
 62
     7
 10
1103.7528382216531
 20
87.462552763590793
 30
0.0
 11
1103.7528382216531
 21
-407.53744723640909
 31
0.0
  0
LINE
  5
32F
  8
2
 62
     7
 10
34.56876765745848
 20
-112.53744723640919
 30
0.0
 11
1854.5687676574589
 21
-112.53744723640919
 31
0.0
  0
LINE
  5
330
  8
2
 62
     7
 10
1443.7528382216531
 20
87.462552763590793
 30
0.0
 11
1443.7528382216531
 21
-407.53744723640909
 31
0.0
  0
LINE
  5
331
  8
2
 62
     7
 10
1853.7528382216531
 20
87.462552763590793
 30
0.0
 11
1853.7528382216531
 21
-505.03744723640921
 31
0.0
  0
LINE
  5
332
  8
2
 62
     7
 10
33.752838221654443
 20
-407.53744723640909
 30
0.0
 11
1853.7528382216531
 21
-407.53744723640909
 31
0.0
  0
LINE
  5
333
  8
2
 62
     7
 10
403.75283822165488
 20
-112.53744723640919
 30
0.0
 11
403.75283822165488
 21
-407.53744723640909
 31
0.0
  0
LINE
  5
334
  8
2
 62
     7
 10
1853.7528382216531
 20
-307.53744723640921
 30
0.0
 11
3533.7528382216542
 21
-307.53744723640921
 31
0.0
  0
LINE
  5
335
  8
2
 62
     7
 10
33.752838221654443
 20
4837.462552763589
 30
0.0
 11
33.752838221654443
 21
-702.53744723640921
 31
0.0
  0
LINE
  5
336
  8
2
 62
     7
 10
3533.7528382216542
 20
2067.462552763589
 30
0.0
 11
3687.9086407783739
 21
2067.462552763589
 31
0.0
  0
LINE
  5
337
  8
2
 62
     7
 10
1633.752838221654
 20
-702.53744723640921
 30
0.0
 11
1633.752838221654
 21
-842.22739074661376
 31
0.0
  0
LINE
  5
338
  8
2
 62
     7
 10
-397.79024755253539
 20
2067.462552763589
 30
0.0
 11
-314.4955529787091
 21
2067.462552763589
 31
0.0
  0
LINE
  5
339
  8
2
 62
     7
 10
1633.752838221654
 20
4995.9106768452293
 30
0.0
 11
1633.752838221654
 21
4837.462552763589
 31
0.0
  0
LINE
  5
33A
  8
2
  6
DASHDOT
 62
     7
 10
1211.4490060567341
 20
33.462352763590133
 30
0.0
 11
1211.4490060567341
 21
-58.537447236408333
 31
0.0
  0
LINE
  5
33B
  8
2
 62
     7
 10
1291.449006056735
 20
2.462552763590792
 30
0.0
 11
1371.4490060567341
 21
17.462552763590789
 31
0.0
  0
LINE
  5
33C
  8
2
 62
     7
 10
1371.4490060567341
 20
-42.537847236408219
 30
0.0
 11
1291.449006056735
 21
-27.537847236408211
 31
0.0
  0
LINE
  5
33D
  8
2
  6
DASHDOT
 62
     7
 10
1165.4490060567309
 20
-12.537447236409211
 30
0.0
 11
1257.4490060567341
 21
-12.537447236409211
 31
0.0
  0
LINE
  5
33E
  8
2
 62
     7
 10
1291.449006056735
 20
2.462552763590792
 30
0.0
 11
1291.449006056735
 21
-27.537847236408211
 31
0.0
  0
LINE
  5
33F
  8
2
 62
     7
 10
1371.4490060567341
 20
17.462552763590789
 30
0.0
 11
1371.4490060567341
 21
-42.537847236408219
 31
0.0
  0
LINE
  5
340
  8
2
  6
DASHDOT
 62
     7
 10
1275.4490060567341
 20
-12.537447236409211
 30
0.0
 11
1387.449006056738
 21
-12.537447236409211
 31
0.0
  0
LINE
  5
341
  8
2
 62
     7
 10
1853.7528382216531
 20
-505.03744723640921
 30
0.0
 11
3533.7528382216542
 21
-505.03744723640921
 31
0.0
  0
LINE
  5
342
  8
2
 62
     7
 10
3533.7528382216542
 20
-505.03744723640921
 30
0.0
 11
3533.7528382216542
 21
-702.53744723640921
 31
0.0
  0
LINE
  5
343
  8
2
 62
     7
 10
1853.7528382216531
 20
-505.03744723640921
 30
0.0
 11
1853.7528382216531
 21
-702.53744723640921
 31
0.0
  0
LINE
  5
344
  8
1
  6
CENTER
 62
     7
 10
1153.1395532679301
 20
1177.4625527635931
 30
0.0
 11
1056.273063380554
 21
1177.4625527635931
 31
0.0
  0
LINE
  5
345
  8
1
  6
CENTER
 62
     7
 10
1175.862075961064
 20
907.46255276359068
 30
0.0
 11
1231.934773122663
 21
907.46255276359068
 31
0.0
  0
LINE
  5
346
  8
1
  6
CENTER
 62
     7
 10
1203.752838221654
 20
963.95659445435956
 30
0.0
 11
1203.752838221654
 21
859.51252142263968
 31
0.0
  0
LINE
  5
347
  8
1
  6
CENTER
 62
     7
 10
1293.7551156396439
 20
3034.5205265920472
 30
0.0
 11
1293.7551156396439
 21
3094.9657798242702
 31
0.0
  0
LINE
  5
348
  8
1
  6
CENTER
 62
     7
 10
909.60748356522629
 20
3067.4622290353382
 30
0.0
 11
1371.7267670747731
 21
3067.4640852961461
 31
0.0
  0
LINE
  5
349
  8
1
  6
CENTER
 62
     7
 10
1103.7528382216531
 20
2874.4560185541159
 30
0.0
 11
1103.7528382216531
 21
3208.2229226897612
 31
0.0
  0
LINE
  5
34A
  8
1
  6
CENTER
 62
     7
 10
1103.7528382216531
 20
1403.3616879719709
 30
0.0
 11
1103.7528382216531
 21
1041.327473261216
 31
0.0
  0
LINE
  5
34B
  8
1
  6
DIVIDE
 62
     7
 10
2803.7528382216528
 20
1329.9938217105921
 30
0.0
 11
2803.7528382216528
 21
1193.463052763592
 31
0.0
  0
LINE
  5
34C
  8
1
  6
DIVIDE
 62
     7
 10
2803.7528382216528
 20
1161.4634527635919
 30
0.0
 11
2803.7528382216528
 21
917.96255276359125
 31
0.0
  0
LINE
  5
34D
  8
1
  6
DIVIDE
 62
     7
 10
2803.7528382216528
 20
1193.463052763592
 30
0.0
 11
2803.7528382216528
 21
1161.4634527635919
 31
0.0
  0
LINE
  5
34E
  8
1
  6
DIVIDE
 62
     7
 10
2803.7528382216528
 20
896.96255276359136
 30
0.0
 11
2803.7528382216528
 21
587.46255276359182
 31
0.0
  0
LINE
  5
34F
  8
1
  6
DIVIDE
 62
     7
 10
2803.7528382216528
 20
917.96255276359125
 30
0.0
 11
2803.7528382216528
 21
896.96255276359136
 31
0.0
  0
LINE
  5
350
  8
1
 62
     7
 10
2683.755861487854
 20
1287.456781872412
 30
0.0
 11
2683.755861487854
 21
1222.2412813659339
 31
0.0
  0
LINE
  5
351
  8
1
 62
     7
 10
2704.7569364170122
 20
1260.462474674109
 30
0.0
 11
2704.7569364170122
 21
1265.459723112077
 31
0.0
  0
LINE
  5
352
  8
1
 62
     7
 10
2662.7558364170118
 20
1260.462474674109
 30
0.0
 11
2662.7558364170118
 21
1265.459723112077
 31
0.0
  0
LINE
  5
353
  8
1
 62
     7
 10
2652.7553364170121
 20
1287.4556872259921
 30
0.0
 11
2652.7553364170121
 21
1281.4595231120779
 31
0.0
  0
LINE
  5
354
  8
1
 62
     7
 10
2714.755936417012
 20
1287.459081390869
 30
0.0
 11
2714.755936417012
 21
1281.4595231120779
 31
0.0
  0
LINE
  5
355
  8
1
 62
     7
 10
2703.0063798899791
 20
1387.4625514870511
 30
0.0
 11
2703.0040381181129
 21
1503.606517919171
 31
0.0
  0
LINE
  5
356
  8
1
  6
DIVIDE
 62
     7
 10
2733.7528382216519
 20
1287.4604905399269
 30
0.0
 11
2733.7528382216519
 21
1267.4627746741089
 31
0.0
  0
LINE
  5
357
  8
1
  6
DIVIDE
 62
     7
 10
2633.752838221651
 20
1287.456972443568
 30
0.0
 11
2633.752838221651
 21
1267.4627746741089
 31
0.0
  0
LINE
  5
358
  8
1
  6
DIVIDE
 62
     7
 10
2623.1674218673179
 20
1287.4627746741089
 30
0.0
 11
2523.7528382216519
 21
1287.4627746741089
 31
0.0
  0
LINE
  5
359
  8
1
  6
DIVIDE
 62
     7
 10
1225.461739355238
 20
3187.4625527635908
 30
0.0
 11
853.74992454176925
 21
3187.4625527635908
 31
0.0
  0
LINE
  5
35A
  8
1
 62
     7
 10
1241.7535265360091
 20
3057.8355574141851
 30
0.0
 11
1241.753638221654
 21
3019.4560852961458
 31
0.0
  0
LINE
  5
35B
  8
1
 62
     7
 10
1293.7557032406689
 20
1287.4627746741089
 30
0.0
 11
1293.7557032406689
 21
1222.6065143352489
 31
0.0
  0
LINE
  5
35C
  8
1
 62
     7
 10
1082.752838221654
 20
1260.462474674109
 30
0.0
 11
1082.752838221654
 21
1265.4629746741091
 31
0.0
  0
LINE
  5
35D
  8
1
 62
     7
 10
1124.7539382216539
 20
1260.462474674109
 30
0.0
 11
1124.7539382216539
 21
1265.4629746741091
 31
0.0
  0
LINE
  5
35E
  8
1
 62
     7
 10
1313.005812955231
 20
1387.4674553676
 30
0.0
 11
1313.0034639181731
 21
1503.9717508200249
 31
0.0
  0
LINE
  5
35F
  8
1
 62
     7
 10
1343.618262251726
 20
1387.4674555319541
 30
0.0
 11
1351.8096951585339
 21
1387.467455575932
 31
0.0
  0
LINE
  5
360
  8
1
 62
     7
 10
1293.7552382216541
 20
1387.467455264248
 30
0.0
 11
1343.618262251726
 21
1387.4674555319541
 31
0.0
  0
LINE
  5
361
  8
1
 62
     7
 10
1103.7528382216531
 20
1387.467454244156
 30
0.0
 11
1272.7624382216541
 21
1387.4674551515409
 31
0.0
  0
LINE
  5
362
  8
1
 62
     7
 10
1272.7624382216541
 20
1387.4674551515409
 30
0.0
 11
1293.7552382216541
 21
1387.467455264248
 31
0.0
  0
LINE
  5
363
  8
1
 62
     7
 10
963.92807189487019
 20
1387.470214914732
 30
0.0
 11
1103.7528382216531
 21
1387.467454244156
 31
0.0
  0
LINE
  5
364
  8
1
 62
     7
 10
1103.7528382216531
 20
1287.4627746741089
 30
0.0
 11
1081.304838221655
 21
1287.4627746741089
 31
0.0
  0
LINE
  5
365
  8
1
 62
     7
 10
1126.3064382216539
 20
1287.4627746741089
 30
0.0
 11
1103.7528382216531
 21
1287.4627746741089
 31
0.0
  0
LINE
  5
366
  8
1
 62
     7
 10
1081.304838221655
 20
1287.4627746741089
 30
0.0
 11
990.8000382216544
 21
1287.4627746741089
 31
0.0
  0
LINE
  5
367
  8
1
 62
     7
 10
1316.807238221654
 20
1287.4627746741089
 30
0.0
 11
1126.3064382216539
 21
1287.4627746741089
 31
0.0
  0
LINE
  5
368
  8
1
 62
     7
 10
1318.80270978313
 20
1291.0537857178931
 30
0.0
 11
1318.8027151909739
 21
1289.4690253042929
 31
0.0
  0
LINE
  5
369
  8
1
 62
     7
 10
1353.8056382216539
 20
1385.4627746741089
 30
0.0
 11
1353.8056382216539
 21
1372.4627746741089
 31
0.0
  0
LINE
  5
36A
  8
1
 62
     7
 10
955.80586606246914
 20
1387.467453449852
 30
0.0
 11
963.92807189487019
 21
1387.470214914732
 31
0.0
  0
LINE
  5
36B
  8
1
 62
     7
 10
953.7968382216543
 20
1372.4627746741089
 30
0.0
 11
953.7968382216543
 21
1385.4627746741089
 31
0.0
  0
LINE
  5
36C
  8
1
 62
     7
 10
988.79906510749925
 20
1289.4690245630611
 30
0.0
 11
988.7990650295103
 21
1291.053778942909
 31
0.0
  0
LINE
  5
36D
  8
1
  6
DIVIDE
 62
     7
 10
848.36174429403263
 20
1277.4627746741089
 30
0.0
 11
868.36174429403263
 21
1267.4627746741089
 31
0.0
  0
LINE
  5
36E
  8
1
  6
DIVIDE
 62
     7
 10
868.36174429403263
 20
1287.4627746741089
 30
0.0
 11
1431.4458608717241
 21
1287.4627746741089
 31
0.0
  0
LINE
  5
36F
  8
1
  6
DIVIDE
 62
     7
 10
868.36174429403263
 20
1287.4627746741089
 30
0.0
 11
848.36174429403263
 21
1277.4627746741089
 31
0.0
  0
LINE
  5
370
  8
1
  6
DIVIDE
 62
     7
 10
1431.4458608717241
 20
1287.4627746741089
 30
0.0
 11
1451.445860871723
 21
1277.4627746741089
 31
0.0
  0
LINE
  5
371
  8
1
  6
DIVIDE
 62
     7
 10
1451.445860871723
 20
1277.4627746741089
 30
0.0
 11
1431.445860871723
 21
1267.4627746741089
 31
0.0
  0
LINE
  5
372
  8
1
  6
DIVIDE
 62
     7
 10
1308.752838221654
 20
1287.4627746741089
 30
0.0
 11
1308.752838221654
 21
1267.4627746741089
 31
0.0
  0
LINE
  5
373
  8
1
  6
DIVIDE
 62
     7
 10
1043.752838221654
 20
1287.4627746741089
 30
0.0
 11
1043.752838221654
 21
1267.4627746741089
 31
0.0
  0
LINE
  5
374
  8
1
  6
DIVIDE
 62
     7
 10
1431.445860871723
 20
1267.4627746741089
 30
0.0
 11
868.36174429403263
 21
1267.4627746741089
 31
0.0
  0
LINE
  5
375
  8
1
 62
     7
 10
1274.504913999875
 20
1434.0930892824999
 30
0.0
 11
1274.5058540960861
 21
1387.4674551609
 31
0.0
  0
LINE
  5
376
  8
1
 62
     7
 10
1274.5038810684921
 20
1485.323037977138
 30
0.0
 11
1274.5045193159681
 21
1453.6680936166181
 31
0.0
  0
LINE
  5
377
  8
1
 62
     7
 10
1274.503735081139
 20
1492.563523405451
 30
0.0
 11
1274.5038810684921
 21
1485.323037977138
 31
0.0
  0
LINE
  5
378
  8
1
 62
     7
 10
1222.7540570597921
 20
1485.3226363570591
 30
0.0
 11
1274.5038810684921
 21
1485.323037977138
 31
0.0
  0
LINE
  5
379
  8
1
 62
     7
 10
1274.503505080005
 20
1503.9708119458489
 30
0.0
 11
1313.0034639181731
 21
1503.9717508200249
 31
0.0
  0
LINE
  5
37A
  8
1
 62
     7
 10
1313.0048224558229
 20
1493.967225842875
 30
0.0
 11
1274.504822464241
 21
1493.966283682392
 31
0.0
  0
LINE
  5
37B
  8
1
 62
     7
 10
1274.503505080005
 20
1503.9708119458489
 30
0.0
 11
1274.503735081139
 21
1492.563523405451
 31
0.0
  0
LINE
  5
37C
  8
1
 62
     7
 10
1204.753956164958
 20
1485.32249666186
 30
0.0
 11
1212.754057060047
 21
1485.322558749049
 31
0.0
  0
LINE
  5
37D
  8
1
 62
     7
 10
1204.753877861853
 20
1492.562982090697
 30
0.0
 11
1274.503735081139
 21
1492.563523405451
 31
0.0
  0
LINE
  5
37E
  8
1
 62
     7
 10
1196.880547014234
 20
1444.118168058528
 30
0.0
 11
1211.1159883109181
 21
1430.354738800821
 31
0.0
  0
LINE
  5
37F
  8
1
 62
     7
 10
1188.754708608174
 20
1421.4701217976101
 30
0.0
 11
1195.8724292565171
 21
1414.5884071687569
 31
0.0
  0
LINE
  5
380
  8
1
 62
     7
 10
1214.7305913329681
 20
1434.0933033814761
 30
0.0
 11
1195.8724292565171
 21
1414.5884071687569
 31
0.0
  0
LINE
  5
381
  8
1
 62
     7
 10
1274.504913999875
 20
1434.0930892824999
 30
0.0
 11
1214.7305913329681
 21
1434.0933033814761
 31
0.0
  0
LINE
  5
382
  8
1
 62
     7
 10
1206.1138206511921
 20
1453.6680936166181
 30
0.0
 11
1274.5045193159681
 21
1453.6680936166181
 31
0.0
  0
LINE
  5
383
  8
1
 62
     7
 10
1181.6369879598319
 20
1428.351836426463
 30
0.0
 11
1206.1138206511921
 21
1453.6680936166181
 31
0.0
  0
LINE
  5
384
  8
1
 62
     7
 10
1181.6369879598319
 20
1428.351836426463
 30
0.0
 11
1188.754708608174
 21
1421.4701217976101
 31
0.0
  0
LINE
  5
385
  8
1
 62
     7
 10
1082.752838221654
 20
1265.4629746741091
 30
0.0
 11
1124.7539382216539
 21
1265.4629746741091
 31
0.0
  0
LINE
  5
386
  8
1
 62
     7
 10
1078.7523382216541
 20
1281.4627746741089
 30
0.0
 11
1128.7529382216539
 21
1281.4627746741089
 31
0.0
  0
LINE
  5
387
  8
1
 62
     7
 10
1072.7523382216541
 20
1287.4627746741089
 30
0.0
 11
1134.752938221653
 21
1287.4627746741089
 31
0.0
  0
LINE
  5
388
  8
1
 62
     7
 10
1124.7539382216539
 20
1265.4629746741091
 30
0.0
 11
1128.7529382216539
 21
1265.4629746741091
 31
0.0
  0
LINE
  5
389
  8
1
 62
     7
 10
1128.7529382216539
 20
1281.4627746741089
 30
0.0
 11
1134.752938221653
 21
1281.4627746741089
 31
0.0
  0
LINE
  5
38A
  8
1
 62
     7
 10
1128.7529382216539
 20
1265.4629746741091
 30
0.0
 11
1128.7529382216539
 21
1281.4627746741089
 31
0.0
  0
LINE
  5
38B
  8
1
 62
     7
 10
1078.7523382216541
 20
1265.4629746741091
 30
0.0
 11
1078.7523382216541
 21
1281.4627746741089
 31
0.0
  0
LINE
  5
38C
  8
1
 62
     7
 10
1078.7523382216541
 20
1265.4629746741091
 30
0.0
 11
1082.752838221654
 21
1265.4629746741091
 31
0.0
  0
LINE
  5
38D
  8
1
 62
     7
 10
1072.7523382216541
 20
1287.4627746741089
 30
0.0
 11
1072.7523382216541
 21
1281.4627746741089
 31
0.0
  0
LINE
  5
38E
  8
1
 62
     7
 10
1134.752938221653
 20
1287.4627746741089
 30
0.0
 11
1134.752938221653
 21
1281.4627746741089
 31
0.0
  0
LINE
  5
38F
  8
1
 62
     7
 10
1072.7523382216541
 20
1281.4627746741089
 30
0.0
 11
1078.7523382216541
 21
1281.4627746741089
 31
0.0
  0
LINE
  5
390
  8
1
 62
     7
 10
1083.753262221654
 20
1148.7353198562021
 30
0.0
 11
1083.753262221654
 21
1095.4620527635921
 31
0.0
  0
LINE
  5
391
  8
1
 62
     7
 10
1123.7531382216539
 20
1148.735717864497
 30
0.0
 11
1123.7531382216539
 21
1095.4620527635921
 31
0.0
  0
LINE
  5
392
  8
1
 62
     7
 10
1123.7531382216539
 20
1206.1885456937009
 30
0.0
 11
1123.7531382216539
 21
1199.4630527635929
 31
0.0
  0
LINE
  5
393
  8
1
 62
     7
 10
1083.753262221654
 20
1206.189429353672
 30
0.0
 11
1083.753262221654
 21
1199.4630527635929
 31
0.0
  0
LINE
  5
394
  8
1
 62
     7
 10
1125.7531382216539
 20
1245.9626946741089
 30
0.0
 11
1125.7531382216539
 21
1260.462474674109
 31
0.0
  0
LINE
  5
395
  8
1
 62
     7
 10
1081.753262221654
 20
1245.9626946741089
 30
0.0
 11
1081.753262221654
 21
1260.462474674109
 31
0.0
  0
LINE
  5
396
  8
1
 62
     7
 10
1081.753262221654
 20
1260.462474674109
 30
0.0
 11
1103.7528382216531
 21
1260.462474674109
 31
0.0
  0
LINE
  5
397
  8
1
 62
     7
 10
1081.753262221654
 20
1245.9626946741089
 30
0.0
 11
1090.752358221654
 21
1245.9626946741089
 31
0.0
  0
LINE
  5
398
  8
1
 62
     7
 10
1083.753262221654
 20
1210.4626527635919
 30
0.0
 11
1090.752358221654
 21
1210.4626527635919
 31
0.0
  0
LINE
  5
399
  8
1
 62
     7
 10
1083.753262221654
 20
1210.4626527635919
 30
0.0
 11
1083.753262221654
 21
1206.189429353672
 31
0.0
  0
LINE
  5
39A
  8
1
 62
     7
 10
1123.7531382216539
 20
1210.4626527635919
 30
0.0
 11
1123.7531382216539
 21
1206.1885456937009
 31
0.0
  0
LINE
  5
39B
  8
1
 62
     7
 10
1083.753262221654
 20
1095.4620527635921
 30
0.0
 11
1103.7528382216531
 21
1095.4620527635921
 31
0.0
  0
LINE
  5
39C
  8
1
 62
     7
 10
1083.753262221654
 20
1199.4630527635929
 30
0.0
 11
1103.7528382216531
 21
1199.4630527635929
 31
0.0
  0
LINE
  5
39D
  8
1
 62
     7
 10
1090.752358221654
 20
1245.9626946741089
 30
0.0
 11
1090.752358221654
 21
1210.4626527635919
 31
0.0
  0
LINE
  5
39E
  8
1
 62
     7
 10
1116.7526382216529
 20
1210.4626527635919
 30
0.0
 11
1116.7526382216529
 21
1245.9626946741089
 31
0.0
  0
LINE
  5
39F
  8
1
 62
     7
 10
1123.7531382216539
 20
1199.4630527635929
 30
0.0
 11
1123.7531382216539
 21
1177.4625527635919
 31
0.0
  0
LINE
  5
3A0
  8
1
 62
     7
 10
1083.753262221654
 20
1199.4630527635929
 30
0.0
 11
1083.753262221654
 21
1177.4625527635919
 31
0.0
  0
LINE
  5
3A1
  8
1
 62
     7
 10
1123.7531382216539
 20
1177.4625527635919
 30
0.0
 11
1123.7531382216539
 21
1148.735717864497
 31
0.0
  0
LINE
  5
3A2
  8
1
 62
     7
 10
1083.753262221654
 20
1177.4625527635919
 30
0.0
 11
1083.753262221654
 21
1148.7353198562021
 31
0.0
  0
LINE
  5
3A3
  8
1
 62
     7
 10
1116.7526382216529
 20
1210.4626527635919
 30
0.0
 11
1123.7531382216539
 21
1210.4626527635919
 31
0.0
  0
LINE
  5
3A4
  8
1
 62
     7
 10
1116.7526382216529
 20
1245.9626946741089
 30
0.0
 11
1125.7531382216539
 21
1245.9626946741089
 31
0.0
  0
LINE
  5
3A5
  8
1
 62
     7
 10
1090.752358221654
 20
1210.4626527635919
 30
0.0
 11
1103.7528382216531
 21
1210.4626527635919
 31
0.0
  0
LINE
  5
3A6
  8
1
 62
     7
 10
1090.752358221654
 20
1245.9626946741089
 30
0.0
 11
1103.7528382216531
 21
1245.9626946741089
 31
0.0
  0
LINE
  5
3A7
  8
1
 62
     7
 10
1103.7528382216531
 20
1199.4630527635929
 30
0.0
 11
1123.7531382216539
 21
1199.4630527635929
 31
0.0
  0
LINE
  5
3A8
  8
1
 62
     7
 10
1103.7528382216531
 20
1095.4620527635921
 30
0.0
 11
1123.7531382216539
 21
1095.4620527635921
 31
0.0
  0
LINE
  5
3A9
  8
1
 62
     7
 10
1103.7528382216531
 20
1210.4626527635919
 30
0.0
 11
1116.7526382216529
 21
1210.4626527635919
 31
0.0
  0
LINE
  5
3AA
  8
1
 62
     7
 10
1103.7528382216531
 20
1245.9626946741089
 30
0.0
 11
1116.7526382216529
 21
1245.9626946741089
 31
0.0
  0
LINE
  5
3AB
  8
1
 62
     7
 10
1103.7528382216531
 20
1260.462474674109
 30
0.0
 11
1125.7531382216539
 21
1260.462474674109
 31
0.0
  0
LINE
  5
3AC
  8
1
 62
     7
 10
1208.7522189877359
 20
897.66418786775751
 30
0.0
 11
1207.2531137118799
 21
894.42416330187041
 31
0.0
  0
LINE
  5
3AD
  8
1
 62
     7
 10
1198.7527837253681
 20
897.66434721595965
 30
0.0
 11
1200.251938221654
 21
894.42416169924252
 31
0.0
  0
LINE
  5
3AE
  8
1
 62
     7
 10
1213.2531382216539
 20
922.46306169924264
 30
0.0
 11
1213.2531382216539
 21
917.00966169924243
 31
0.0
  0
LINE
  5
3AF
  8
1
 62
     7
 10
1194.252638221654
 20
922.46306169924264
 30
0.0
 11
1194.211238221653
 21
917.01306169924248
 31
0.0
  0
LINE
  5
3B0
  8
1
 62
     7
 10
1213.2531382216539
 20
922.46306169924264
 30
0.0
 11
1214.2529382216539
 21
923.46206169924255
 31
0.0
  0
LINE
  5
3B1
  8
1
 62
     7
 10
1193.2521382216539
 20
923.46206169924255
 30
0.0
 11
1194.252638221654
 21
922.46306169924264
 31
0.0
  0
LINE
  5
3B2
  8
1
 62
     7
 10
1214.2529382216539
 20
923.46206169924255
 30
0.0
 11
1214.2529382216539
 21
925.46306183244235
 31
0.0
  0
LINE
  5
3B3
  8
1
 62
     7
 10
1193.2521382216539
 20
923.46206169924255
 30
0.0
 11
1193.2521382216539
 21
925.46306156603532
 31
0.0
  0
LINE
  5
3B4
  8
1
 62
     7
 10
1192.7670382216529
 20
908.03166169924259
 30
0.0
 11
1190.7103483010781
 21
910.9497054344904
 31
0.0
  0
LINE
  5
3B5
  8
1
 62
     7
 10
1197.767338221654
 20
916.69206169924257
 30
0.0
 11
1194.211238221653
 21
917.01306169924248
 31
0.0
  0
LINE
  5
3B6
  8
1
 62
     7
 10
1209.7377382216539
 20
916.69206169924257
 30
0.0
 11
1213.2531382216539
 21
917.00966169924243
 31
0.0
  0
LINE
  5
3B7
  8
1
 62
     7
 10
1214.7379382216541
 20
908.03166169924259
 30
0.0
 11
1216.7947090757721
 21
910.94970108294797
 31
0.0
  0
LINE
  5
3B8
  8
1
 62
     7
 10
1203.752848341687
 20
1011.824872957372
 30
0.0
 11
1203.752848341687
 21
961.82487295737155
 31
0.0
  0
LINE
  5
3B9
  8
1
 62
     7
 10
1293.7557032406689
 20
1222.6065143352489
 30
0.0
 11
1203.752848341687
 21
1011.824872957372
 31
0.0
  0
LINE
  5
3BA
  8
1
 62
     7
 10
1198.7539483416861
 20
939.96356060218579
 30
0.0
 11
1192.2539471868699
 21
939.96356068452576
 31
0.0
  0
LINE
  5
3BB
  8
1
 62
     7
 10
1208.752848341687
 20
941.74537468120411
 30
0.0
 11
1210.0408180063489
 21
941.74537512525262
 31
0.0
  0
LINE
  5
3BC
  8
1
 62
     7
 10
1215.25443500543
 20
939.96356039316265
 30
0.0
 11
1208.752848341687
 21
939.96356047552274
 31
0.0
  0
LINE
  5
3BD
  8
1
 62
     7
 10
1208.752848341687
 20
939.96356047552274
 30
0.0
 11
1198.7539483416861
 21
939.96356060218579
 31
0.0
  0
LINE
  5
3BE
  8
1
 62
     7
 10
1215.2544360743941
 20
925.46306184514685
 30
0.0
 11
1192.2539018999339
 21
925.46306155337197
 31
0.0
  0
LINE
  5
3BF
  8
1
 62
     7
 10
1193.341419826904
 20
925.46306156716787
 30
0.0
 11
1193.2541401483061
 21
925.46306156606067
 31
0.0
  0
LINE
  5
3C0
  8
1
 62
     7
 10
1211.1338483416871
 20
961.82487295737155
 30
0.0
 11
1203.752848341687
 21
961.82487295737155
 31
0.0
  0
LINE
  5
3C1
  8
1
 62
     7
 10
1196.372648341687
 20
961.82487295737155
 30
0.0
 11
1203.752848341687
 21
961.82487295737155
 31
0.0
  0
LINE
  5
3C2
  8
1
 62
     7
 10
1198.7539483416861
 20
941.74537295737173
 30
0.0
 11
1197.4654483416871
 21
941.74537295737173
 31
0.0
  0
LINE
  5
3C3
  8
1
 62
     7
 10
1217.75443604268
 20
927.96306212642673
 30
0.0
 11
1217.7544349737609
 21
937.46356067444276
 31
0.0
  0
LINE
  5
3C4
  8
1
 62
     7
 10
1189.7539018682501
 20
927.96307347037214
 30
0.0
 11
1189.7539471552291
 21
937.46357260152558
 31
0.0
  0
LINE
  5
3C5
  8
1
 62
     7
 10
1211.1338483416871
 20
961.82487295737155
 30
0.0
 11
1211.1338483416871
 21
955.06967295737172
 31
0.0
  0
LINE
  5
3C6
  8
1
 62
     7
 10
1210.040848341687
 20
953.97417295737182
 30
0.0
 11
1210.040818062952
 21
945.35447984034431
 31
0.0
  0
LINE
  5
3C7
  8
1
 62
     7
 10
1210.040848341687
 20
953.97417295737182
 30
0.0
 11
1211.1338483416871
 21
955.06967295737172
 31
0.0
  0
LINE
  5
3C8
  8
1
 62
     7
 10
1208.752848341687
 20
939.96356047552274
 30
0.0
 11
1208.752848341687
 21
941.74537468120411
 31
0.0
  0
LINE
  5
3C9
  8
1
 62
     7
 10
1203.752848341687
 20
941.74537295737173
 30
0.0
 11
1208.752848341687
 21
941.74537468120411
 31
0.0
  0
LINE
  5
3CA
  8
1
 62
     7
 10
1196.372648341687
 20
961.82487295737155
 30
0.0
 11
1196.372648341687
 21
955.06967295737172
 31
0.0
  0
LINE
  5
3CB
  8
1
 62
     7
 10
1197.4654483416871
 20
953.97417295737182
 30
0.0
 11
1197.4654483416871
 21
945.35447295737163
 31
0.0
  0
LINE
  5
3CC
  8
1
 62
     7
 10
1197.4654483416871
 20
953.97417295737182
 30
0.0
 11
1196.372648341687
 21
955.06967295737172
 31
0.0
  0
LINE
  5
3CD
  8
1
 62
     7
 10
1198.7539483416861
 20
939.96356060218579
 30
0.0
 11
1198.7539483416861
 21
941.74537295737173
 31
0.0
  0
LINE
  5
3CE
  8
1
 62
     7
 10
1203.752848341687
 20
941.74537295737173
 30
0.0
 11
1198.7539483416861
 21
941.74537295737173
 31
0.0
  0
LINE
  5
3CF
  8
1
  6
DIVIDE
 62
     7
 10
903.74992454176925
 20
2977.4625527635899
 30
0.0
 11
850.67137876275683
 21
2907.4625527635908
 31
0.0
  0
LINE
  5
3D0
  8
1
  6
DIVIDE
 62
     7
 10
1412.990074162522
 20
2977.4625527635899
 30
0.0
 11
1453.7554953404469
 21
2907.4625527635908
 31
0.0
  0
LINE
  5
3D1
  8
1
 62
     7
 10
1045.7482164689241
 20
3167.4629572551471
 30
0.0
 11
1005.746290832325
 21
3167.4629572550489
 31
0.0
  0
LINE
  5
3D2
  8
1
 62
     7
 10
1261.7489426353879
 20
3167.462957255666
 30
0.0
 11
1103.7528382216531
 21
3167.4629572552858
 31
0.0
  0
LINE
  5
3D3
  8
1
  6
DIVIDE
 62
     7
 10
853.74992454176925
 20
3047.4648396102398
 30
0.0
 11
903.74992454176925
 21
2977.4625527635899
 31
0.0
  0
LINE
  5
3D4
  8
1
  6
DIVIDE
 62
     7
 10
903.74992454176925
 20
3117.2315276609602
 30
0.0
 11
853.74992454176925
 21
3047.4648396102398
 31
0.0
  0
LINE
  5
3D5
  8
1
 62
     7
 10
965.74716619752928
 20
3067.464085296147
 30
0.0
 11
965.74723822165481
 21
3019.4560852961458
 31
0.0
  0
LINE
  5
3D6
  8
1
 62
     7
 10
953.74972625132204
 20
3067.464085296147
 30
0.0
 11
953.7496382216541
 21
3019.4560852961458
 31
0.0
  0
LINE
  5
3D7
  8
1
 62
     7
 10
1103.7528382216531
 20
3155.460170035748
 30
0.0
 11
1005.746293606853
 21
3155.4601709659541
 31
0.0
  0
LINE
  5
3D8
  8
1
 62
     7
 10
1103.7528382216531
 20
3167.4629572552858
 30
0.0
 11
1045.7482164689241
 21
3167.4629572551471
 31
0.0
  0
LINE
  5
3D9
  8
1
 62
     7
 10
1103.7528382216531
 20
3187.4625490222788
 30
0.0
 11
1251.746954880261
 21
3187.4625535715941
 31
0.0
  0
LINE
  5
3DA
  8
1
 62
     7
 10
1293.7552382216541
 20
2967.4601174546328
 30
0.0
 11
1301.7507703380929
 21
2967.460117459033
 31
0.0
  0
LINE
  5
3DB
  8
1
 62
     7
 10
1241.753638221654
 20
2967.4601174260179
 30
0.0
 11
1293.7552382216541
 21
2967.4601174546328
 31
0.0
  0
LINE
  5
3DC
  8
1
 62
     7
 10
1293.7552382216541
 20
2979.460157103344
 30
0.0
 11
1301.7507701467939
 21
2979.46015731941
 31
0.0
  0
LINE
  5
3DD
  8
1
 62
     7
 10
1241.753638221654
 20
2979.4601556980851
 30
0.0
 11
1293.7552382216541
 21
2979.460157103344
 31
0.0
  0
LINE
  5
3DE
  8
1
 62
     7
 10
1201.7459081662359
 20
2979.4601496739861
 30
0.0
 11
1241.753638221654
 21
2979.4601556980851
 31
0.0
  0
LINE
  5
3DF
  8
1
 62
     7
 10
1353.7554981188091
 20
3067.464085296147
 30
0.0
 11
1353.75550218023
 21
3115.4623530184831
 31
0.0
  0
LINE
  5
3E0
  8
1
 62
     7
 10
1341.749793410228
 20
3067.464085296147
 30
0.0
 11
1341.74994856736
 21
3115.4623591151139
 31
0.0
  0
LINE
  5
3E1
  8
1
 62
     7
 10
1253.748038221654
 20
3185.464085296147
 30
0.0
 11
1253.748038221654
 21
3175.4560852961458
 31
0.0
  0
LINE
  5
3E2
  8
1
 62
     7
 10
1055.750098728623
 20
3187.4625475466819
 30
0.0
 11
1103.7528382216531
 21
3187.4625490222788
 31
0.0
  0
LINE
  5
3E3
  8
1
 62
     7
 10
1053.7488382216541
 20
3175.4560852961458
 30
0.0
 11
1053.7488382216541
 21
3185.4640852961461
 31
0.0
  0
LINE
  5
3E4
  8
1
 62
     7
 10
1241.753358839956
 20
3115.4623534985622
 30
0.0
 11
1241.7534705196581
 21
3077.0849244488581
 31
0.0
  0
LINE
  5
3E5
  8
1
 62
     7
 10
953.74981426311479
 20
3115.4623368313619
 30
0.0
 11
953.74972625132204
 21
3067.464085296147
 31
0.0
  0
LINE
  5
3E6
  8
1
 62
     7
 10
1301.7507728202429
 20
3167.4629572557619
 30
0.0
 11
1261.7489426353879
 21
3167.462957255666
 31
0.0
  0
LINE
  5
3E7
  8
1
 62
     7
 10
1353.755494056606
 20
3019.4565821851302
 30
0.0
 11
1353.7554981188091
 21
3067.464085296147
 31
0.0
  0
LINE
  5
3E8
  8
1
 62
     7
 10
1005.746296371843
 20
2967.4601172961479
 30
0.0
 11
1241.753638221654
 21
2967.4601174260179
 31
0.0
  0
LINE
  5
3E9
  8
1
 62
     7
 10
965.74709418797931
 20
3115.4623705505378
 30
0.0
 11
965.74716619752928
 21
3067.464085296147
 31
0.0
  0
LINE
  5
3EA
  8
1
 62
     7
 10
1301.7507684469149
 20
3155.4601681564982
 30
0.0
 11
1103.7528382216531
 21
3155.460170035748
 31
0.0
  0
LINE
  5
3EB
  8
1
 62
     7
 10
1341.749638221655
 20
3019.4560852961458
 30
0.0
 11
1341.749793410228
 21
3067.464085296147
 31
0.0
  0
LINE
  5
3EC
  8
1
 62
     7
 10
1005.7462942199789
 20
2979.46014932037
 30
0.0
 11
1201.7459081662359
 21
2979.4601496739861
 31
0.0
  0
LINE
  5
3ED
  8
1
  6
DIVIDE
 62
     7
 10
850.67137876275683
 20
2907.4625527635908
 30
0.0
 11
1453.7554953404469
 21
2907.4625527635908
 31
0.0
  0
LINE
  5
3EE
  8
1
  6
DIVIDE
 62
     7
 10
1453.7554953404469
 20
3187.4625527635908
 30
0.0
 11
1251.746976650204
 21
3187.4625527635908
 31
0.0
  0
LINE
  5
3EF
  8
1
  6
DIVIDE
 62
     7
 10
853.74992454176925
 20
3187.4625527635908
 30
0.0
 11
903.74992454176925
 21
3117.2315276609602
 31
0.0
  0
LINE
  5
3F0
  8
1
  6
DIVIDE
 62
     7
 10
1453.7554953404469
 20
3047.4648396102398
 30
0.0
 11
1412.990074162522
 21
2977.4625527635899
 31
0.0
  0
LINE
  5
3F1
  8
1
  6
DIVIDE
 62
     7
 10
1410.180618052756
 20
3117.2315276609611
 30
0.0
 11
1453.7554953404469
 21
3047.4648396102398
 31
0.0
  0
LINE
  5
3F2
  8
1
  6
DIVIDE
 62
     7
 10
1453.7554953404469
 20
3187.4625527635908
 30
0.0
 11
1410.180618052756
 21
3117.2315276609611
 31
0.0
  0
LINE
  5
3F3
  8
1
 62
     7
 10
1276.221164174055
 20
3077.0849244488581
 30
0.0
 11
1188.238011763063
 21
3077.0849244488581
 31
0.0
  0
LINE
  5
3F4
  8
1
 62
     7
 10
1188.238430457799
 20
3057.8343189370712
 30
0.0
 11
1276.224946996728
 21
3057.8363551716111
 31
0.0
  0
LINE
  5
3F5
  8
1
 62
     7
 10
1204.7551156396439
 20
3063.8429560049799
 30
0.0
 11
1274.085583203238
 21
3063.8433818101971
 31
0.0
  0
LINE
  5
3F6
  8
1
 62
     7
 10
1204.7551156396439
 20
3071.0834414341571
 30
0.0
 11
1274.085413590773
 21
3071.0838672382788
 31
0.0
  0
LINE
  5
3F7
  8
1
 62
     7
 10
2660.0276859795031
 20
1387.462550464825
 30
0.0
 11
2585.7540876512589
 21
1387.4625486982629
 31
0.0
  0
LINE
  5
3F8
  8
1
 62
     7
 10
2683.7558364170118
 20
1387.4625510291869
 30
0.0
 11
2660.0276859795031
 21
1387.462550464825
 31
0.0
  0
LINE
  5
3F9
  8
1
 62
     7
 10
2661.2518364170119
 20
1287.4551125725429
 30
0.0
 11
2623.253499969604
 21
1287.4576825572551
 31
0.0
  0
LINE
  5
3FA
  8
1
 62
     7
 10
2683.7558364170118
 20
1287.4595231120779
 30
0.0
 11
2661.2518364170119
 21
1287.4551125725429
 31
0.0
  0
LINE
  5
3FB
  8
1
 62
     7
 10
2801.7478364170111
 20
1287.463112572543
 30
0.0
 11
2683.7558364170118
 21
1287.4595231120779
 31
0.0
  0
LINE
  5
3FC
  8
1
 62
     7
 10
2803.7528385154269
 20
1355.4560331937589
 30
0.0
 11
2803.7528377540038
 21
1289.461367148999
 31
0.0
  0
LINE
  5
3FD
  8
1
 62
     7
 10
2746.259836417013
 20
1289.463112572543
 30
0.0
 11
2746.259836417013
 21
1290.079112572543
 31
0.0
  0
LINE
  5
3FE
  8
1
 62
     7
 10
2783.760137783996
 20
1365.460648531687
 30
0.0
 11
2783.7601409710451
 21
1385.4643826518709
 31
0.0
  0
LINE
  5
3FF
  8
1
 62
     7
 10
2801.7478364170111
 20
1357.463112572543
 30
0.0
 11
2791.7528133678602
 21
1357.4624649048701
 31
0.0
  0
LINE
  5
400
  8
1
 62
     7
 10
2621.2518364170119
 20
1290.079112572543
 30
0.0
 11
2621.2498183455491
 21
1289.464119223959
 31
0.0
  0
LINE
  5
401
  8
1
 62
     7
 10
2583.747836417012
 20
1385.455112572542
 30
0.0
 11
2583.747836417012
 21
1362.463112572543
 31
0.0
  0
LINE
  5
402
  8
1
 62
     7
 10
2783.760137783996
 20
1365.460648531687
 30
0.0
 11
2783.7601329553481
 21
1362.467530250615
 31
0.0
  0
LINE
  5
403
  8
1
 62
     7
 10
2781.7481901573069
 20
1387.4625533598869
 30
0.0
 11
2683.7558364170118
 21
1387.4625510291869
 31
0.0
  0
LINE
  5
404
  8
1
  6
DIVIDE
 62
     7
 10
2523.7528382216519
 20
1287.4627746741089
 30
0.0
 11
2523.7528382216519
 21
1267.4627746741089
 31
0.0
  0
LINE
  5
405
  8
1
  6
DIVIDE
 62
     7
 10
2803.7528382216519
 20
1267.4627746741089
 30
0.0
 11
2803.7528382216519
 21
1287.4627746741089
 31
0.0
  0
LINE
  5
406
  8
1
  6
DIVIDE
 62
     7
 10
2803.7528382216519
 20
1287.4627746741089
 30
0.0
 11
2790.6405091696729
 21
1287.4627746741089
 31
0.0
  0
LINE
  5
407
  8
1
  6
DIVIDE
 62
     7
 10
2523.7528382216519
 20
1267.4627746741089
 30
0.0
 11
2803.7528382216519
 21
1267.4627746741089
 31
0.0
  0
LINE
  5
408
  8
1
 62
     7
 10
2664.5040792799459
 20
1503.605579044995
 30
0.0
 11
2703.0040381181129
 21
1503.606517919171
 31
0.0
  0
LINE
  5
409
  8
1
 62
     7
 10
2703.005396655763
 20
1493.6019929420211
 30
0.0
 11
2664.5053966641831
 21
1493.6010507815381
 31
0.0
  0
LINE
  5
40A
  8
1
 62
     7
 10
2664.5040792799459
 20
1503.605579044995
 30
0.0
 11
2664.5064210308551
 21
1387.4625505713479
 31
0.0
  0
LINE
  5
40B
  8
1
 62
     7
 10
2652.7553364170121
 20
1281.4595231120779
 30
0.0
 11
2658.7553364170121
 21
1281.4595231120779
 31
0.0
  0
LINE
  5
40C
  8
1
 62
     7
 10
2658.7553364170121
 20
1265.459723112077
 30
0.0
 11
2662.7558364170118
 21
1265.459723112077
 31
0.0
  0
LINE
  5
40D
  8
1
 62
     7
 10
2658.7553364170121
 20
1265.459723112077
 30
0.0
 11
2658.7553364170121
 21
1281.4595231120779
 31
0.0
  0
LINE
  5
40E
  8
1
 62
     7
 10
2708.7559364170111
 20
1265.459723112077
 30
0.0
 11
2708.7559364170111
 21
1281.4595231120779
 31
0.0
  0
LINE
  5
40F
  8
1
 62
     7
 10
2708.7559364170111
 20
1281.4595231120779
 30
0.0
 11
2714.755936417012
 21
1281.4595231120779
 31
0.0
  0
LINE
  5
410
  8
1
 62
     7
 10
2704.7569364170122
 20
1265.459723112077
 30
0.0
 11
2708.7559364170111
 21
1265.459723112077
 31
0.0
  0
LINE
  5
411
  8
1
 62
     7
 10
2658.7553364170121
 20
1281.4595231120779
 30
0.0
 11
2708.7559364170111
 21
1281.4595231120779
 31
0.0
  0
LINE
  5
412
  8
1
 62
     7
 10
2662.7558364170118
 20
1265.459723112077
 30
0.0
 11
2704.7569364170122
 21
1265.459723112077
 31
0.0
  0
LINE
  5
413
  8
1
 62
     7
 10
2708.7558364170118
 20
1161.463447287412
 30
0.0
 11
2703.7558186489541
 21
1161.463447174734
 31
0.0
  0
LINE
  5
414
  8
1
 62
     7
 10
2705.7558364170118
 20
1245.9626946741089
 30
0.0
 11
2705.7558364170118
 21
1260.462474674109
 31
0.0
  0
LINE
  5
415
  8
1
 62
     7
 10
2661.7558364170118
 20
1245.9626946741089
 30
0.0
 11
2661.7558364170118
 21
1260.462474674109
 31
0.0
  0
LINE
  5
416
  8
1
 62
     7
 10
2661.7558364170118
 20
1260.462474674109
 30
0.0
 11
2683.7558364170118
 21
1260.462474674109
 31
0.0
  0
LINE
  5
417
  8
1
 62
     7
 10
2661.7558364170118
 20
1245.9626946741089
 30
0.0
 11
2670.7558364170118
 21
1245.9626946741089
 31
0.0
  0
LINE
  5
418
  8
1
 62
     7
 10
2663.7558364170118
 20
1210.4626527635919
 30
0.0
 11
2670.7558364170118
 21
1210.4626527635919
 31
0.0
  0
LINE
  5
419
  8
1
 62
     7
 10
2791.7528382216519
 20
1142.4629527635921
 30
0.0
 11
2803.7528382216528
 21
1142.4629527635921
 31
0.0
  0
LINE
  5
41A
  8
1
 62
     7
 10
2791.7528382216519
 20
1212.4635527635919
 30
0.0
 11
2803.7528382216528
 21
1212.4635527635919
 31
0.0
  0
LINE
  5
41B
  8
1
 62
     7
 10
2791.7528382216519
 20
1212.4635527635919
 30
0.0
 11
2791.7528382216519
 21
1193.463052763592
 31
0.0
  0
LINE
  5
41C
  8
1
 62
     7
 10
2803.7528382216528
 20
1212.4635527635919
 30
0.0
 11
2803.7528382216528
 21
1193.463052763592
 31
0.0
  0
LINE
  5
41D
  8
1
 62
     7
 10
2843.7528382216519
 20
1193.463052763592
 30
0.0
 11
2843.7528382216519
 21
1177.4625527635919
 31
0.0
  0
LINE
  5
41E
  8
1
 62
     7
 10
2791.7528382216519
 20
1161.4634527635919
 30
0.0
 11
2708.7558364170118
 21
1161.463447287412
 31
0.0
  0
LINE
  5
41F
  8
1
 62
     7
 10
2843.7528382216519
 20
1161.4634527635919
 30
0.0
 11
2803.7528382216528
 21
1161.4634527635919
 31
0.0
  0
LINE
  5
420
  8
1
 62
     7
 10
2791.7528382216519
 20
1193.463052763592
 30
0.0
 11
2708.7558364170118
 21
1193.463052763592
 31
0.0
  0
LINE
  5
421
  8
1
 62
     7
 10
2843.7528382216519
 20
1193.463052763592
 30
0.0
 11
2803.7528382216528
 21
1193.463052763592
 31
0.0
  0
LINE
  5
422
  8
1
 62
     7
 10
2663.7558364170118
 20
1210.4626527635919
 30
0.0
 11
2663.7558364170118
 21
1199.463052763592
 31
0.0
  0
LINE
  5
423
  8
1
 62
     7
 10
2708.7558364170118
 20
1193.463052763592
 30
0.0
 11
2708.7558364170118
 21
1177.4625527635919
 31
0.0
  0
LINE
  5
424
  8
1
 62
     7
 10
2703.7558364170118
 20
1210.4626527635919
 30
0.0
 11
2703.7558364170118
 21
1199.463052763592
 31
0.0
  0
LINE
  5
425
  8
1
 62
     7
 10
2663.7558364170118
 20
1095.4620527635921
 30
0.0
 11
2683.7558364170118
 21
1095.4620527635921
 31
0.0
  0
LINE
  5
426
  8
1
 62
     7
 10
2663.7558364170118
 20
1199.463052763592
 30
0.0
 11
2683.7558364170118
 21
1199.463052763592
 31
0.0
  0
LINE
  5
427
  8
1
 62
     7
 10
2670.7558364170118
 20
1245.9626946741089
 30
0.0
 11
2670.7558364170118
 21
1210.4626527635919
 31
0.0
  0
LINE
  5
428
  8
1
 62
     7
 10
2696.7558364170118
 20
1210.4626527635919
 30
0.0
 11
2696.7558364170118
 21
1245.9626946741089
 31
0.0
  0
LINE
  5
429
  8
1
 62
     7
 10
2803.7528382216528
 20
1161.4634527635919
 30
0.0
 11
2803.7528382216528
 21
1142.4629527635921
 31
0.0
  0
LINE
  5
42A
  8
1
 62
     7
 10
2803.7528382216528
 20
1193.463052763592
 30
0.0
 11
2803.7528382216528
 21
1177.4625527635919
 31
0.0
  0
LINE
  5
42B
  8
1
 62
     7
 10
2703.7558364170118
 20
1199.463052763592
 30
0.0
 11
2703.7558364170118
 21
1193.463052763592
 31
0.0
  0
LINE
  5
42C
  8
1
 62
     7
 10
2663.7558364170118
 20
1199.463052763592
 30
0.0
 11
2663.7558364170118
 21
1095.4620527635921
 31
0.0
  0
LINE
  5
42D
  8
1
 62
     7
 10
2696.7558364170118
 20
1210.4626527635919
 30
0.0
 11
2703.7558364170118
 21
1210.4626527635919
 31
0.0
  0
LINE
  5
42E
  8
1
 62
     7
 10
2696.7558364170118
 20
1245.9626946741089
 30
0.0
 11
2705.7558364170118
 21
1245.9626946741089
 31
0.0
  0
LINE
  5
42F
  8
1
 62
     7
 10
2670.7558364170118
 20
1210.4626527635919
 30
0.0
 11
2683.7558364170118
 21
1210.4626527635919
 31
0.0
  0
LINE
  5
430
  8
1
 62
     7
 10
2670.7558364170118
 20
1245.9626946741089
 30
0.0
 11
2683.7558364170118
 21
1245.9626946741089
 31
0.0
  0
LINE
  5
431
  8
1
 62
     7
 10
2683.7558364170118
 20
1199.463052763592
 30
0.0
 11
2703.7558364170118
 21
1199.463052763592
 31
0.0
  0
LINE
  5
432
  8
1
 62
     7
 10
2683.7558364170118
 20
1095.4620527635921
 30
0.0
 11
2703.7558364170118
 21
1095.4620527635921
 31
0.0
  0
LINE
  5
433
  8
1
 62
     7
 10
2683.7558364170118
 20
1210.4626527635919
 30
0.0
 11
2696.7558364170118
 21
1210.4626527635919
 31
0.0
  0
LINE
  5
434
  8
1
 62
     7
 10
2683.7558364170118
 20
1245.9626946741089
 30
0.0
 11
2696.7558364170118
 21
1245.9626946741089
 31
0.0
  0
LINE
  5
435
  8
1
 62
     7
 10
2683.7558364170118
 20
1260.462474674109
 30
0.0
 11
2705.7558364170118
 21
1260.462474674109
 31
0.0
  0
LINE
  5
436
  8
1
 62
     7
 10
2791.7528382216519
 20
1177.4625527635919
 30
0.0
 11
2791.7528382216519
 21
1161.4634527635919
 31
0.0
  0
LINE
  5
437
  8
1
 62
     7
 10
2803.7528382216528
 20
1177.4625527635919
 30
0.0
 11
2803.7528382216528
 21
1161.4634527635919
 31
0.0
  0
LINE
  5
438
  8
1
 62
     7
 10
2843.7528382216519
 20
1177.4625527635919
 30
0.0
 11
2843.7528382216519
 21
1161.4634527635919
 31
0.0
  0
LINE
  5
439
  8
1
 62
     7
 10
2708.7558364170118
 20
1177.4625527635919
 30
0.0
 11
2708.7558364170118
 21
1161.463447287412
 31
0.0
  0
LINE
  5
43A
  8
1
 62
     7
 10
2791.7528382216519
 20
1161.4634527635919
 30
0.0
 11
2791.7528382216519
 21
1142.4629527635921
 31
0.0
  0
LINE
  5
43B
  8
1
 62
     7
 10
2703.7558186489541
 20
1161.463447174734
 30
0.0
 11
2703.7558364170118
 21
1095.4620527635921
 31
0.0
  0
LINE
  5
43C
  8
1
 62
     7
 10
2791.7528382216519
 20
1193.463052763592
 30
0.0
 11
2791.7528382216519
 21
1177.4625527635919
 31
0.0
  0
LINE
  5
43D
  8
1
 62
     7
 10
2708.7558364170118
 20
1193.463052763592
 30
0.0
 11
2703.7558364170118
 21
1193.463052763592
 31
0.0
  0
LINE
  5
43E
  8
1
 62
     7
 10
2779.2528382216528
 20
923.46205276359126
 30
0.0
 11
2779.2528382216528
 21
925.46306183245372
 31
0.0
  0
LINE
  5
43F
  8
1
 62
     7
 10
2778.2528382216528
 20
922.46305276359135
 30
0.0
 11
2779.2528382216528
 21
923.46205276359126
 31
0.0
  0
LINE
  5
440
  8
1
 62
     7
 10
2803.7528382216528
 20
907.46255276359136
 30
0.0
 11
2803.7528382216528
 21
897.96225276359121
 31
0.0
  0
LINE
  5
441
  8
1
 62
     7
 10
2803.7528382216528
 20
917.96255276359125
 30
0.0
 11
2803.7528382216528
 21
916.96275276359131
 31
0.0
  0
LINE
  5
442
  8
1
 62
     7
 10
2803.7528382216528
 20
896.96255276359136
 30
0.0
 11
2803.7528382216528
 21
880.46245276359116
 31
0.0
  0
LINE
  5
443
  8
1
 62
     7
 10
2803.7528382216528
 20
897.96225276359121
 30
0.0
 11
2803.7528382216528
 21
896.96255276359136
 31
0.0
  0
LINE
  5
444
  8
1
 62
     7
 10
2803.7528382216528
 20
916.96275276359131
 30
0.0
 11
2803.7528382216528
 21
907.46255276359136
 31
0.0
  0
LINE
  5
445
  8
1
 62
     7
 10
2797.7528382216519
 20
907.46255276359136
 30
0.0
 11
2797.7528382216519
 21
880.46245276359116
 31
0.0
  0
LINE
  5
446
  8
1
 62
     7
 10
2752.7528382216528
 20
898.96205276359115
 30
0.0
 11
2752.7528382216528
 21
897.66465276359145
 31
0.0
  0
LINE
  5
447
  8
1
 62
     7
 10
2731.752238221653
 20
907.46255276359136
 30
0.0
 11
2731.752238221653
 21
897.66465276359145
 31
0.0
  0
LINE
  5
448
  8
1
 62
     7
 10
2752.7528382216528
 20
907.46255276359136
 30
0.0
 11
2752.7528382216528
 21
898.96205276359115
 31
0.0
  0
LINE
  5
449
  8
1
 62
     7
 10
2791.7528382216519
 20
907.46255276359136
 30
0.0
 11
2791.7528382216519
 21
896.96255276359136
 31
0.0
  0
LINE
  5
44A
  8
1
 62
     7
 10
2781.752804361272
 20
907.46255276359136
 30
0.0
 11
2781.7528044878159
 21
896.96251594733019
 31
0.0
  0
LINE
  5
44B
  8
1
 62
     7
 10
2816.753838221653
 20
907.46255276359136
 30
0.0
 11
2816.753838221653
 21
897.96225276359121
 31
0.0
  0
LINE
  5
44C
  8
1
 62
     7
 10
2731.752238221653
 20
916.69205276359116
 30
0.0
 11
2731.752238221653
 21
908.0316527635913
 31
0.0
  0
LINE
  5
44D
  8
1
 62
     7
 10
2731.752238221653
 20
908.0316527635913
 30
0.0
 11
2731.752238221653
 21
907.46255276359136
 31
0.0
  0
LINE
  5
44E
  8
1
 62
     7
 10
2752.7528382216528
 20
915.9623527635913
 30
0.0
 11
2752.7528382216528
 21
908.0316527635913
 31
0.0
  0
LINE
  5
44F
  8
1
 62
     7
 10
2752.7528382216528
 20
916.69205276359116
 30
0.0
 11
2752.7528382216528
 21
915.9623527635913
 31
0.0
  0
LINE
  5
450
  8
1
 62
     7
 10
2752.7528382216528
 20
908.0316527635913
 30
0.0
 11
2752.7528382216528
 21
907.46255276359136
 31
0.0
  0
LINE
  5
451
  8
1
 62
     7
 10
2752.7528382216528
 20
897.66465276359145
 30
0.0
 11
2752.7528382216528
 21
896.46225276359132
 31
0.0
  0
LINE
  5
452
  8
1
 62
     7
 10
2731.752238221653
 20
897.66465276359145
 30
0.0
 11
2731.752238221653
 21
896.46225276359132
 31
0.0
  0
LINE
  5
453
  8
1
 62
     7
 10
2747.7518382216531
 20
893.96255276359125
 30
0.0
 11
2752.7528382216528
 21
896.46225276359132
 31
0.0
  0
LINE
  5
454
  8
1
 62
     7
 10
2733.7518382216531
 20
893.96255276359125
 30
0.0
 11
2731.752238221653
 21
896.46225276359132
 31
0.0
  0
LINE
  5
455
  8
1
 62
     7
 10
2747.7518382216531
 20
894.42415276359134
 30
0.0
 11
2752.7528382216528
 21
897.66465276359145
 31
0.0
  0
LINE
  5
456
  8
1
 62
     7
 10
2731.752238221653
 20
897.66465276359145
 30
0.0
 11
2733.7518382216531
 21
894.42415276359134
 31
0.0
  0
LINE
  5
457
  8
1
 62
     7
 10
2747.7518382216531
 20
893.96255276359125
 30
0.0
 11
2733.7518382216531
 21
893.96255276359125
 31
0.0
  0
LINE
  5
458
  8
1
 62
     7
 10
2747.7518382216531
 20
894.42415276359134
 30
0.0
 11
2747.7518382216531
 21
893.96255276359125
 31
0.0
  0
LINE
  5
459
  8
1
 62
     7
 10
2733.7518382216531
 20
894.42415276359134
 30
0.0
 11
2733.7518382216531
 21
893.96255276359125
 31
0.0
  0
LINE
  5
45A
  8
1
 62
     7
 10
2747.7518382216531
 20
894.42415276359134
 30
0.0
 11
2733.7518382216531
 21
894.42415276359134
 31
0.0
  0
LINE
  5
45B
  8
1
 62
     7
 10
2731.752238221653
 20
897.66465276359145
 30
0.0
 11
2752.7528382216528
 21
897.66465276359145
 31
0.0
  0
LINE
  5
45C
  8
1
 62
     7
 10
2731.752238221653
 20
908.0316527635913
 30
0.0
 11
2733.7518382216531
 21
910.9496527635913
 31
0.0
  0
LINE
  5
45D
  8
1
 62
     7
 10
2752.7528382216528
 20
908.0316527635913
 30
0.0
 11
2747.7518382216531
 21
910.95035276359135
 31
0.0
  0
LINE
  5
45E
  8
1
 62
     7
 10
2731.752238221653
 20
908.0316527635913
 30
0.0
 11
2752.7528382216528
 21
908.0316527635913
 31
0.0
  0
LINE
  5
45F
  8
1
 62
     7
 10
2752.7528382216528
 20
916.69205276359116
 30
0.0
 11
2747.7518382216531
 21
917.0130527635913
 31
0.0
  0
LINE
  5
460
  8
1
 62
     7
 10
2733.7518382216531
 20
917.0130527635913
 30
0.0
 11
2731.752238221653
 21
916.69205276359116
 31
0.0
  0
LINE
  5
461
  8
1
 62
     7
 10
2747.7518382216531
 20
910.95035276359135
 30
0.0
 11
2733.7518382216531
 21
910.9496527635913
 31
0.0
  0
LINE
  5
462
  8
1
 62
     7
 10
2752.7528382216528
 20
918.46285276359129
 30
0.0
 11
2731.752238221653
 21
918.46285276359129
 31
0.0
  0
LINE
  5
463
  8
1
 62
     7
 10
2747.7518382216531
 20
917.0130527635913
 30
0.0
 11
2733.7518382216531
 21
917.0130527635913
 31
0.0
  0
LINE
  5
464
  8
1
 62
     7
 10
2779.2528382216528
 20
915.9623527635913
 30
0.0
 11
2779.7528382216528
 21
915.9623527635913
 31
0.0
  0
LINE
  5
465
  8
1
 62
     7
 10
2778.2528382216528
 20
922.46305276359135
 30
0.0
 11
2778.2525652216518
 21
916.96280028743183
 31
0.0
  0
LINE
  5
466
  8
1
 62
     7
 10
2759.253838221653
 20
922.46305276359135
 30
0.0
 11
2759.2534321919279
 21
917.96257289126856
 31
0.0
  0
LINE
  5
467
  8
1
 62
     7
 10
2752.7528382216528
 20
915.9623527635913
 30
0.0
 11
2757.2525083968321
 21
915.96233779313661
 31
0.0
  0
LINE
  5
468
  8
1
 62
     7
 10
2758.2528382216528
 20
923.46205276359126
 30
0.0
 11
2759.253838221653
 21
922.46305276359135
 31
0.0
  0
LINE
  5
469
  8
1
 62
     7
 10
2758.2528382216528
 20
923.46205276359126
 30
0.0
 11
2758.2528382216528
 21
925.46306156605681
 31
0.0
  0
LINE
  5
46A
  8
1
 62
     7
 10
2815.7538382216521
 20
896.96255276359136
 30
0.0
 11
2816.753838221653
 21
897.96225276359121
 31
0.0
  0
LINE
  5
46B
  8
1
 62
     7
 10
2816.753838221653
 20
916.96275276359131
 30
0.0
 11
2815.7538382216521
 21
917.96255276359125
 31
0.0
  0
LINE
  5
46C
  8
1
 62
     7
 10
2803.7528382216528
 20
896.96255276359136
 30
0.0
 11
2815.7538382216521
 21
896.96255276359136
 31
0.0
  0
LINE
  5
46D
  8
1
 62
     7
 10
2815.7538382216521
 20
917.96255276359125
 30
0.0
 11
2803.7528382216528
 21
917.96255276359125
 31
0.0
  0
LINE
  5
46E
  8
1
 62
     7
 10
2816.753838221653
 20
916.96275276359131
 30
0.0
 11
2816.753838221653
 21
907.46255276359136
 31
0.0
  0
LINE
  5
46F
  8
1
 62
     7
 10
2791.7528382216519
 20
896.96255276359136
 30
0.0
 11
2781.7528044878159
 21
896.96251594733019
 31
0.0
  0
LINE
  5
470
  8
1
 62
     7
 10
2781.752804234729
 20
917.96257322624786
 30
0.0
 11
2791.7528382216519
 21
917.96255276359125
 31
0.0
  0
LINE
  5
471
  8
1
 62
     7
 10
2752.7528382216528
 20
898.96205276359115
 30
0.0
 11
2779.7528382216528
 21
898.96205276359115
 31
0.0
  0
LINE
  5
472
  8
1
 62
     7
 10
2781.752804234729
 20
917.96257322624786
 30
0.0
 11
2781.752804361272
 21
907.46255276359136
 31
0.0
  0
LINE
  5
473
  8
1
 62
     7
 10
2797.7528382216519
 20
880.46245276359116
 30
0.0
 11
2803.7528382216528
 21
880.46245276359116
 31
0.0
  0
LINE
  5
474
  8
1
 62
     7
 10
2797.7528382216519
 20
880.46245276359116
 30
0.0
 11
2791.7528382216519
 21
896.96255276359136
 31
0.0
  0
LINE
  5
475
  8
1
 62
     7
 10
2803.7528382216528
 20
934.46305276359135
 30
0.0
 11
2797.7528382216519
 21
934.46305276359135
 31
0.0
  0
LINE
  5
476
  8
1
 62
     7
 10
2791.7528382216519
 20
917.96255276359125
 30
0.0
 11
2797.7528382216519
 21
934.46305276359135
 31
0.0
  0
LINE
  5
477
  8
1
 62
     7
 10
2791.7528382216519
 20
917.96255276359125
 30
0.0
 11
2791.7528382216519
 21
907.46255276359136
 31
0.0
  0
LINE
  5
478
  8
1
 62
     7
 10
2797.7528382216519
 20
934.46305276359135
 30
0.0
 11
2797.7528382216519
 21
907.46255276359136
 31
0.0
  0
LINE
  5
479
  8
1
 62
     7
 10
2803.7528382216528
 20
934.46305276359135
 30
0.0
 11
2803.7528382216528
 21
917.96255276359125
 31
0.0
  0
LINE
  5
47A
  8
1
 62
     7
 10
2747.7518382216531
 20
917.0130527635913
 30
0.0
 11
2747.7518382216531
 21
910.95035276359135
 31
0.0
  0
LINE
  5
47B
  8
1
 62
     7
 10
2752.7528382216528
 20
918.46285276359129
 30
0.0
 11
2752.7528382216528
 21
916.69205276359116
 31
0.0
  0
LINE
  5
47C
  8
1
 62
     7
 10
2733.7518382216531
 20
917.0130527635913
 30
0.0
 11
2733.7518382216531
 21
910.9496527635913
 31
0.0
  0
LINE
  5
47D
  8
1
 62
     7
 10
2731.752238221653
 20
918.46285276359129
 30
0.0
 11
2731.752238221653
 21
916.69205276359116
 31
0.0
  0
LINE
  5
47E
  8
1
 62
     7
 10
2768.7518483416852
 20
1011.824872957372
 30
0.0
 11
2768.751848341687
 21
961.82487295737155
 31
0.0
  0
LINE
  5
47F
  8
1
 62
     7
 10
2683.755861487854
 20
1222.2412813659339
 30
0.0
 11
2768.7518483416852
 21
1011.824872957372
 31
0.0
  0
LINE
  5
480
  8
1
 62
     7
 10
2768.751848341687
 20
941.74537295737173
 30
0.0
 11
2763.752948341687
 21
941.74537295737173
 31
0.0
  0
LINE
  5
481
  8
1
 62
     7
 10
2763.752948341687
 20
939.96356060218579
 30
0.0
 11
2763.752948341687
 21
941.74537295737173
 31
0.0
  0
LINE
  5
482
  8
1
 62
     7
 10
2762.464448341686
 20
953.97417295737182
 30
0.0
 11
2761.371648341687
 21
955.06967295737172
 31
0.0
  0
LINE
  5
483
  8
1
 62
     7
 10
2762.464448341686
 20
953.97417295737182
 30
0.0
 11
2762.464448341686
 21
945.35447295737163
 31
0.0
  0
LINE
  5
484
  8
1
 62
     7
 10
2761.371648341687
 20
961.82487295737155
 30
0.0
 11
2761.371648341687
 21
955.06967295737172
 31
0.0
  0
LINE
  5
485
  8
1
 62
     7
 10
2768.751848341687
 20
941.74537295737173
 30
0.0
 11
2773.751848341687
 21
941.74537468120411
 31
0.0
  0
LINE
  5
486
  8
1
 62
     7
 10
2773.751848341687
 20
939.96356047552274
 30
0.0
 11
2773.751848341687
 21
941.74537468120411
 31
0.0
  0
LINE
  5
487
  8
1
 62
     7
 10
2775.039848341687
 20
953.97417295737182
 30
0.0
 11
2776.132848341686
 21
955.06967295737172
 31
0.0
  0
LINE
  5
488
  8
1
 62
     7
 10
2775.039848341687
 20
953.97417295737182
 30
0.0
 11
2775.0398180629509
 21
945.35447984034431
 31
0.0
  0
LINE
  5
489
  8
1
 62
     7
 10
2776.132848341686
 20
961.82487295737155
 30
0.0
 11
2776.132848341686
 21
955.06967295737172
 31
0.0
  0
LINE
  5
48A
  8
1
 62
     7
 10
2754.752901868249
 20
927.96307347037214
 30
0.0
 11
2754.752947155228
 21
937.46357260152558
 31
0.0
  0
LINE
  5
48B
  8
1
 62
     7
 10
2782.7534360426798
 20
927.96306212642673
 30
0.0
 11
2782.7534349737598
 21
937.46356067444276
 31
0.0
  0
LINE
  5
48C
  8
1
 62
     7
 10
2763.752948341687
 20
941.74537295737173
 30
0.0
 11
2762.464448341686
 21
941.74537295737173
 31
0.0
  0
LINE
  5
48D
  8
1
 62
     7
 10
2761.371648341687
 20
961.82487295737155
 30
0.0
 11
2768.751848341687
 21
961.82487295737155
 31
0.0
  0
LINE
  5
48E
  8
1
 62
     7
 10
2776.132848341686
 20
961.82487295737155
 30
0.0
 11
2768.751848341687
 21
961.82487295737155
 31
0.0
  0
LINE
  5
48F
  8
1
 62
     7
 10
2758.3404198269041
 20
925.46306156716787
 30
0.0
 11
2758.2531401483052
 21
925.46306156606067
 31
0.0
  0
LINE
  5
490
  8
1
 62
     7
 10
2780.2534360743921
 20
925.46306184514685
 30
0.0
 11
2757.2529018999339
 21
925.46306155337197
 31
0.0
  0
LINE
  5
491
  8
1
 62
     7
 10
2773.751848341687
 20
939.96356047552274
 30
0.0
 11
2763.752948341687
 21
939.96356060218579
 31
0.0
  0
LINE
  5
492
  8
1
 62
     7
 10
2780.2534350054289
 20
939.96356039316265
 30
0.0
 11
2773.751848341687
 21
939.96356047552274
 31
0.0
  0
LINE
  5
493
  8
1
 62
     7
 10
2773.751848341687
 20
941.74537468120411
 30
0.0
 11
2775.039818006348
 21
941.74537512525262
 31
0.0
  0
LINE
  5
494
  8
1
 62
     7
 10
2763.752948341687
 20
939.96356060218579
 30
0.0
 11
2757.2529471868679
 21
939.96356068452576
 31
0.0
  0
LINE
  5
495
  8
1
  6
DIVIDE
 62
     7
 10
852.32521236695197
 20
587.46255276359045
 30
0.0
 11
1449.136226402991
 21
587.46255276359079
 31
0.0
  0
LINE
  5
496
  8
1
  6
DIVIDE
 62
     7
 10
2803.7528382216528
 20
587.46255276359182
 30
0.0
 11
1909.7202540633291
 21
587.46255276359216
 31
0.0
  0
LINE
  5
497
  8
1
  6
DIVIDE
 62
     7
 10
2803.7528382216528
 20
1824.396572369538
 30
0.0
 11
2803.7528382216528
 21
1355.456041085755
 31
0.0
  0
ARC
  5
498
  8
2
 62
     7
 10
521.39147512920863
 20
-73.143203849918606
 30
0.0
 40
7.4222696970069766
 50
30.093742513029738
 51
149.9062574869684
  0
ARC
  5
499
  8
2
 62
     7
 10
648.04747650164586
 20
59.978565834294031
 30
0.0
 40
5.7182925993828118
 50
270.0
 51
359.99999999998278
  0
ARC
  5
49A
  8
2
 62
     7
 10
648.04747650164586
 20
72.019201599652817
 30
0.0
 40
5.7182925993812406
 50
0.0000000000170867
 51
90.0
  0
ARC
  5
49B
  8
2
 62
     7
 10
559.77777656826629
 20
6.7951850953609139
 30
0.0
 40
5.718292599382834
 50
270.0
 51
359.999999999983
  0
ARC
  5
49C
  8
2
 62
     7
 10
559.77777656826629
 20
18.835820860719711
 30
0.0
 40
5.7182925993813569
 50
0.0000000000170155
 51
90.0
  0
ARC
  5
49D
  8
2
 62
     7
 10
559.77777656826629
 20
-46.388195643574448
 30
0.0
 40
5.7182925993828491
 50
270.0
 51
359.999999999983
  0
ARC
  5
49E
  8
2
 62
     7
 10
559.77777656826629
 20
-34.347559878215662
 30
0.0
 40
5.7182925993813569
 50
0.0000000000170867
 51
90.0
  0
ARC
  5
49F
  8
2
 62
     7
 10
559.77777656826629
 20
59.978565834296319
 30
0.0
 40
5.718292599382842
 50
270.0
 51
359.999999999983
  0
ARC
  5
4A0
  8
2
 62
     7
 10
559.77777656826629
 20
72.019201599655119
 30
0.0
 40
5.7182925993813569
 50
0.0000000000170867
 51
90.0
  0
ARC
  5
4A1
  8
2
 62
     7
 10
453.06568209540399
 20
-46.388195643574448
 30
0.0
 40
5.7182925993828491
 50
270.0
 51
359.999999999983
  0
ARC
  5
4A2
  8
2
 62
     7
 10
453.06568209540399
 20
-34.347559878215662
 30
0.0
 40
5.7182925993811873
 50
0.0000000000170867
 51
90.0
  0
ARC
  5
4A3
  8
2
 62
     7
 10
453.06568209540399
 20
59.978565834296319
 30
0.0
 40
5.718292599382842
 50
270.0
 51
359.999999999983
  0
ARC
  5
4A4
  8
2
 62
     7
 10
453.06568209540399
 20
72.019201599655119
 30
0.0
 40
5.7182925993811873
 50
0.0000000000170867
 51
90.0
  0
ARC
  5
4A5
  8
2
 62
     7
 10
753.62205389703774
 20
72.019201599654878
 30
0.0
 40
5.7182925993812406
 50
0.00000000001609
 51
90.0
  0
ARC
  5
4A6
  8
2
 62
     7
 10
468.4465678024514
 20
-76.28168399310016
 30
0.0
 40
12.25901984171573
 50
311.2132848275196
 51
59.598436609316892
  0
ARC
  5
4A7
  8
1
 62
     7
 10
1203.752867221654
 20
907.46254869924257
 30
0.0
 40
27.000078000000372
 50
0.0000090985378466
 51
58.763278519532307
  0
ARC
  5
4A8
  8
1
 62
     7
 10
990.8788705265132
 20
1289.542379690298
 30
0.0
 40
2.0810986414997759
 50
182.0199955525708
 51
267.82910855250111
  0
ARC
  5
4A9
  8
1
 62
     7
 10
1316.720415734464
 20
1289.5446368172859
 30
0.0
 40
2.0836717897680712
 50
272.38809332911887
 51
357.92041532905961
  0
ARC
  5
4AA
  8
1
 62
     7
 10
1328.9570862216531
 20
1290.981742674109
 30
0.0
 40
10.154631999998649
 50
133.825495000003
 51
179.5935059999976
  0
ARC
  5
4AB
  8
1
 62
     7
 10
1250.317993354839
 20
1373.0224440794141
 30
0.0
 40
103.4886000000033
 50
313.78346799999758
 51
359.69014289317607
  0
ARC
  5
4AC
  8
1
 62
     7
 10
1351.730477384473
 20
1385.3926209838
 30
0.0
 40
2.0763463199652361
 50
1.9362258999182429
 51
87.813492899928875
  0
ARC
  5
4AD
  8
1
 62
     7
 10
955.87721598136125
 20
1385.386916181988
 30
0.0
 40
2.0817603449728619
 50
91.964130993070043
 51
177.91170299304949
  0
ARC
  5
4AE
  8
1
 62
     7
 10
1057.309517376367
 20
1373.041286153094
 30
0.0
 40
103.5142957340569
 50
180.32021121778189
 51
226.21678521777969
  0
ARC
  5
4AF
  8
1
 62
     7
 10
978.66234676110446
 20
1290.997335132902
 30
0.0
 40
10.13687541388977
 50
0.3190340881733446
 51
46.151592088182888
  0
ARC
  5
4B0
  8
1
 62
     7
 10
1242.9506006380871
 20
1443.8799552350499
 30
0.0
 40
33.0372129107026
 50
342.76823353260812
 51
17.234076936568879
  0
ARC
  5
4B1
  8
1
 62
     7
 10
1217.754115912659
 20
1477.739264219872
 30
0.0
 40
9.0833333334112591
 50
56.601956193294107
 51
123.3989331289736
  0
ARC
  5
4B2
  8
1
 62
     7
 10
1207.03045634148
 20
1488.942763996188
 30
0.0
 40
4.2765393282081927
 50
122.1637835411061
 51
237.83745572315871
  0
ARC
  5
4B3
  8
1
 62
     7
 10
1103.091216332238
 20
1177.1200398455189
 30
0.0
 40
35.663609581899991
 50
0.5502765020269687
 51
54.594748633860732
  0
ARC
  5
4B4
  8
1
 62
     7
 10
1104.4161952216541
 20
1177.805190763592
 30
0.0
 40
35.665308000000181
 50
180.5504512479983
 51
234.59469517714729
  0
ARC
  5
4B5
  8
1
 62
     7
 10
1104.365485633469
 20
1177.1460339540199
 30
0.0
 40
35.614359046866291
 50
125.36348721490501
 51
179.49078317971191
  0
ARC
  5
4B6
  8
1
 62
     7
 10
1103.138063465791
 20
1177.7797519236119
 30
0.0
 40
35.616530173737992
 50
305.36663320819167
 51
359.48971970866791
  0
ARC
  5
4B7
  8
1
 62
     7
 10
1203.752848009136
 20
907.46257691153983
 30
0.0
 40
27.000097212528271
 50
269.99997923039291
 51
359.99994923039259
  0
ARC
  5
4B8
  8
1
 62
     7
 10
1203.7526952200631
 20
907.46272069704355
 30
0.0
 40
27.000240998408419
 50
180.0003749953338
 51
270.00030345609213
  0
ARC
  5
4B9
  8
1
 62
     7
 10
1203.752522962591
 20
907.54808855004455
 30
0.0
 40
13.58276663694396
 50
255.0650331154807
 51
270.00132984790548
  0
ARC
  5
4BA
  8
1
 62
     7
 10
1203.752522962591
 20
907.54808855004455
 30
0.0
 40
13.582766636943861
 50
270.00132984790548
 51
284.9349931154814
  0
ARC
  5
4BB
  8
1
 62
     7
 10
1203.7528702216539
 20
907.46255169924245
 30
0.0
 40
11.00025800000005
 50
242.9644881784198
 51
269.99983332527842
  0
ARC
  5
4BC
  8
1
 62
     7
 10
1203.752704171425
 20
907.462376699792
 30
0.0
 40
27.000249949711559
 50
121.2296044637617
 51
179.99964501712671
  0
ARC
  5
4BD
  8
1
 62
     7
 10
1203.7528737216551
 20
907.46255119924149
 30
0.0
 40
11.000261500001081
 50
90.000184904716676
 51
179.99996739571159
  0
ARC
  5
4BE
  8
1
 62
     7
 10
1203.752507881278
 20
907.46228524295202
 30
0.0
 40
10.99999154862321
 50
270.00172064762171
 51
297.03402377670301
  0
ARC
  5
4BF
  8
1
 62
     7
 10
1203.7528702216539
 20
907.46255169924245
 30
0.0
 40
11.00025799999948
 50
179.99996999999951
 51
242.9644881784198
  0
ARC
  5
4C0
  8
1
 62
     7
 10
1203.8187914667969
 20
907.42344771432965
 30
0.0
 40
13.574453054834921
 50
135.05354142032161
 51
164.94348842032039
  0
ARC
  5
4C1
  8
1
 62
     7
 10
1203.669283841831
 20
907.34378654865509
 30
0.0
 40
13.611737846447101
 50
15.36173191362883
 51
45.244128913628593
  0
ARC
  5
4C2
  8
1
 62
     7
 10
1203.7525260887121
 20
907.46289557181365
 30
0.0
 40
10.99991713293797
 50
359.99821566376681
 51
89.998374178641143
  0
ARC
  5
4C3
  8
1
 62
     7
 10
1203.7525258010969
 20
907.4622106937303
 30
0.0
 40
10.99991742054484
 50
297.03411712908331
 51
0.0017830200178097
  0
ARC
  5
4C4
  8
1
 62
     7
 10
1193.2977799163509
 20
931.08002591833065
 30
0.0
 40
5.6171338744976707
 50
269.55486201016203
 51
270.44513944349183
  0
ARC
  5
4C5
  8
1
 62
     7
 10
1209.971927341687
 20
943.61887095737166
 30
0.0
 40
1.874762000000068
 50
272.10588500000802
 51
357.85035400000191
  0
ARC
  5
4C6
  8
1
 62
     7
 10
1209.9700422482711
 20
943.4792055767349
 30
0.0
 40
1.8766093838891329
 50
2.1176555881911092
 51
87.838592588192739
  0
ARC
  5
4C7
  8
1
 62
     7
 10
1197.534570706443
 20
943.48156505355473
 30
0.0
 40
1.87418299999995
 50
92.113624000001991
 51
177.9517985226453
  0
ARC
  5
4C8
  8
1
 62
     7
 10
1197.534101867692
 20
943.61791327427079
 30
0.0
 40
1.8737984270049459
 50
182.12146855068181
 51
267.90028755066209
  0
ARC
  5
4C9
  8
1
 62
     7
 10
1005.748358221654
 20
3115.4644132961462
 30
0.0
 40
51.998544000000962
 50
90.002277999999237
 51
129.7137714489302
  0
ARC
  5
4CA
  8
1
 62
     7
 10
1005.745928609236
 20
3019.4564076834299
 30
0.0
 40
51.996290388585038
 50
219.7124746056906
 51
230.27654428155961
  0
ARC
  5
4CB
  8
1
 62
     7
 10
1005.745928609236
 20
3019.4564076834299
 30
0.0
 40
51.996290388581322
 50
180.0003552451648
 51
219.7124746056906
  0
ARC
  5
4CC
  8
1
 62
     7
 10
1301.754886221654
 20
3019.4607252961459
 30
0.0
 40
52.000607999999538
 50
269.99546500000031
 51
320.2846632710698
  0
ARC
  5
4CD
  8
1
 62
     7
 10
1262.048820321841
 20
3175.7640348843111
 30
0.0
 40
8.3064924260265336
 50
182.12463397331959
 51
267.93108097330969
  0
ARC
  5
4CE
  8
1
 62
     7
 10
1251.669828071075
 20
3185.384240786927
 30
0.0
 40
2.0797433917727171
 50
2.2002127544146619
 51
87.874711754416296
  0
ARC
  5
4CF
  8
1
 62
     7
 10
1055.8246209557481
 20
3185.386658507141
 30
0.0
 40
2.0772262435328721
 50
92.055975157330991
 51
177.8638551572798
  0
ARC
  5
4D0
  8
1
 62
     7
 10
1045.441210053277
 20
3175.7708767607078
 30
0.0
 40
8.3135900458300203
 50
272.11631463672632
 51
357.82999463670433
  0
ARC
  5
4D1
  8
1
 62
     7
 10
1201.7517949119499
 20
3019.4619929867758
 30
0.0
 40
40.001843745943383
 50
269.99156824650788
 51
359.99153824650608
  0
ARC
  5
4D2
  8
1
 62
     7
 10
1200.213566221654
 20
3113.920005296146
 30
0.0
 40
41.568416000000688
 50
2.126381999995675
 51
87.887425000000235
  0
ARC
  5
4D3
  8
1
 62
     7
 10
1005.745928609236
 20
3019.4564076834299
 30
0.0
 40
51.996290388583859
 50
230.27654428155961
 51
270.00040524516442
  0
ARC
  5
4D4
  8
1
 62
     7
 10
1005.748358221654
 20
3115.4644132961462
 30
0.0
 40
51.998544000000173
 50
129.7137714489302
 51
180.00228799999621
  0
ARC
  5
4D5
  8
1
 62
     7
 10
1301.752822221654
 20
3115.4602772961462
 30
0.0
 40
52.002680000003821
 50
0.0022870000042165
 51
90.002257999999514
  0
ARC
  5
4D6
  8
1
 62
     7
 10
1301.754886221654
 20
3019.4607252961459
 30
0.0
 40
52.000608000001399
 50
320.2846632710698
 51
359.9954350000001
  0
ARC
  5
4D7
  8
1
 62
     7
 10
1005.744730718403
 20
3019.4576418168449
 30
0.0
 40
39.997492527034701
 50
180.00222969144241
 51
270.00223969144008
  0
ARC
  5
4D8
  8
1
 62
     7
 10
1007.279062221654
 20
3113.9281492961459
 30
0.0
 40
41.560296000003973
 50
92.113582000001273
 51
177.88441399999931
  0
ARC
  5
4D9
  8
1
 62
     7
 10
1300.2194702216541
 20
3113.9296372961462
 30
0.0
 40
41.55875200000068
 50
2.113596000002151
 51
87.888368000000114
  0
ARC
  5
4DA
  8
1
 62
     7
 10
1301.7522297249441
 20
3019.457565816886
 30
0.0
 40
39.997408524107357
 50
269.99790917284452
 51
359.99787917285028
  0
ARC
  5
4DB
  8
1
 62
     7
 10
1207.0316549677771
 20
3067.463198719568
 30
0.0
 40
4.2765393281326567
 50
122.1631639084292
 51
237.83683609157711
  0
ARC
  5
4DC
  8
1
 62
     7
 10
1293.7551156396439
 20
3067.464085296147
 30
0.0
 40
20.0
 50
270.0
 51
151.24652395726
  0
ARC
  5
4DD
  8
1
 62
     7
 10
1293.7551156396439
 20
3067.464085296147
 30
0.0
 40
19.99999999999919
 50
208.77599613427489
 51
270.0
  0
ARC
  5
4DE
  8
1
 62
     7
 10
1293.7551156396439
 20
3067.464085296147
 30
0.0
 40
19.999999999998799
 50
190.43006157899839
 51
208.77599613427489
  0
ARC
  5
4DF
  8
1
 62
     7
 10
1204.8540712121239
 20
3067.460004426563
 30
0.0
 40
10.76220191781626
 50
116.57466378642221
 51
243.4278285445634
  0
ARC
  5
4E0
  8
1
 62
     7
 10
1191.955954300234
 20
3067.459702552515
 30
0.0
 40
10.318332872297869
 50
111.1200927021997
 51
248.88239962887951
  0
ARC
  5
4E1
  8
1
 62
     7
 10
1293.7551156396439
 20
3067.464085296147
 30
0.0
 40
19.999999999998511
 50
169.57262279308139
 51
190.43006157899839
  0
ARC
  5
4E2
  8
1
 62
     7
 10
1293.7551156396439
 20
3067.464085296147
 30
0.0
 40
19.99999999999914
 50
151.24652395726
 51
169.57262279308139
  0
ARC
  5
4E3
  8
1
 62
     7
 10
1103.7543634988249
 20
3067.464143013804
 30
0.0
 40
36.000550687001173
 50
269.99985626561852
 51
359.99926680488062
  0
ARC
  5
4E4
  8
1
 62
     7
 10
1103.754465185966
 20
3067.4638561660599
 30
0.0
 40
36.000263839654707
 50
180.00027667194189
 51
269.99969442554777
  0
ARC
  5
4E5
  8
1
 62
     7
 10
1103.754552183849
 20
3067.4634178019169
 30
0.0
 40
36.000362000000031
 50
0.00042099999937
 51
90.000444029323646
  0
ARC
  5
4E6
  8
1
 62
     7
 10
1103.7544878537381
 20
3067.4638448190899
 30
0.0
 40
36.000286507374952
 50
90.000341650853855
 51
180.0002586126478
  0
ARC
  5
4E7
  8
1
 62
     7
 10
2801.6766625832361
 20
1289.53953943907
 30
0.0
 40
2.077646323764843
 50
271.963162964486
 51
357.84371396441912
  0
ARC
  5
4E8
  8
1
 62
     7
 10
2744.172004508288
 20
1289.5514892724
 30
0.0
 40
2.0897015385360982
 50
272.1053272429973
 51
357.57615024295831
  0
ARC
  5
4E9
  8
1
 62
     7
 10
2781.684284417011
 20
1385.386208572543
 30
0.0
 40
2.077328000005068
 50
2.1566660000700311
 51
88.237106999911632
  0
ARC
  5
4EA
  8
1
 62
     7
 10
2792.0619084170112
 20
1365.7640245725429
 30
0.0
 40
8.3073120000017795
 50
182.09285899999381
 51
267.8676699999815
  0
ARC
  5
4EB
  8
1
 62
     7
 10
2801.668077642782
 20
1355.3784331734009
 30
0.0
 40
2.08620460628162
 50
2.1317082531395588
 51
87.808961253194425
  0
ARC
  5
4EC
  8
1
 62
     7
 10
2623.333572417012
 20
1289.5413285725431
 30
0.0
 40
2.085183999997803
 50
182.1220100000576
 51
267.79926300003712
  0
ARC
  5
4ED
  8
1
 62
     7
 10
2611.102631442101
 20
1290.002252757303
 30
0.0
 40
10.149495999996921
 50
0.4338920000201336
 51
54.325904200568608
  0
ARC
  5
4EE
  8
1
 62
     7
 10
2663.6995068876631
 20
1363.1628655197569
 30
0.0
 40
79.954732600607997
 50
180.50145127262331
 51
234.28178927262459
  0
ARC
  5
4EF
  8
1
 62
     7
 10
2585.8335791447748
 20
1385.3768525407449
 30
0.0
 40
2.087210425190027
 50
92.182639941011274
 51
177.85118894106441
  0
ARC
  5
4F0
  8
1
 62
     7
 10
2756.4171214635371
 20
1290.0026000068169
 30
0.0
 40
10.15757321849374
 50
125.7082228185735
 51
179.56841181857729
  0
ARC
  5
4F1
  8
1
 62
     7
 10
2703.803033632079
 20
1363.1665433794501
 30
0.0
 40
79.960154774398205
 50
305.72249987233113
 51
359.49911287232783
  0
ARC
  5
4F2
  8
1
 62
     7
 10
2713.2389540323288
 20
1183.98954551669
 30
0.0
 40
13.4043597110427
 50
135.02904702216901
 51
149.7336050221713
  0
ARC
  5
4F3
  8
1
 62
     7
 10
2715.794476840997
 20
1182.37259527682
 30
0.0
 40
16.426878055505071
 50
149.35513283562349
 51
159.21360283562109
  0
ARC
  5
4F4
  8
1
 62
     7
 10
2719.922285932284
 20
1180.6868989194329
 30
0.0
 40
20.88453163788061
 50
158.9088673436996
 51
166.5925253436987
  0
ARC
  5
4F5
  8
1
 62
     7
 10
2725.4687975396459
 20
1179.248373875115
 30
0.0
 40
26.61367516319941
 50
166.3487709760291
 51
172.2359439760298
  0
ARC
  5
4F6
  8
1
 62
     7
 10
2733.2861090213601
 20
1178.083128398798
 30
0.0
 40
34.516881875783568
 50
172.07245431655389
 51
178.0073763165538
  0
ARC
  5
4F7
  8
1
 62
     7
 10
2744.1074651819208
 20
1177.5132664757621
 30
0.0
 40
45.351920795081789
 50
177.7632316628808
 51
180.064069662881
  0
ARC
  5
4F8
  8
1
 62
     7
 10
2713.2329534170121
 20
1170.9337917635919
 30
0.0
 40
13.3978919999998
 50
210.2699130000004
 51
224.9794669999992
  0
ARC
  5
4F9
  8
1
 62
     7
 10
2715.7882947027601
 20
1172.551120889834
 30
0.0
 40
16.420453000000009
 50
200.78811399999969
 51
210.64934688383559
  0
ARC
  5
4FA
  8
1
 62
     7
 10
2719.917079043224
 20
1174.2374023466621
 30
0.0
 40
20.879229761188022
 50
193.40806960823619
 51
201.09311160823569
  0
ARC
  5
4FB
  8
1
 62
     7
 10
2725.4671133394031
 20
1175.6767906926079
 30
0.0
 40
26.612001179758849
 50
187.76446756047559
 51
193.651760560474
  0
ARC
  5
4FC
  8
1
 62
     7
 10
2733.2838958082848
 20
1176.841883336775
 30
0.0
 40
34.514663408169817
 50
181.99252175696671
 51
187.92774075696829
  0
ARC
  5
4FD
  8
1
 62
     7
 10
2744.1066368364741
 20
1177.4119110658901
 30
0.0
 40
45.351092369680337
 50
179.9360201486428
 51
182.2368437401125
  0
ARC
  5
4FE
  8
1
 62
     7
 10
2779.2529250470461
 20
916.9627125890604
 30
0.0
 40
1.000359829237053
 50
179.99497706082781
 51
269.99502706081302
  0
ARC
  5
4FF
  8
1
 62
     7
 10
2757.252852221653
 20
917.96291776359135
 30
0.0
 40
2.0005800000000451
 50
269.99015300001662
 51
359.99012299999788
  0
ARC
  5
500
  8
1
 62
     7
 10
2779.6765879477011
 20
896.88581980072956
 30
0.0
 40
2.0776326480755301
 50
2.115563680986579
 51
87.896740680986341
  0
ARC
  5
501
  8
1
 62
     7
 10
2779.6765220796919
 20
918.03862522657687
 30
0.0
 40
2.0776745399788759
 50
272.105034551865
 51
357.90225455186658
  0
ARC
  5
502
  8
1
 62
     7
 10
2762.533101867692
 20
943.61791327427079
 30
0.0
 40
1.8737984270049459
 50
182.12146855068181
 51
267.90028755065509
  0
ARC
  5
503
  8
1
 62
     7
 10
2762.5335707064419
 20
943.48156505355473
 30
0.0
 40
1.87418299999995
 50
92.113624000001991
 51
177.95179852264511
  0
ARC
  5
504
  8
1
 62
     7
 10
2774.969042248269
 20
943.4792055767349
 30
0.0
 40
1.8766093838893589
 50
2.1176555881908512
 51
87.838592588192739
  0
ARC
  5
505
  8
1
 62
     7
 10
2774.970927341687
 20
943.61887095737166
 30
0.0
 40
1.874762000000026
 50
272.10588499997328
 51
357.850354000001
  0
ARC
  5
506
  8
1
 62
     7
 10
2758.2967799163498
 20
931.08002591833065
 30
0.0
 40
5.6171338744976671
 50
269.55486201016441
 51
270.44513944350348
  0
CIRCLE
  5
507
  8
2
 62
     7
 10
1211.4490060567341
 20
-12.537447236409211
 30
0.0
 40
15.0
  0
CIRCLE
  5
508
  8
2
 62
     7
 10
1211.4490060567341
 20
-12.537447236409211
 30
0.0
 40
30.0
  0
ARC
  5
509
  8
2
 62
     7
 10
715.05845014800457
 20
-75.708281082526554
 30
0.0
 40
10.0
 50
90.0
 51
180.0
  0
ARC
  5
50A
  8
2
 62
     7
 10
715.05845014800457
 20
-92.812390348032281
 30
0.0
 40
10.0
 50
180.0
 51
270.0
  0
ARC
  5
50B
  8
2
 62
     7
 10
598.94582054381408
 20
-98.812390348032366
 30
0.0
 40
4.0000000000000284
 50
270.0
 51
0.0
  0
ARC
  5
50C
  8
2
 62
     7
 10
598.94582054381408
 20
-69.708281082526639
 30
0.0
 40
3.9999999999998859
 50
0.0
 51
90.0
  0
ARC
  5
50D
  8
2
 62
     7
 10
596.72527513552359
 20
-44.106488242956473
 30
0.0
 40
8.0000000000000213
 50
270.0
 51
0.0
  0
ARC
  5
50E
  8
2
 62
     7
 10
591.22347759977117
 20
-44.106488242956317
 30
0.0
 40
7.9999999999997717
 50
180.0000003296397
 51
270.0
  0
ARC
  5
50F
  8
2
 62
     7
 10
623.22347712889928
 20
37.737494199035979
 30
0.0
 40
39.999999999999993
 50
90.0
 51
180.00000032963931
  0
ARC
  5
510
  8
2
 62
     7
 10
514.8774241305066
 20
37.737494199035979
 30
0.0
 40
39.999999999999993
 50
90.0
 51
180.00000032963931
  0
ARC
  5
511
  8
2
 62
     7
 10
482.87742460137832
 20
-44.106488242956317
 30
0.0
 40
8.0
 50
180.0000003296397
 51
270.0
  0
ARC
  5
512
  8
2
 62
     7
 10
408.16532965764389
 20
37.737494199035979
 30
0.0
 40
39.999999999999993
 50
90.0
 51
180.00000032963931
  0
ARC
  5
513
  8
2
 62
     7
 10
376.16533012851602
 20
-44.106488242956317
 30
0.0
 40
8.0
 50
180.0000003296397
 51
270.0
  0
ARC
  5
514
  8
2
 62
     7
 10
708.72170145927782
 20
37.737494199035517
 30
0.0
 40
39.999999999999979
 50
90.0
 51
180.00000032963911
  0
ARC
  5
515
  8
2
 62
     7
 10
676.72170193014972
 20
-44.10648824295663
 30
0.0
 40
7.9999999999998863
 50
180.00000032963931
 51
270.0
  0
ARC
  5
516
  8
2
 62
     7
 10
682.22349946590214
 20
-44.106488242956651
 30
0.0
 40
8.0000000000000213
 50
270.0
 51
0.0
  0
ARC
  5
517
  8
2
 62
     7
 10
751.34034649641819
 20
-44.106488242956651
 30
0.0
 40
8.0000000000000213
 50
270.0
 51
0.0
  0
ARC
  5
518
  8
2
 62
     7
 10
747.31951344502522
 20
-41.764411644123669
 30
0.0
 40
10.34207659883292
 50
180.0
 51
270.0
  0
ARC
  5
519
  8
1
 62
     7
 10
1192.2539471552
 20
937.46356068452576
 30
0.0
 40
2.5
 50
89.999999274203816
 51
179.99972688247701
  0
ARC
  5
51A
  8
1
 62
     7
 10
1192.2539018682201
 20
927.96306155337197
 30
0.0
 40
2.4999999999992979
 50
179.99972688247701
 51
270.00000072683321
  0
ARC
  5
51B
  8
1
 62
     7
 10
1215.25443604268
 20
927.96306184514663
 30
0.0
 40
2.5
 50
270.00000072683321
 51
0.0000064464626266
  0
ARC
  5
51C
  8
1
 62
     7
 10
1215.2544349737609
 20
937.46356039316265
 30
0.0
 40
2.5000000000000151
 50
0.0000064464626266
 51
89.999999274198586
  0
ARC
  5
51D
  8
1
 62
     7
 10
2780.2534349737598
 20
937.46356039316265
 30
0.0
 40
2.5000000000000151
 50
0.0000064464626266
 51
89.999999274198586
  0
ARC
  5
51E
  8
1
 62
     7
 10
2780.2534360426798
 20
927.96306184514663
 30
0.0
 40
2.5
 50
270.0000007268124
 51
0.0000064464626266
  0
ARC
  5
51F
  8
1
 62
     7
 10
2757.2529018682199
 20
927.96306155337197
 30
0.0
 40
2.500000000000663
 50
179.99972688247701
 51
270.00000072680177
  0
ARC
  5
520
  8
1
 62
     7
 10
2757.2529471552002
 20
937.46356068452576
 30
0.0
 40
2.5
 50
89.999999274209003
 51
179.99972688247701
  0
POLYLINE
  5
521
  8
2
 62
     7
 66
     1
 10
0.0
 20
0.0
 30
0.0
 70
   129
  0
VERTEX
  5
579
  8
2
 62
     7
 10
2923.7528382216519
 20
760.46245276359139
 30
0.0
  0
VERTEX
  5
57A
  8
2
 62
     7
 10
3179.1972826660958
 20
760.46245276359139
 30
0.0
  0
VERTEX
  5
57B
  8
2
 62
     7
 10
3179.1972826660958
 20
848.4624527635915
 30
0.0
  0
VERTEX
  5
57C
  8
2
 62
     7
 10
2923.7528382216519
 20
848.4624527635915
 30
0.0
  0
SEQEND
  5
57D
  8
2
 62
     7
  0
LINE
  5
527
  8
1
 62
     7
 10
2923.7528382216519
 20
804.46245276359139
 30
0.0
 11
2816.3940522298071
 21
897.60257470754175
 31
0.0
  0
SOLID
  5
528
  8
1
 62
     7
 10
2875.3080945410879
 20
858.691595779512
 30
0.0
 11
2863.229744819203
 21
844.76937906063313
 31
0.0
 12
2816.3940522298071
 22
897.60257470754175
 32
0.0
 13
2816.3940522298071
 23
897.60257470754175
 33
0.0
  0
TEXT
  5
529
  8
2
 62
     7
 10
3478.3528382216541
 20
3957.4625527635899
 30
0.0
 40
60.0
  1
1
 41
0.5400000000000002
 72
     1
 11
3483.7528382216542
 21
3987.4625527635899
 31
0.0
 73
     2
  0
TEXT
  5
52A
  8
2
 62
     7
 10
2543.7528382216542
 20
3957.4625527635899
 30
0.0
 40
60.0
  1
アダプタ
 41
0.9
 11
2543.7528382216542
 21
3987.4625527635899
 31
0.0
 73
     2
  0
TEXT
  5
52B
  8
2
 62
     7
 10
1913.752838221654
 20
3957.4625527635899
 30
0.0
 40
60.0
  1
CET7521R
 41
0.5400000000000002
 11
1913.752838221654
 21
3987.4625527635899
 31
0.0
 73
     2
  0
TEXT
  5
52C
  8
2
 62
     7
 10
3478.3528382216541
 20
4057.4625527635899
 30
0.0
 40
60.0
  1
1
 41
0.5400000000000002
 72
     1
 11
3483.7528382216542
 21
4087.462552763589
 31
0.0
 73
     2
  0
TEXT
  5
52D
  8
2
 62
     7
 10
2543.7528382216542
 20
4057.4625527635899
 30
0.0
 40
60.0
  1
排水目皿
 41
0.9
 11
2543.7528382216542
 21
4087.462552763589
 31
0.0
 73
     2
  0
TEXT
  5
52E
  8
2
 62
     7
 10
1913.752838221654
 20
4057.4625527635899
 30
0.0
 40
60.0
  1
CET684
 41
0.5400000000000002
 11
1913.752838221654
 21
4087.462552763589
 31
0.0
 73
     2
  0
TEXT
  5
52F
  8
2
 62
     7
 10
3478.3528382216541
 20
4157.4625527635899
 30
0.0
 40
60.0
  1
1
 41
0.5400000000000002
 72
     1
 11
3483.7528382216542
 21
4187.4625527635899
 31
0.0
 73
     2
  0
TEXT
  5
530
  8
2
 62
     7
 10
2543.7528382216542
 20
4157.4625527635899
 30
0.0
 40
60.0
  1
排水金具
 41
0.9
 11
2543.7528382216542
 21
4187.4625527635899
 31
0.0
 73
     2
  0
TEXT
  5
531
  8
2
 62
     7
 10
1913.752838221654
 20
4157.4625527635899
 30
0.0
 40
60.0
  1
CET527
 41
0.5400000000000002
 11
1913.752838221654
 21
4187.4625527635899
 31
0.0
 73
     2
  0
TEXT
  5
532
  8
2
 62
     7
 10
3478.3528382216541
 20
4257.4625527635899
 30
0.0
 40
60.0
  1
1
 41
0.5400000000000002
 72
     1
 11
3483.7528382216542
 21
4287.4625527635899
 31
0.0
 73
     2
  0
TEXT
  5
533
  8
2
 62
     7
 10
2543.7528382216542
 20
4257.4625527635899
 30
0.0
 40
60.0
  1
フレキ管
 41
0.9
 11
2543.7528382216542
 21
4287.4625527635899
 31
0.0
 73
     2
  0
TEXT
  5
534
  8
2
 62
     7
 10
1913.752838221654
 20
4257.4625527635899
 30
0.0
 40
60.0
  1
NP410
 41
0.5400000000000002
 11
1913.752838221654
 21
4287.4625527635899
 31
0.0
 73
     2
  0
TEXT
  5
535
  8
2
 62
     7
 10
3478.3528382216541
 20
4357.4625527635899
 30
0.0
 40
60.0
  1
1
 41
0.5400000000000002
 72
     1
 11
3483.7528382216542
 21
4387.462552763589
 31
0.0
 73
     2
  0
TEXT
  5
536
  8
2
 62
     7
 10
2543.7528382216542
 20
4357.4625527635899
 30
0.0
 40
60.0
  1
止水栓
 41
0.9
 11
2543.7528382216542
 21
4387.462552763589
 31
0.0
 73
     2
  0
TEXT
  5
537
  8
2
 62
     7
 10
1913.752838221654
 20
4357.4625527635899
 30
0.0
 40
60.0
  1
SC05217
 41
0.5400000000000002
 11
1913.752838221654
 21
4387.462552763589
 31
0.0
 73
     2
  0
TEXT
  5
538
  8
2
 62
     7
 10
3478.3528382216541
 20
4457.4625527635899
 30
0.0
 40
60.0
  1
1
 41
0.5400000000000002
 72
     1
 11
3483.7528382216542
 21
4487.4625527635899
 31
0.0
 73
     2
  0
TEXT
  5
539
  8
2
 62
     7
 10
2543.7528382216542
 20
4457.4625527635899
 30
0.0
 40
60.0
  1
立水栓
 41
0.9
 11
2543.7528382216542
 21
4487.4625527635899
 31
0.0
 73
     2
  0
TEXT
  5
53A
  8
2
 62
     7
 10
1913.752838221654
 20
4457.4625527635899
 30
0.0
 40
60.0
  1
CET6100S
 41
0.5400000000000002
 11
1913.752838221654
 21
4487.4625527635899
 31
0.0
 73
     2
  0
TEXT
  5
53B
  8
2
 62
     7
 10
3478.3528382216541
 20
4557.4625527635899
 30
0.0
 40
60.0
  1
1
 41
0.5400000000000002
 72
     1
 11
3483.7528382216542
 21
4587.462552763589
 31
0.0
 73
     2
  0
TEXT
  5
53C
  8
2
 62
     7
 10
2543.7528382216542
 20
4557.4625527635899
 30
0.0
 40
60.0
  1
手洗器
 41
0.9
 11
2543.7528382216542
 21
4587.462552763589
 31
0.0
 73
     2
  0
TEXT
  5
53D
  8
2
 62
     7
 10
1913.752838221654
 20
4557.4625527635899
 30
0.0
 40
60.0
  1
FLPS40
 41
0.5400000000000002
 11
1913.752838221654
 21
4587.462552763589
 31
0.0
 73
     2
  0
TEXT
  5
53E
  8
2
 62
     7
 10
3458.5528382216539
 20
4657.4625527635899
 30
0.0
 40
60.0
  1
数
 41
0.9
 72
     1
 11
3483.7528382216542
 21
4687.4625527635899
 31
0.0
 73
     2
  0
TEXT
  5
53F
  8
2
 62
     7
 10
2793.3528382216541
 20
4657.4625527635899
 30
0.0
 40
60.0
  1
品　　　　名
 41
0.9
 72
     1
 11
2978.7528382216542
 21
4687.4625527635899
 31
0.0
 73
     2
  0
TEXT
  5
540
  8
2
 62
     7
 10
2053.952838221654
 20
4657.4625527635899
 30
0.0
 40
60.0
  1
品　　　番
 41
0.9
 72
     1
 11
2208.7528382216542
 21
4687.4625527635899
 31
0.0
 73
     2
  0
TEXT
  5
541
  8
2
 62
     7
 10
2299.7528382216542
 20
4757.4625527635899
 30
0.0
 40
60.0
  1
器　　　具　　　明　　　細
 41
0.9
 72
     1
 11
2713.7528382216542
 21
4787.4625527635899
 31
0.0
 73
     2
  0
TEXT
  5
542
  8
2
 62
     7
 10
1893.752838221654
 20
3157.4625527635899
 30
0.0
 40
60.0
  1
　ないようにコーキングなどにて現場で対応ください。
 41
0.72
 11
1893.752838221654
 21
3187.4625527635899
 31
0.0
 73
     2
  0
TEXT
  5
543
  8
2
 62
     7
 10
1893.752838221654
 20
3257.4625527635899
 30
0.0
 40
60.0
  1
：取付穴φ３５にφ２５用水栓取付けのため、すき間を伝って水滴が落ち
 41
0.72
 11
1893.752838221654
 21
3287.4625527635899
 31
0.0
 73
     2
  0
TEXT
  5
544
  8
2
 62
     7
 10
1893.752838221654
 20
3331.462552763589
 30
0.0
 40
60.0
  1
<アダプタ>
 41
0.72
 11
1893.752838221654
 21
3361.4625527635899
 31
0.0
 73
     2
  0
TEXT
  5
545
  8
2
 62
     7
 10
1893.752838221654
 20
3457.4625527635899
 30
0.0
 40
60.0
  1
：手洗器は必ず壁に接するようにして、設置してください。
 41
0.72
 11
1893.752838221654
 21
3487.4625527635899
 31
0.0
 73
     2
  0
TEXT
  5
546
  8
2
 62
     7
 10
1893.752838221654
 20
3557.4625527635899
 30
0.0
 40
60.0
  1
：カウンタ－切込寸法は、承認図を参照願います。
 41
0.72
 11
1893.752838221654
 21
3587.462552763589
 31
0.0
 73
     2
  0
TEXT
  5
547
  8
2
 62
     7
 10
1893.752838221654
 20
3657.4625527635899
 30
0.0
 40
60.0
  1
　（メジシール）を充てんしてください。
 41
0.72
 11
1893.752838221654
 21
3687.4625527635899
 31
0.0
 73
     2
  0
TEXT
  5
548
  8
2
 62
     7
 10
1893.752838221654
 20
3757.4625527635899
 30
0.0
 40
60.0
  1
：カウンターと陶器が接する面は、防カビ性のシリコーン系シール材
 41
0.72
 11
1893.752838221654
 21
3787.4625527635899
 31
0.0
 73
     2
  0
TEXT
  5
549
  8
2
 62
     7
 10
1893.752838221654
 20
3831.462552763589
 30
0.0
 40
60.0
  1
<手洗器>
 41
0.72
 11
1893.752838221654
 21
3861.4625527635899
 31
0.0
 73
     2
  0
TEXT
  5
54A
  8
2
 62
     7
 10
2945.7528382216519
 20
782.4624527635915
 30
0.0
 40
44.0
  1
ＰＪ１／２
 41
0.9
 11
2945.7528382216519
 21
804.46245276359139
 31
0.0
 73
     2
  0
TEXT
  5
54B
  8
2
 62
     7
 10
2099.238017983334
 20
-51.625267266978803
 30
0.0
 40
70.0
  1
 
 41
0.9
 72
     1
 11
2118.1380179833341
 21
-16.625267266978799
 31
0.0
 73
     2
  0
TEXT
  5
54C
  8
2
 62
     7
 10
418.25483822165529
 20
-212.83804723640961
 30
0.0
 40
60.0
  1
検図
 41
0.9899997000000004
 11
418.25483822165529
 21
-182.83804723640961
 31
0.0
 73
     2
  0
TEXT
  5
54D
  8
2
 62
     7
 10
48.254838221654389
 20
-497.83764723641059
 30
0.0
 40
60.0
  1
備考
 41
0.9899997000000004
 11
48.254838221654389
 21
-467.8376472364107
 31
0.0
 73
     2
  0
TEXT
  5
54E
  8
2
 62
     7
 10
1868.255038221655
 20
-392.53744723640921
 30
0.0
 40
60.0
  1
品番
 41
0.9899997000000004
 11
1868.255038221655
 21
-362.53744723640921
 31
0.0
 73
     2
  0
TEXT
  5
54F
  8
2
 62
     7
 10
1868.255038221655
 20
2.4625527635907991
 30
0.0
 40
60.0
  1
名称
 41
0.9899997000000004
 11
1868.255038221655
 21
32.4625527635908
 31
0.0
 73
     2
  0
TEXT
  5
550
  8
2
 62
     7
 10
1118.254838221656
 20
-202.83804723640961
 30
0.0
 40
60.0
  1
日付
 41
0.9899997000000004
 11
1118.254838221656
 21
-172.83804723640961
 31
0.0
 73
     2
  0
TEXT
  5
551
  8
2
 62
     7
 10
1458.2548382216571
 20
-197.53744723640909
 30
0.0
 40
60.0
  1
尺度
 41
0.9899997000000004
 11
1458.2548382216571
 21
-167.53744723640909
 31
0.0
 73
     2
  0
TEXT
  5
552
  8
2
 62
     7
 10
1458.2548382216571
 20
2.4625527635907991
 30
0.0
 40
60.0
  1
単位
 41
0.9899997000000004
 11
1458.2548382216571
 21
32.4625527635908
 31
0.0
 73
     2
  0
TEXT
  5
553
  8
2
 62
     7
 10
48.254838221654389
 20
-212.83804723640961
 30
0.0
 40
60.0
  1
製図
 41
0.9899997000000004
 11
48.254838221654389
 21
-182.83804723640961
 31
0.0
 73
     2
  0
TEXT
  5
554
  8
2
 62
     7
 10
1655.567776764161
 20
-79.682391109186014
 30
0.0
 40
60.0
  1
mm
 41
0.9
 11
1655.567776764161
 21
-49.682391109186021
 31
0.0
 73
     2
  0
TEXT
  5
555
  8
2
 62
     7
 10
1991.0027091327411
 20
-242.53744723640909
 30
0.0
 40
70.0
  1
パス　手洗器
 41
0.7650000000000001
 11
1991.0027091327411
 21
-207.53744723640909
 31
0.0
 73
     2
  0
TEXT
  5
556
  8
2
 62
     7
 10
1990.1755216017741
 20
-679.08932315476932
 30
0.0
 40
70.0
  1
76FLPS40=000001
 41
0.72
 11
1990.1755216017741
 21
-644.0893231547692
 31
0.0
 73
     2
  0
TEXT
  5
557
  8
2
 62
     7
 10
1571.0027091327411
 20
-334.08932315476932
 30
0.0
 40
60.0
  1
1:20
 41
0.9
 11
1571.0027091327411
 21
-304.08932315476932
 31
0.0
 73
     2
  0
TEXT
  5
558
  8
2
 62
     7
 10
1179.252838221654
 20
-334.08932315476932
 30
0.0
 40
60.0
  1
18-04-06
 41
0.45
 72
     1
 11
1273.752838221654
 21
-304.08932315476932
 31
0.0
 73
     2
  0
TEXT
  5
559
  8
2
 62
     7
 10
567.00270913274346
 20
-298.08932315476932
 30
0.0
 40
60.0
  1
本
 41
0.9
  0
TEXT
  5
55A
  8
2
 62
     7
 10
567.00270913274346
 20
-370.08932315476932
 30
0.0
 40
60.0
  1
間
 41
0.9
  0
TEXT
  5
55B
  8
2
 62
     7
 10
197.0027091327423
 20
-298.08932315476932
 30
0.0
 40
60.0
  1
恋
 41
0.9
  0
TEXT
  5
55C
  8
2
 62
     7
 10
197.0027091327423
 20
-370.08932315476932
 30
0.0
 40
60.0
  1
塚
 41
0.9
  0
TEXT
  5
55D
  8
2
 62
     7
 10
1868.255038221655
 20
-590.03744723640921
 30
0.0
 40
60.0
  1
図番
 41
0.9899997000000004
 11
1868.255038221655
 21
-560.03744723640921
 31
0.0
 73
     2
  0
TEXT
  5
55E
  8
2
 62
     7
 10
218.7528382216544
 20
-585.03744723640921
 30
0.0
 40
60.0
  1
 
 41
0.9
 11
218.7528382216544
 21
-555.03744723640921
 31
0.0
 73
     2
  0
TEXT
  5
55F
  8
2
 62
     7
 10
3312.4354763454139
 20
-792.42142789448121
 30
0.0
 40
70.0
  1
(1/1)
 41
0.9
 72
     1
 11
3417.4354763454139
 21
-757.42142789448121
 31
0.0
 73
     2
  0
INSERT
  5
560
  8
2
 62
     7
  2
*D11
 10
0.0
 20
0.0
 30
0.0
  0
INSERT
  5
561
  8
2
 62
     7
  2
*D12
 10
0.0
 20
0.0
 30
0.0
  0
INSERT
  5
562
  8
2
 62
     7
  2
*D13
 10
0.0
 20
0.0
 30
0.0
  0
INSERT
  5
563
  8
2
 62
     7
  2
*D14
 10
0.0
 20
0.0
 30
0.0
  0
INSERT
  5
564
  8
2
 62
     7
  2
*D15
 10
0.0
 20
0.0
 30
0.0
  0
INSERT
  5
565
  8
2
 62
     7
  2
*D16
 10
0.0
 20
0.0
 30
0.0
  0
INSERT
  5
566
  8
2
 62
     7
  2
*D17
 10
0.0
 20
0.0
 30
0.0
  0
INSERT
  5
567
  8
2
 62
     7
  2
*D18
 10
0.0
 20
0.0
 30
0.0
  0
INSERT
  5
568
  8
2
 62
     7
  2
*D19
 10
0.0
 20
0.0
 30
0.0
  0
INSERT
  5
569
  8
2
 62
     7
  2
*D20
 10
0.0
 20
0.0
 30
0.0
  0
INSERT
  5
56A
  8
2
 62
     7
  2
*D21
 10
0.0
 20
0.0
 30
0.0
  0
INSERT
  5
56B
  8
2
 62
     7
  2
*D22
 10
0.0
 20
0.0
 30
0.0
  0
INSERT
  5
56C
  8
2
 62
     7
  2
*D23
 10
0.0
 20
0.0
 30
0.0
  0
INSERT
  5
56D
  8
2
 62
     7
  2
*D24
 10
0.0
 20
0.0
 30
0.0
  0
INSERT
  5
56E
  8
2
 62
     7
  2
*D25
 10
0.0
 20
0.0
 30
0.0
  0
INSERT
  5
56F
  8
2
 62
     7
  2
*D26
 10
0.0
 20
0.0
 30
0.0
  0
INSERT
  5
570
  8
2
 62
     7
  2
*D27
 10
0.0
 20
0.0
 30
0.0
  0
ENDSEC
  0
EOF
