  0
SECTION
  2
HEADER
  9
$ACADVER
  1
AC1009
  9
$INSBASE
 10
0.0
 20
0.0
 30
0.0
  9
$EXTMIN
 10
-104.794
 20
0.176045
 30
0.0
  9
$EXTMAX
 10
315.209
 20
297.178
 30
0.0
  9
$LIMMIN
 10
0.0
 20
0.0
  9
$LIMMAX
 10
12.0
 20
9.0
  9
$ORTHOMODE
 70
     0
  9
$REGENMODE
 70
     1
  9
$FILLMODE
 70
     1
  9
$QTEXTMODE
 70
     0
  9
$MIRRTEXT
 70
     1
  9
$DRAGMODE
 70
     2
  9
$LTSCALE
 40
1.0
  9
$OSMODE
 70
    37
  9
$ATTMODE
 70
     1
  9
$TEXTSIZE
 40
0.0
  9
$TRACEWID
 40
0.05
  9
$TEXTSTYLE
  7
STANDARD
  9
$CLAYER
  8
0
  9
$CELTYPE
  6
CONTINUOUS
  9
$CECOLOR
 62
   256
  9
$DIMSCALE
 40
1.0
  9
$DIMASZ
 40
0.18
  9
$DIMEXO
 40
0.0625
  9
$DIMDLI
 40
0.38
  9
$DIMRND
 40
0.0
  9
$DIMDLE
 40
0.0
  9
$DIMEXE
 40
0.18
  9
$DIMTP
 40
0.0
  9
$DIMTM
 40
0.0
  9
$DIMTXT
 40
0.18
  9
$DIMCEN
 40
0.09
  9
$DIMTSZ
 40
0.0
  9
$DIMTOL
 70
     0
  9
$DIMLIM
 70
     0
  9
$DIMTIH
 70
     1
  9
$DIMTOH
 70
     1
  9
$DIMSE1
 70
     0
  9
$DIMSE2
 70
     0
  9
$DIMTAD
 70
     0
  9
$DIMZIN
 70
     0
  9
$DIMBLK
  1

  9
$DIMASO
 70
     1
  9
$DIMSHO
 70
     1
  9
$DIMPOST
  1

  9
$DIMAPOST
  1

  9
$DIMALT
 70
     0
  9
$DIMALTD
 70
     2
  9
$DIMALTF
 40
25.399999999999999
  9
$DIMLFAC
 40
1.0
  9
$DIMTOFL
 70
     0
  9
$DIMTVP
 40
0.0
  9
$DIMTIX
 70
     0
  9
$DIMSOXD
 70
     0
  9
$DIMSAH
 70
     0
  9
$DIMBLK1
  1

  9
$DIMBLK2
  1

  9
$DIMSTYLE
  2
STANDARD
  9
$DIMCLRD
 70
     0
  9
$DIMCLRE
 70
     0
  9
$DIMCLRT
 70
     0
  9
$DIMTFAC
 40
1.0
  9
$DIMGAP
 40
0.09
  9
$LUNITS
 70
     2
  9
$LUPREC
 70
     4
  9
$SKETCHINC
 40
0.1
  9
$FILLETRAD
 40
0.0
  9
$AUNITS
 70
     0
  9
$AUPREC
 70
     0
  9
$MENU
  1
.
  9
$ELEVATION
 40
0.0
  9
$PELEVATION
 40
0.0
  9
$THICKNESS
 40
0.0
  9
$LIMCHECK
 70
     0
  9
$BLIPMODE
 70
     0
  9
$CHAMFERA
 40
0.0
  9
$CHAMFERB
 40
0.0
  9
$SKPOLY
 70
     0
  9
$TDCREATE
 40
2444972.375
  9
$TDUPDATE
 40
2458622.2523647458
  9
$TDINDWG
 40
0.0000344097
  9
$TDUSRTIMER
 40
0.0000344097
  9
$USRTIMER
 70
     1
  9
$ANGBASE
 50
0.0
  9
$ANGDIR
 70
     0
  9
$PDMODE
 70
     0
  9
$PDSIZE
 40
0.0
  9
$PLINEWID
 40
0.0
  9
$COORDS
 70
     1
  9
$SPLFRAME
 70
     0
  9
$SPLINETYPE
 70
     6
  9
$SPLINESEGS
 70
     8
  9
$ATTDIA
 70
     1
  9
$ATTREQ
 70
     1
  9
$HANDLING
 70
     1
  9
$HANDSEED
  5
28D
  9
$SURFTAB1
 70
     6
  9
$SURFTAB2
 70
     6
  9
$SURFTYPE
 70
     6
  9
$SURFU
 70
     6
  9
$SURFV
 70
     6
  9
$UCSNAME
  2

  9
$UCSORG
 10
0.0
 20
0.0
 30
0.0
  9
$UCSXDIR
 10
1.0
 20
0.0
 30
0.0
  9
$UCSYDIR
 10
0.0
 20
1.0
 30
0.0
  9
$PUCSNAME
  2

  9
$PUCSORG
 10
0.0
 20
0.0
 30
0.0
  9
$PUCSXDIR
 10
1.0
 20
0.0
 30
0.0
  9
$PUCSYDIR
 10
0.0
 20
1.0
 30
0.0
  9
$USERI1
 70
     0
  9
$USERI2
 70
     0
  9
$USERI3
 70
     0
  9
$USERI4
 70
     0
  9
$USERI5
 70
     0
  9
$USERR1
 40
0.0
  9
$USERR2
 40
0.0
  9
$USERR3
 40
0.0
  9
$USERR4
 40
0.0
  9
$USERR5
 40
0.0
  9
$WORLDVIEW
 70
     1
  9
$SHADEDGE
 70
     3
  9
$SHADEDIF
 70
    70
  9
$TILEMODE
 70
     1
  9
$MAXACTVP
 70
    48
  9
$PLIMCHECK
 70
     0
  9
$PEXTMIN
 10
1.0000000000000000E+020
 20
1.0000000000000000E+020
 30
1.0000000000000000E+020
  9
$PEXTMAX
 10
-1.0000000000000000E+020
 20
-1.0000000000000000E+020
 30
-1.0000000000000000E+020
  9
$PLIMMIN
 10
0.0
 20
0.0
  9
$PLIMMAX
 10
12.0
 20
9.0
  9
$UNITMODE
 70
     0
  9
$VISRETAIN
 70
     1
  9
$PLINEGEN
 70
     0
  9
$PSLTSCALE
 70
     1
  0
ENDSEC
  0
SECTION
  2
TABLES
  0
TABLE
  2
VPORT
 70
     1
  0
VPORT
  2
*ACTIVE
 70
     0
 10
0.0
 20
0.0
 11
1.0
 21
1.0
 12
195.84271114783351
 22
148.589
 13
0.0
 23
0.0
 14
1.0
 24
1.0
 15
0.0
 25
0.0
 16
0.0
 26
0.0
 36
1.0
 17
0.0
 27
0.0
 37
0.0
 40
281.11539623648741
 41
2.298642533936651
 42
50.0
 43
0.0
 44
0.0
 50
0.0
 51
0.0
 71
     0
 72
   100
 73
     1
 74
     1
 75
     0
 76
     0
 77
     0
 78
     0
  0
ENDTAB
  0
TABLE
  2
LTYPE
 70
     3
  0
LTYPE
  2
CONTINUOUS
 70
     0
  3
Solid line
 72
    65
 73
     0
 40
0.0
  0
LTYPE
  2
AIGENLINE001
 70
     0
  3
generate AI->DXF Converter
 72
    65
 73
     4
 40
5.8561449999999988
 49
3.5278
 49
-0.776115
 49
0.776115
 49
-0.776115
  0
LTYPE
  2
AIGENLINE002
 70
     0
  3
generate AI->DXF Converter
 72
    65
 73
     6
 40
7.4083750000000004
 49
3.5278
 49
-0.776115
 49
0.776115
 49
-0.776115
 49
0.776115
 49
-0.776115
  0
ENDTAB
  0
TABLE
  2
LAYER
 70
     4
  0
LAYER
  2
0
 70
     0
 62
     7
  6
CONTINUOUS
  0
LAYER
  2
____
 70
     0
 62
     7
  6
CONTINUOUS
  0
LAYER
  2
_________1
 70
     0
 62
     7
  6
CONTINUOUS
  0
LAYER
  2
_________2
 70
     0
 62
     7
  6
CONTINUOUS
  0
ENDTAB
  0
TABLE
  2
STYLE
 70
     1
  0
STYLE
  2
STANDARD
 70
     0
 40
0.0
 41
0.0
 50
0.0
 71
     0
 42
0.0
  3
TXT
  4
EXTFONT.SHX
  0
ENDTAB
  0
TABLE
  2
VIEW
 70
     0
  0
ENDTAB
  0
TABLE
  2
UCS
 70
     0
  0
ENDTAB
  0
TABLE
  2
APPID
 70
     3
  0
APPID
  2
ACAD
 70
     0
  0
APPID
  2
ACAD_NAV_VCDISPLAY
 70
     0
  0
APPID
  2
ACAD_MLEADERVER
 70
     0
  0
ENDTAB
  0
TABLE
  2
DIMSTYLE
 70
     1
  0
DIMSTYLE
  2
STANDARD
 70
     0
  3

  4

  5

  6

  7

 40
1.0
 41
0.18
 42
0.0625
 43
0.38
 44
0.18
 45
0.0
 46
0.0
 47
0.0
 48
0.0
140
0.18
141
0.09
142
0.0
143
25.399999999999999
144
1.0
145
0.0
146
1.0
147
0.09
 71
     0
 72
     0
 73
     1
 74
     1
 75
     0
 76
     0
 77
     0
 78
     0
170
     0
171
     2
172
     0
173
     0
174
     0
175
     0
176
     0
177
     0
178
     0
  0
ENDTAB
  0
ENDSEC
  0
SECTION
  2
BLOCKS
  0
BLOCK
  8
0
  2
$MODEL_SPACE
 70
     0
 10
0.0
 20
0.0
 30
0.0
  3
$MODEL_SPACE
  1

  0
ENDBLK
  5
1A
  8
0
  0
BLOCK
 67
     1
  8
0
  2
$PAPER_SPACE
 70
     0
 10
0.0
 20
0.0
 30
0.0
  3
$PAPER_SPACE
  1

  0
ENDBLK
  5
17
 67
     1
  8
0
  0
BLOCK
  8
_________2
  2
AIGNBL03010002
 70
     0
 10
0.0
 20
0.0
 30
0.0
  3
AIGNBL03010002
  1

  0
LINE
  5
27
  8
_________2
 62
     7
 10
186.649
 20
51.052199999999999
 30
0.0
 11
184.46299999999999
 21
51.052199999999999
 31
0.0
  0
LINE
  5
28
  8
_________2
 62
     7
 10
187.142
 20
51.052199999999999
 30
0.0
 11
186.88900000000001
 21
51.052199999999999
 31
0.0
  0
LINE
  5
29
  8
_________2
 62
     7
 10
187.63399999999999
 20
51.052199999999999
 30
0.0
 11
190.559
 21
51.052199999999999
 31
0.0
  0
LINE
  5
2A
  8
_________2
 62
     7
 10
187.142
 20
51.052199999999999
 30
0.0
 11
187.39400000000001
 21
51.052199999999999
 31
0.0
  0
LINE
  5
2B
  8
_________2
 62
     7
 10
180.745
 20
51.052199999999999
 30
0.0
 11
178.55799999999999
 21
51.052199999999999
 31
0.0
  0
LINE
  5
2C
  8
_________2
 62
     7
 10
181.23699999999999
 20
51.052199999999999
 30
0.0
 11
180.98599999999999
 21
51.052199999999999
 31
0.0
  0
LINE
  5
2D
  8
_________2
 62
     7
 10
181.23699999999999
 20
51.544800000000002
 30
0.0
 11
181.23699999999999
 21
53.7318
 31
0.0
  0
LINE
  5
2E
  8
_________2
 62
     7
 10
181.23699999999999
 20
51.052199999999999
 30
0.0
 11
181.23699999999999
 21
51.304299999999998
 31
0.0
  0
LINE
  5
2F
  8
_________2
 62
     7
 10
181.72999999999999
 20
51.052199999999999
 30
0.0
 11
183.917
 21
51.052199999999999
 31
0.0
  0
LINE
  5
30
  8
_________2
 62
     7
 10
181.23699999999999
 20
51.052199999999999
 30
0.0
 11
181.489
 21
51.052199999999999
 31
0.0
  0
LINE
  5
31
  8
_________2
 62
     7
 10
181.23699999999999
 20
50.560200000000002
 30
0.0
 11
181.23699999999999
 21
48.373199999999997
 31
0.0
  0
LINE
  5
32
  8
_________2
 62
     7
 10
181.23699999999999
 20
51.052199999999999
 30
0.0
 11
181.23699999999999
 21
50.800699999999999
 31
0.0
  0
LINE
  5
33
  8
_________2
 62
     7
 10
184.94799999999989
 20
49.832599999999999
 30
0.0
 11
190.12599999999989
 21
48.9679
 31
0.0
  0
LINE
  5
34
  8
_________2
 62
     7
 10
184.94799999999989
 20
52.271700000000003
 30
0.0
 11
190.12599999999989
 21
53.137099999999997
 31
0.0
  0
LINE
  5
35
  8
_________2
 62
     7
 10
190.12599999999989
 20
48.9679
 30
0.0
 11
190.12599999999989
 21
53.137099999999997
 31
0.0
  0
LINE
  5
36
  8
_________2
 62
     7
 10
184.94799999999989
 20
49.832599999999999
 30
0.0
 11
184.94799999999989
 21
52.271700000000003
 31
0.0
  0
ARC
  5
37
  8
_________2
 62
     7
 10
181.190651
 20
51.004810999999989
 30
0.0
 40
1.2677780000000001
 50
2.1403449999999991
 51
87.892005999999995
  0
ARC
  5
38
  8
_________2
 62
     7
 10
181.28420199999999
 20
51.005241999999988
 30
0.0
 40
1.2673579999999991
 50
92.121564999999975
 51
177.87840600000001
  0
ARC
  5
39
  8
_________2
 62
     7
 10
181.28381400000001
 20
51.098689
 30
0.0
 40
1.2669559999999991
 50
182.10473099999999
 51
267.89529900000002
  0
ARC
  5
3A
  8
_________2
 62
     7
 10
181.19038399999999
 20
51.099775000000001
 30
0.0
 40
1.268054
 50
272.11960599999998
 51
357.84804300000002
  0
ARC
  5
3B
  8
_________2
 62
     7
 10
181.23728399999999
 20
51.05215900000001
 30
0.0
 40
2.0849849999999992
 50
0.00001
 51
89.999980000000008
  0
ARC
  5
3C
  8
_________2
 62
     7
 10
181.317331
 20
50.972827000000002
 30
0.0
 40
2.1657969999999991
 50
92.118111999999996
 51
177.90079600000001
  0
ARC
  5
3D
  8
_________2
 62
     7
 10
181.31728799999999
 20
51.132162999999998
 30
0.0
 40
2.1657779999999991
 50
182.11700400000001
 51
267.88302499999998
  0
ARC
  5
3E
  8
_________2
 62
     7
 10
181.15730300000001
 20
51.132855999999997
 30
0.0
 40
2.166469999999999
 50
272.115725
 51
357.86534699999999
  0
ENDBLK
  5
3F
  8
_________2
  0
ENDSEC
  0
SECTION
  2
ENTITIES
  0
TEXT
  5
40
  8
____
 62
     7
 10
-25.666972000000001
 20
73.373099999999994
 30
0.0
 40
3.0923400000000001
  1
PF 1/2
 41
0.5
 72
     2
 11
-18.039200000000001
 21
73.373099999999994
 31
0.0
  0
LINE
  5
41
  8
_________1
 62
     7
 10
59.173699999999997
 20
148.86600000000001
 30
0.0
 11
59.585000000000001
 21
148.45500000000001
 31
0.0
  0
LINE
  5
42
  8
_________1
 62
     7
 10
59.173699999999997
 20
149.745
 30
0.0
 11
60.46459999999999
 21
148.45500000000001
 31
0.0
  0
LINE
  5
43
  8
_________1
 62
     7
 10
59.345599999999997
 20
150.453
 30
0.0
 11
61.343800000000002
 21
148.45500000000001
 31
0.0
  0
LINE
  5
44
  8
_________1
 62
     7
 10
60.225099999999998
 20
150.453
 30
0.0
 11
62.223300000000002
 21
148.45500000000001
 31
0.0
  0
LINE
  5
45
  8
_________1
 62
     7
 10
69.902100000000004
 20
150.453
 30
0.0
 11
70.840199999999996
 21
149.51499999999999
 31
0.0
  0
LINE
  5
46
  8
_________1
 62
     7
 10
70.840199999999996
 20
149.02500000000001
 30
0.0
 11
70.268999999999991
 21
148.45500000000001
 31
0.0
  0
LINE
  5
47
  8
_________1
 62
     7
 10
69.022599999999997
 20
150.453
 30
0.0
 11
70.840199999999996
 21
148.63499999999999
 31
0.0
  0
LINE
  5
48
  8
_________1
 62
     7
 10
70.840199999999996
 20
149.905
 30
0.0
 11
69.389099999999985
 21
148.45500000000001
 31
0.0
  0
LINE
  5
49
  8
_________1
 62
     7
 10
68.142700000000005
 20
150.453
 30
0.0
 11
70.140900000000002
 21
148.45500000000001
 31
0.0
  0
LINE
  5
4A
  8
_________1
 62
     7
 10
70.508799999999994
 20
150.453
 30
0.0
 11
68.509600000000006
 21
148.45500000000001
 31
0.0
  0
LINE
  5
4B
  8
_________1
 62
     7
 10
67.262799999999999
 20
150.453
 30
0.0
 11
69.26100000000001
 21
148.45500000000001
 31
0.0
  0
LINE
  5
4C
  8
_________1
 62
     7
 10
69.628900000000002
 20
150.453
 30
0.0
 11
67.630099999999999
 21
148.45500000000001
 31
0.0
  0
LINE
  5
4D
  8
_________1
 62
     7
 10
66.383300000000006
 20
150.453
 30
0.0
 11
68.381399999999999
 21
148.45500000000001
 31
0.0
  0
LINE
  5
4E
  8
_________1
 62
     7
 10
68.748999999999995
 20
150.453
 30
0.0
 11
66.750200000000007
 21
148.45500000000001
 31
0.0
  0
LINE
  5
4F
  8
_________1
 62
     7
 10
65.503699999999995
 20
150.453
 30
0.0
 11
67.501900000000006
 21
148.45500000000001
 31
0.0
  0
LINE
  5
50
  8
_________1
 62
     7
 10
67.869500000000002
 20
150.453
 30
0.0
 11
65.8703
 21
148.45500000000001
 31
0.0
  0
LINE
  5
51
  8
_________1
 62
     7
 10
64.623900000000006
 20
150.453
 30
0.0
 11
66.622
 21
148.45500000000001
 31
0.0
  0
LINE
  5
52
  8
_________1
 62
     7
 10
66.989999999999995
 20
150.453
 30
0.0
 11
64.990799999999993
 21
148.45500000000001
 31
0.0
  0
LINE
  5
53
  8
_________1
 62
     7
 10
63.744
 20
150.453
 30
0.0
 11
65.742099999999994
 21
148.45500000000001
 31
0.0
  0
LINE
  5
54
  8
_________1
 62
     7
 10
66.110100000000003
 20
150.453
 30
0.0
 11
64.111199999999997
 21
148.45500000000001
 31
0.0
  0
LINE
  5
55
  8
_________1
 62
     7
 10
62.864400000000003
 20
150.453
 30
0.0
 11
64.8626
 21
148.45500000000001
 31
0.0
  0
LINE
  5
56
  8
_________1
 62
     7
 10
65.230199999999996
 20
150.453
 30
0.0
 11
63.23129999999999
 21
148.45500000000001
 31
0.0
  0
LINE
  5
57
  8
_________1
 62
     7
 10
61.984900000000003
 20
150.453
 30
0.0
 11
63.9831
 21
148.45500000000001
 31
0.0
  0
LINE
  5
58
  8
_________1
 62
     7
 10
64.350700000000003
 20
150.453
 30
0.0
 11
62.351500000000001
 21
148.45500000000001
 31
0.0
  0
LINE
  5
59
  8
_________1
 62
     7
 10
61.104999999999997
 20
150.453
 30
0.0
 11
63.103200000000001
 21
148.45500000000001
 31
0.0
  0
LINE
  5
5A
  8
_________1
 62
     7
 10
63.4711
 20
150.453
 30
0.0
 11
61.471899999999998
 21
148.45500000000001
 31
0.0
  0
LINE
  5
5B
  8
_________1
 62
     7
 10
62.590899999999998
 20
150.453
 30
0.0
 11
60.592700000000001
 21
148.45500000000001
 31
0.0
  0
LINE
  5
5C
  8
_________1
 62
     7
 10
59.952300000000001
 20
150.453
 30
0.0
 11
59.173699999999997
 21
149.67500000000001
 31
0.0
  0
LINE
  5
5D
  8
_________1
 62
     7
 10
60.831800000000001
 20
150.453
 30
0.0
 11
59.173699999999997
 21
148.79499999999999
 31
0.0
  0
LINE
  5
5E
  8
_________1
 62
     7
 10
61.7117
 20
150.453
 30
0.0
 11
59.712800000000001
 21
148.45500000000001
 31
0.0
  0
ARC
  5
5F
  8
_________1
 62
     7
 10
-32.922756999999997
 20
232.01871700000001
 30
0.0
 40
8.5504570000000015
 50
180.97467
 51
247.89145099999999
  0
ARC
  5
60
  8
_________1
 62
     7
 10
-33.13840900000001
 20
231.87327199999999
 30
0.0
 40
8.3335679999999996
 50
90.0
 51
179.99996999999999
  0
ARC
  5
61
  8
_________1
 62
     7
 10
-33.13841200000001
 20
231.87327199999999
 30
0.0
 40
8.3335679999999996
 50
0.00001
 51
89.999980000000008
  0
ARC
  5
62
  8
_________1
 62
     7
 10
-33.355049000000001
 20
232.01930400000001
 30
0.0
 40
8.5514510000000001
 50
292.093052
 51
359.02152899999999
  0
LINE
  5
63
  8
_________1
 62
     7
 10
-10.2187
 20
229.60400000000001
 30
0.0
 11
-10.7066
 21
231.84
 31
0.0
  0
LINE
  5
64
  8
_________1
 62
     7
 10
-10.7066
 20
231.84
 30
0.0
 11
-11.4025
 21
229.66
 31
0.0
  0
LINE
  5
65
  8
_________1
 62
     7
 10
-11.4025
 20
229.66
 30
0.0
 11
-10.2187
 21
229.60400000000001
 31
0.0
  0
LINE
  5
66
  8
_________1
 62
     7
 10
-30.924399999999999
 20
210.12299999999999
 30
0.0
 11
-33.104500000000002
 21
209.42699999999999
 31
0.0
  0
LINE
  5
67
  8
_________1
 62
     7
 10
-33.104500000000002
 20
209.42699999999999
 30
0.0
 11
-30.8688
 21
208.93899999999999
 31
0.0
  0
LINE
  5
68
  8
_________1
 62
     7
 10
-30.8688
 20
208.93899999999999
 30
0.0
 11
-30.924399999999999
 21
210.12299999999999
 31
0.0
  0
ARC
  5
69
  8
_________1
 62
     7
 10
-33.138500999999998
 20
231.87319099999999
 30
0.0
 40
22.443650999999999
 50
270.00024000000002
 51
0.00021
  0
LINE
  5
6A
  8
_________1
 62
     7
 10
-38.849899999999998
 20
72.087699999999998
 30
0.0
 11
-36.638300000000001
 21
72.680300000000003
 31
0.0
  0
LINE
  5
6B
  8
_________1
 62
     7
 10
-36.638300000000001
 20
72.680300000000003
 30
0.0
 11
-38.849899999999998
 21
73.272800000000004
 31
0.0
  0
LINE
  5
6C
  8
_________1
 62
     7
 10
-38.849899999999998
 20
73.272800000000004
 30
0.0
 11
-38.849899999999998
 21
72.087699999999998
 31
0.0
  0
LINE
  5
6D
  8
_________1
 62
     7
 10
-41.404600000000002
 20
72.673000000000002
 30
0.0
 11
-36.639200000000002
 21
72.673000000000002
 31
0.0
  0
LINE
  5
6E
  8
_________1
 62
     7
 10
-27.4269
 20
73.258399999999995
 30
0.0
 11
-29.638500000000001
 21
72.665800000000004
 31
0.0
  0
LINE
  5
6F
  8
_________1
 62
     7
 10
-29.638500000000001
 20
72.665800000000004
 30
0.0
 11
-27.4269
 21
72.0732
 31
0.0
  0
LINE
  5
70
  8
_________1
 62
     7
 10
-27.4269
 20
72.0732
 30
0.0
 11
-27.4269
 21
73.258399999999995
 31
0.0
  0
LINE
  5
71
  8
_________1
 62
     7
 10
-29.637699999999999
 20
72.673000000000002
 30
0.0
 11
-18.039200000000001
 21
72.673000000000002
 31
0.0
  0
LINE
  5
72
  8
_________1
 62
     7
 10
-36.638300000000001
 20
72.673000000000002
 30
0.0
 11
-29.638500000000001
 21
72.673000000000002
 31
0.0
  0
LINE
  5
73
  8
_________1
 62
     7
 10
-29.638500000000001
 20
81.086299999999994
 30
0.0
 11
-29.638500000000001
 21
71.972999999999999
 31
0.0
  0
LINE
  5
74
  8
_________1
 62
     7
 10
-36.638300000000001
 20
81.086299999999994
 30
0.0
 11
-36.638300000000001
 21
71.972999999999999
 31
0.0
  0
TEXT
  5
75
  8
_________1
 62
     7
 10
-48.6511
 20
92.926029166666666
 30
0.0
 40
3.0924999999999989
  1
max.40
 50
90.0
 41
0.5
 72
     1
 11
-48.6511
 21
96.662800000000004
 31
0.0
  0
LINE
  5
76
  8
_________1
 62
     7
 10
-47.36569999999999
 20
97.908900000000003
 30
0.0
 11
-47.958300000000001
 21
100.12
 31
0.0
  0
LINE
  5
77
  8
_________1
 62
     7
 10
-47.958300000000001
 20
100.12
 30
0.0
 11
-48.550800000000002
 21
97.908900000000003
 31
0.0
  0
LINE
  5
78
  8
_________1
 62
     7
 10
-48.550800000000002
 20
97.908900000000003
 30
0.0
 11
-47.36569999999999
 21
97.908900000000003
 31
0.0
  0
LINE
  5
79
  8
_________1
 62
     7
 10
-48.5364
 20
95.663300000000007
 30
0.0
 11
-47.943800000000003
 21
93.452299999999994
 31
0.0
  0
LINE
  5
7A
  8
_________1
 62
     7
 10
-47.943800000000003
 20
93.452299999999994
 30
0.0
 11
-47.351199999999999
 21
95.663300000000007
 31
0.0
  0
LINE
  5
7B
  8
_________1
 62
     7
 10
-47.351199999999999
 20
95.663300000000007
 30
0.0
 11
-48.5364
 21
95.663300000000007
 31
0.0
  0
LINE
  5
7C
  8
_________1
 62
     7
 10
-47.951000000000001
 20
100.119
 30
0.0
 11
-47.951000000000001
 21
93.4529
 31
0.0
  0
LINE
  5
7D
  8
_________1
 62
     7
 10
-40.3384
 20
93.4529
 30
0.0
 11
-48.6511
 21
93.4529
 31
0.0
  0
LINE
  5
7E
  8
_________1
 62
     7
 10
-16.627300000000002
 20
81.786399999999986
 30
0.0
 11
-28.8127
 21
81.786399999999986
 31
0.0
  0
TEXT
  5
7F
  8
_________1
 62
     7
 10
-18.021899999999999
 20
89.664258333333336
 30
0.0
 40
3.0924999999999989
  1
55
 50
90.0
 41
0.5
 72
     1
 11
-18.021899999999999
 21
90.952799999999996
 31
0.0
  0
LINE
  5
80
  8
_________1
 62
     7
 10
-16.7424
 20
97.908900000000003
 30
0.0
 11
-17.334599999999998
 21
100.119
 31
0.0
  0
LINE
  5
81
  8
_________1
 62
     7
 10
-17.334599999999998
 20
100.119
 30
0.0
 11
-17.9268
 21
97.908900000000003
 31
0.0
  0
LINE
  5
82
  8
_________1
 62
     7
 10
-17.9268
 20
97.908900000000003
 30
0.0
 11
-16.7424
 21
97.908900000000003
 31
0.0
  0
LINE
  5
83
  8
_________1
 62
     7
 10
-17.912400000000002
 20
83.996799999999993
 30
0.0
 11
-17.3202
 21
81.786399999999986
 31
0.0
  0
LINE
  5
84
  8
_________1
 62
     7
 10
-17.3202
 20
81.786399999999986
 30
0.0
 11
-16.727900000000002
 21
83.996799999999993
 31
0.0
  0
LINE
  5
85
  8
_________1
 62
     7
 10
-16.727900000000002
 20
83.996799999999993
 30
0.0
 11
-17.912400000000002
 21
83.996799999999993
 31
0.0
  0
LINE
  5
86
  8
_________1
 62
     7
 10
-17.327400000000001
 20
100.119
 30
0.0
 11
-17.327400000000001
 21
81.786399999999986
 31
0.0
  0
TEXT
  5
87
  8
_________1
 62
     7
 10
-18.021899999999999
 20
123.73975
 30
0.0
 40
3.0924999999999989
  1
151
 50
90.0
 41
0.5
 72
     1
 11
-18.021899999999999
 21
125.286
 31
0.0
  0
LINE
  5
88
  8
_________1
 62
     7
 10
-16.7424
 20
148.24299999999999
 30
0.0
 11
-17.334599999999998
 21
150.453
 31
0.0
  0
LINE
  5
89
  8
_________1
 62
     7
 10
-17.334599999999998
 20
150.453
 30
0.0
 11
-17.9268
 21
148.24299999999999
 31
0.0
  0
LINE
  5
8A
  8
_________1
 62
     7
 10
-17.9268
 20
148.24299999999999
 30
0.0
 11
-16.7424
 21
148.24299999999999
 31
0.0
  0
LINE
  5
8B
  8
_________1
 62
     7
 10
-17.912400000000002
 20
102.33
 30
0.0
 11
-17.3202
 21
100.119
 31
0.0
  0
LINE
  5
8C
  8
_________1
 62
     7
 10
-17.3202
 20
100.119
 30
0.0
 11
-16.727900000000002
 21
102.33
 31
0.0
  0
LINE
  5
8D
  8
_________1
 62
     7
 10
-16.727900000000002
 20
102.33
 30
0.0
 11
-17.912400000000002
 21
102.33
 31
0.0
  0
LINE
  5
8E
  8
_________1
 62
     7
 10
-17.327400000000001
 20
150.453
 30
0.0
 11
-17.327400000000001
 21
100.119
 31
0.0
  0
LINE
  5
8F
  8
_________1
 62
     7
 10
-16.627300000000002
 20
150.453
 30
0.0
 11
-26.6037
 21
150.453
 31
0.0
  0
LINE
  5
90
  8
_________1
 62
     7
 10
-16.627300000000002
 20
100.119
 30
0.0
 11
-24.1036
 21
100.119
 31
0.0
  0
LINE
  5
91
  8
_________1
 62
     7
 10
-42.17049999999999
 20
100.119
 30
0.0
 11
-48.6511
 21
100.119
 31
0.0
  0
LINE
  5
92
  8
_________1
 62
     7
 10
12.154
 20
121.24299999999999
 30
0.0
 11
11.5618
 21
123.453
 31
0.0
  0
LINE
  5
93
  8
_________1
 62
     7
 10
11.5618
 20
123.453
 30
0.0
 11
10.9696
 21
121.24299999999999
 31
0.0
  0
LINE
  5
94
  8
_________1
 62
     7
 10
10.9696
 20
121.24299999999999
 30
0.0
 11
12.154
 21
121.24299999999999
 31
0.0
  0
LINE
  5
95
  8
_________1
 62
     7
 10
10.9841
 20
102.33
 30
0.0
 11
11.5763
 21
100.119
 31
0.0
  0
LINE
  5
96
  8
_________1
 62
     7
 10
11.5763
 20
100.119
 30
0.0
 11
12.1685
 21
102.33
 31
0.0
  0
LINE
  5
97
  8
_________1
 62
     7
 10
12.1685
 20
102.33
 30
0.0
 11
10.9841
 21
102.33
 31
0.0
  0
LINE
  5
98
  8
_________1
 62
     7
 10
11.569000000000001
 20
123.453
 30
0.0
 11
11.569000000000001
 21
100.119
 31
0.0
  0
TEXT
  5
99
  8
_________1
 62
     7
 10
10.869
 20
110.6263125
 30
0.0
 40
3.0924999999999989
  1
70
 50
90.0
 41
0.5
 72
     1
 11
10.869
 21
111.786
 31
0.0
  0
TEXT
  5
9A
  8
_________1
 62
     7
 10
33.335000000000001
 20
109.43645833333331
 30
0.0
 40
3.0924999999999989
  1
64
 50
90.0
 41
0.5
 72
     1
 11
33.335000000000001
 21
110.72499999999999
 31
0.0
  0
LINE
  5
9B
  8
_________1
 62
     7
 10
34.619999999999997
 20
119.121
 30
0.0
 11
34.027799999999999
 21
121.33199999999999
 31
0.0
  0
LINE
  5
9C
  8
_________1
 62
     7
 10
34.027799999999999
 20
121.33199999999999
 30
0.0
 11
33.435600000000001
 21
119.121
 31
0.0
  0
LINE
  5
9D
  8
_________1
 62
     7
 10
33.435600000000001
 20
119.121
 30
0.0
 11
34.619999999999997
 21
119.121
 31
0.0
  0
LINE
  5
9E
  8
_________1
 62
     7
 10
33.45000000000001
 20
102.33
 30
0.0
 11
34.042200000000001
 21
100.119
 31
0.0
  0
LINE
  5
9F
  8
_________1
 62
     7
 10
34.042200000000001
 20
100.119
 30
0.0
 11
34.634500000000003
 21
102.33
 31
0.0
  0
LINE
  5
A0
  8
_________1
 62
     7
 10
34.634500000000003
 20
102.33
 30
0.0
 11
33.45000000000001
 21
102.33
 31
0.0
  0
LINE
  5
A1
  8
_________1
 62
     7
 10
34.034999999999997
 20
121.33199999999999
 30
0.0
 11
34.034999999999997
 21
100.119
 31
0.0
  0
LINE
  5
A2
  8
_________1
 62
     7
 10
34.735100000000003
 20
121.33199999999999
 30
0.0
 11
27.161300000000001
 21
121.33199999999999
 31
0.0
  0
TEXT
  5
A3
  8
_________1
 62
     7
 10
18.77
 20
113.11499999999999
 30
0.0
 40
3.0924999999999989
  1
45%%d
 41
0.5
  0
TEXT
  5
A4
  8
_________1
 62
     7
 10
42.869241666666667
 20
88.420299999999983
 30
0.0
 40
3.0924999999999989
  1
122
 41
0.5
 72
     1
 11
44.673199999999987
 21
88.420299999999983
 31
0.0
  0
LINE
  5
A5
  8
_________1
 62
     7
 10
26.5505
 20
88.305199999999985
 30
0.0
 11
24.339400000000001
 21
87.712999999999994
 31
0.0
  0
LINE
  5
A6
  8
_________1
 62
     7
 10
24.339400000000001
 20
87.712999999999994
 30
0.0
 11
26.5505
 21
87.120800000000003
 31
0.0
  0
LINE
  5
A7
  8
_________1
 62
     7
 10
26.5505
 20
87.120800000000003
 30
0.0
 11
26.5505
 21
88.305199999999985
 31
0.0
  0
LINE
  5
A8
  8
_________1
 62
     7
 10
62.795900000000003
 20
87.135300000000001
 30
0.0
 11
65.007000000000005
 21
87.727500000000006
 31
0.0
  0
LINE
  5
A9
  8
_________1
 62
     7
 10
65.007000000000005
 20
87.727500000000006
 30
0.0
 11
62.795900000000003
 21
88.319699999999997
 31
0.0
  0
LINE
  5
AA
  8
_________1
 62
     7
 10
62.795900000000003
 20
88.319699999999997
 30
0.0
 11
62.795900000000003
 21
87.135300000000001
 31
0.0
  0
LINE
  5
AB
  8
_________1
 62
     7
 10
24.3398
 20
87.720299999999995
 30
0.0
 11
65.006600000000006
 21
87.720299999999995
 31
0.0
  0
TEXT
  5
AC
  8
_________1
 62
     7
 10
63.073787500000009
 20
113.934
 30
0.0
 40
3.0924999999999989
  1
%%c50
 41
0.5
 72
     1
 11
65.006600000000006
 21
113.934
 31
0.0
  0
LINE
  5
AD
  8
_________1
 62
     7
 10
56.673200000000001
 20
102.81999999999999
 30
0.0
 11
56.673200000000001
 21
114.17100000000001
 31
0.0
  0
LINE
  5
AE
  8
_________1
 62
     7
 10
73.340000000000003
 20
102.81999999999999
 30
0.0
 11
73.340000000000003
 21
114.17100000000001
 31
0.0
  0
LINE
  5
AF
  8
_________1
 62
     7
 10
56.673200000000001
 20
113.23399999999999
 30
0.0
 11
73.340000000000003
 21
113.23399999999999
 31
0.0
  0
LINE
  5
B0
  8
_________1
 62
     7
 10
58.883600000000001
 20
112.642
 30
0.0
 11
56.673200000000001
 21
113.23399999999999
 31
0.0
  0
LINE
  5
B1
  8
_________1
 62
     7
 10
56.673200000000001
 20
113.23399999999999
 30
0.0
 11
58.883600000000001
 21
113.827
 31
0.0
  0
LINE
  5
B2
  8
_________1
 62
     7
 10
58.883600000000001
 20
113.827
 30
0.0
 11
58.883600000000001
 21
112.642
 31
0.0
  0
LINE
  5
B3
  8
_________1
 62
     7
 10
71.128900000000002
 20
113.82599999999999
 30
0.0
 11
73.340000000000003
 21
113.23399999999999
 31
0.0
  0
LINE
  5
B4
  8
_________1
 62
     7
 10
73.340000000000003
 20
113.23399999999999
 30
0.0
 11
71.128900000000002
 21
112.642
 31
0.0
  0
LINE
  5
B5
  8
_________1
 62
     7
 10
71.128900000000002
 20
112.642
 30
0.0
 11
71.128900000000002
 21
113.82599999999999
 31
0.0
  0
TEXT
  5
B6
  8
_________1
 62
     7
 10
62.944933333333339
 20
157.84800000000001
 30
0.0
 40
3.0924999999999989
  1
%%c35
 41
0.5
 72
     1
 11
65.006600000000006
 21
157.84800000000001
 31
0.0
  0
LINE
  5
B7
  8
_________1
 62
     7
 10
59.17329999999999
 20
151.15299999999999
 30
0.0
 11
59.17329999999999
 21
158.08500000000001
 31
0.0
  0
LINE
  5
B8
  8
_________1
 62
     7
 10
70.840199999999996
 20
151.15299999999999
 30
0.0
 11
70.840199999999996
 21
157.84800000000001
 31
0.0
  0
LINE
  5
B9
  8
_________1
 62
     7
 10
59.17329999999999
 20
157.148
 30
0.0
 11
70.840199999999996
 21
157.148
 31
0.0
  0
LINE
  5
BA
  8
_________1
 62
     7
 10
61.383699999999997
 20
156.55600000000001
 30
0.0
 11
59.17329999999999
 21
157.148
 31
0.0
  0
LINE
  5
BB
  8
_________1
 62
     7
 10
59.17329999999999
 20
157.148
 30
0.0
 11
61.383699999999997
 21
157.74000000000001
 31
0.0
  0
LINE
  5
BC
  8
_________1
 62
     7
 10
61.383699999999997
 20
157.74000000000001
 30
0.0
 11
61.383699999999997
 21
156.55600000000001
 31
0.0
  0
LINE
  5
BD
  8
_________1
 62
     7
 10
68.629099999999994
 20
157.74000000000001
 30
0.0
 11
70.840199999999996
 21
157.148
 31
0.0
  0
LINE
  5
BE
  8
_________1
 62
     7
 10
70.840199999999996
 20
157.148
 30
0.0
 11
68.629099999999994
 21
156.55500000000001
 31
0.0
  0
LINE
  5
BF
  8
_________1
 62
     7
 10
68.629099999999994
 20
156.55500000000001
 30
0.0
 11
68.629099999999994
 21
157.74000000000001
 31
0.0
  0
LINE
  5
C0
  8
_________1
 62
     7
 10
-38.970300000000002
 20
148.86600000000001
 30
0.0
 11
-38.559100000000001
 21
148.45500000000001
 31
0.0
  0
LINE
  5
C1
  8
_________1
 62
     7
 10
-38.970300000000002
 20
149.745
 30
0.0
 11
-37.679400000000001
 21
148.45500000000001
 31
0.0
  0
LINE
  5
C2
  8
_________1
 62
     7
 10
-38.798400000000001
 20
150.453
 30
0.0
 11
-36.800199999999997
 21
148.45500000000001
 31
0.0
  0
LINE
  5
C3
  8
_________1
 62
     7
 10
-37.918700000000001
 20
150.453
 30
0.0
 11
-35.920499999999997
 21
148.45500000000001
 31
0.0
  0
LINE
  5
C4
  8
_________1
 62
     7
 10
-28.241900000000001
 20
150.453
 30
0.0
 11
-27.303799999999999
 21
149.51499999999999
 31
0.0
  0
LINE
  5
C5
  8
_________1
 62
     7
 10
-27.303799999999999
 20
149.02500000000001
 30
0.0
 11
-27.875
 21
148.45500000000001
 31
0.0
  0
LINE
  5
C6
  8
_________1
 62
     7
 10
-29.121600000000001
 20
150.453
 30
0.0
 11
-27.303799999999999
 21
148.63499999999999
 31
0.0
  0
LINE
  5
C7
  8
_________1
 62
     7
 10
-27.303799999999999
 20
149.905
 30
0.0
 11
-28.7547
 21
148.45500000000001
 31
0.0
  0
LINE
  5
C8
  8
_________1
 62
     7
 10
-30.001300000000001
 20
150.453
 30
0.0
 11
-28.0031
 21
148.45500000000001
 31
0.0
  0
LINE
  5
C9
  8
_________1
 62
     7
 10
-27.635400000000001
 20
150.453
 30
0.0
 11
-29.634399999999999
 21
148.45500000000001
 31
0.0
  0
LINE
  5
CA
  8
_________1
 62
     7
 10
-30.881
 20
150.453
 30
0.0
 11
-28.8828
 21
148.45500000000001
 31
0.0
  0
LINE
  5
CB
  8
_________1
 62
     7
 10
-28.5151
 20
150.453
 30
0.0
 11
-30.514099999999999
 21
148.45500000000001
 31
0.0
  0
LINE
  5
CC
  8
_________1
 62
     7
 10
-31.7607
 20
150.453
 30
0.0
 11
-29.762499999999999
 21
148.45500000000001
 31
0.0
  0
LINE
  5
CD
  8
_________1
 62
     7
 10
-29.3948
 20
150.453
 30
0.0
 11
-31.393799999999999
 21
148.45500000000001
 31
0.0
  0
LINE
  5
CE
  8
_________1
 62
     7
 10
-32.6404
 20
150.453
 30
0.0
 11
-30.642299999999999
 21
148.45500000000001
 31
0.0
  0
LINE
  5
CF
  8
_________1
 62
     7
 10
-30.2745
 20
150.453
 30
0.0
 11
-32.273499999999999
 21
148.45500000000001
 31
0.0
  0
LINE
  5
D0
  8
_________1
 62
     7
 10
-33.520099999999999
 20
150.453
 30
0.0
 11
-31.521999999999998
 21
148.45500000000001
 31
0.0
  0
LINE
  5
D1
  8
_________1
 62
     7
 10
-31.154199999999999
 20
150.453
 30
0.0
 11
-33.153199999999998
 21
148.45500000000001
 31
0.0
  0
LINE
  5
D2
  8
_________1
 62
     7
 10
-34.399799999999999
 20
150.453
 30
0.0
 11
-32.401699999999998
 21
148.45500000000001
 31
0.0
  0
LINE
  5
D3
  8
_________1
 62
     7
 10
-32.03390000000001
 20
150.453
 30
0.0
 11
-34.032899999999998
 21
148.45500000000001
 31
0.0
  0
LINE
  5
D4
  8
_________1
 62
     7
 10
-35.279600000000002
 20
150.453
 30
0.0
 11
-33.281399999999998
 21
148.45500000000001
 31
0.0
  0
LINE
  5
D5
  8
_________1
 62
     7
 10
-32.913600000000002
 20
150.453
 30
0.0
 11
-34.912599999999998
 21
148.45500000000001
 31
0.0
  0
LINE
  5
D6
  8
_________1
 62
     7
 10
-36.159300000000002
 20
150.453
 30
0.0
 11
-34.161099999999998
 21
148.45500000000001
 31
0.0
  0
LINE
  5
D7
  8
_________1
 62
     7
 10
-33.793300000000002
 20
150.453
 30
0.0
 11
-35.792400000000001
 21
148.45500000000001
 31
0.0
  0
LINE
  5
D8
  8
_________1
 62
     7
 10
-37.039000000000001
 20
150.453
 30
0.0
 11
-35.040799999999997
 21
148.45500000000001
 31
0.0
  0
LINE
  5
D9
  8
_________1
 62
     7
 10
-34.673000000000002
 20
150.453
 30
0.0
 11
-36.6721
 21
148.45500000000001
 31
0.0
  0
LINE
  5
DA
  8
_________1
 62
     7
 10
-35.553100000000001
 20
150.453
 30
0.0
 11
-37.551299999999998
 21
148.45500000000001
 31
0.0
  0
LINE
  5
DB
  8
_________1
 62
     7
 10
-38.191899999999997
 20
150.453
 30
0.0
 11
-38.970300000000002
 21
149.67500000000001
 31
0.0
  0
LINE
  5
DC
  8
_________1
 62
     7
 10
-37.312199999999997
 20
150.453
 30
0.0
 11
-38.970300000000002
 21
148.79499999999999
 31
0.0
  0
LINE
  5
DD
  8
_________1
 62
     7
 10
-36.432299999999998
 20
150.453
 30
0.0
 11
-38.431100000000001
 21
148.45500000000001
 31
0.0
  0
TEXT
  5
DE
  8
_________1
 62
     7
 10
74.346366666666654
 20
225.74299999999999
 30
0.0
 40
3.0924999999999989
  1
%%c25～28
 41
0.5
 72
     2
 11
83.417699999999996
 21
225.74299999999999
 31
0.0
  0
LINE
  5
DF
  8
_________1
 62
     7
 10
60.07909999999999
 20
235.97399999999999
 30
0.0
 11
62.061000000000007
 21
234.82900000000001
 31
0.0
  0
LINE
  5
E0
  8
_________1
 62
     7
 10
62.061000000000007
 20
234.82900000000001
 30
0.0
 11
60.917299999999997
 21
236.81100000000001
 31
0.0
  0
LINE
  5
E1
  8
_________1
 62
     7
 10
60.917299999999997
 20
236.81100000000001
 30
0.0
 11
60.07909999999999
 21
235.97399999999999
 31
0.0
  0
LINE
  5
E2
  8
_________1
 62
     7
 10
59.047899999999998
 20
237.833
 30
0.0
 11
62.055900000000001
 21
234.82400000000001
 31
0.0
  0
LINE
  5
E3
  8
_________1
 62
     7
 10
62.055900000000001
 20
234.82400000000001
 30
0.0
 11
67.947000000000003
 21
228.93100000000001
 31
0.0
  0
LINE
  5
E4
  8
_________1
 62
     7
 10
69.9238
 20
227.78200000000001
 30
0.0
 11
67.941800000000001
 21
228.92699999999999
 31
0.0
  0
LINE
  5
E5
  8
_________1
 62
     7
 10
67.941800000000001
 20
228.92699999999999
 30
0.0
 11
69.086299999999994
 21
226.94399999999999
 31
0.0
  0
LINE
  5
E6
  8
_________1
 62
     7
 10
69.086299999999994
 20
226.94399999999999
 30
0.0
 11
69.9238
 21
227.78200000000001
 31
0.0
  0
LINE
  5
E7
  8
_________1
 62
     7
 10
67.947000000000003
 20
228.93100000000001
 30
0.0
 11
71.834500000000006
 21
225.04300000000001
 31
0.0
  0
LINE
  5
E8
  8
_________1
 62
     7
 10
71.834500000000006
 20
225.04300000000001
 30
0.0
 11
83.417699999999996
 21
225.04300000000001
 31
0.0
  0
TEXT
  5
E9
  8
_________1
 62
     7
 10
-28.073583333333328
 20
205.35400000000001
 30
0.0
 40
3.0924999999999989
  1
閉
 41
0.5
 72
     1
 11
-27.352
 21
205.35400000000001
 31
0.0
  0
TEXT
  5
EA
  8
_________1
 62
     7
 10
-7.4800433333333327
 20
228.46199999999999
 30
0.0
 40
3.0924999999999989
  1
開
 41
0.5
 72
     1
 11
-6.7584600000000004
 21
228.46199999999999
 31
0.0
  0
TEXT
  5
EB
  8
_________1
 62
     7
 10
58.72711666666666
 20
214.34999999999999
 30
0.0
 40
3.0924999999999989
  1
水栓金具取付穴
 41
0.5
 72
     1
 11
65.015199999999993
 21
214.34999999999999
 31
0.0
  0
ARC
  5
EC
  8
_________1
 62
     7
 10
-31.710332000000001
 20
191.21290400000001
 30
0.0
 40
1.5712440000000001
 50
328.20568600000001
 51
359.88287800000001
  0
ARC
  5
ED
  8
_________1
 62
     7
 10
-32.145084999999987
 20
191.451347
 30
0.0
 40
2.0665569999999991
 50
309.73082099999999
 51
328.93754300000001
  0
ARC
  5
EE
  8
_________1
 62
     7
 10
-32.685997999999998
 20
192.04831799999999
 30
0.0
 40
2.871608999999999
 50
291.23598299999998
 51
310.41758700000003
  0
ARC
  5
EF
  8
_________1
 62
     7
 10
-33.091940000000001
 20
192.95144099999999
 30
0.0
 40
3.8607839999999989
 50
269.30012699999997
 51
291.99668600000001
  0
ARC
  5
F0
  8
_________1
 62
     7
 10
-33.138168999999998
 20
193.21450400000001
 30
0.0
 40
4.1235580000000001
 50
249.22482500000001
 51
269.987077
  0
ARC
  5
F1
  8
_________1
 62
     7
 10
-33.441347
 20
192.30434399999999
 30
0.0
 40
3.165284999999999
 50
231.055746
 51
248.51215400000009
  0
ARC
  5
F2
  8
_________1
 62
     7
 10
-33.981448
 20
191.58347000000001
 30
0.0
 40
2.265372999999999
 50
212.64739700000001
 51
230.21985799999999
  0
ARC
  5
F3
  8
_________1
 62
     7
 10
-34.473824
 20
191.23979399999999
 30
0.0
 40
1.665554999999999
 50
181.03556599999999
 51
211.83014
  0
LINE
  5
F4
  8
_________1
 62
     7
 10
-36.139099999999999
 20
191.21000000000001
 30
0.0
 11
-36.139099999999999
 21
226.87
 31
0.0
  0
LINE
  5
F5
  8
_________1
 62
     7
 10
-30.139099999999999
 20
226.869
 30
0.0
 11
-30.139099999999999
 21
191.21000000000001
 31
0.0
  0
LINE
  5
F6
  8
_________1
  6
AIGENLINE001
 62
     7
 10
-33.138399999999997
 20
242.18000000000001
 30
0.0
 11
-33.138399999999997
 21
187.304
 31
0.0
  0
ARC
  5
F7
  8
_________1
 62
     7
 10
-33.362067000000003
 20
232.09692999999999
 30
0.0
 40
6.061056999999999
 50
272.11473799999999
 51
357.88527199999999
  0
ARC
  5
F8
  8
_________1
 62
     7
 10
-33.138238999999999
 20
231.87309999999999
 30
0.0
 40
5.8330989999999989
 50
179.998278
 51
269.99832800000001
  0
ARC
  5
F9
  8
_________1
 62
     7
 10
-33.138236999999997
 20
231.87344400000001
 30
0.0
 40
5.8331010000000001
 50
90.001692000000006
 51
180.00170199999999
  0
ARC
  5
FA
  8
_________1
 62
     7
 10
-33.361674999999998
 20
231.65000800000001
 30
0.0
 40
6.060651
 50
2.1111610000000001
 51
87.888829000000001
  0
LINE
  5
FB
  8
_________1
 62
     7
 10
-9.9830899999999971
 20
231.87299999999999
 30
0.0
 11
-22.366
 21
231.87299999999999
 31
0.0
  0
LINE
  5
FC
  8
_________1
  6
AIGENLINE002
 62
     7
 10
-23.150500000000001
 20
231.87299999999999
 30
0.0
 11
-43.413999999999987
 21
231.87299999999999
 31
0.0
  0
ARC
  5
FD
  8
_________1
 62
     7
 10
64.847404999999995
 20
232.04247899999999
 30
0.0
 40
4.3290119999999996
 50
272.10756499999991
 51
357.88770699999998
  0
ARC
  5
FE
  8
_________1
 62
     7
 10
65.166524999999993
 20
232.043195
 30
0.0
 40
4.3297549999999996
 50
182.12143699999999
 51
267.88333
  0
ARC
  5
FF
  8
_________1
 62
     7
 10
65.006780000000006
 20
231.88309100000001
 30
0.0
 40
4.1670419999999986
 50
90.002368000000004
 51
180.00237799999999
  0
ARC
  5
100
  8
_________1
 62
     7
 10
65.006433999999999
 20
231.88309100000001
 30
0.0
 40
4.1670419999999986
 50
359.99764099999999
 51
89.997612000000004
  0
LINE
  5
101
  8
_________1
  6
AIGENLINE002
 62
     7
 10
-29.212700000000002
 20
123.453
 30
0.0
 11
-36.971800000000002
 21
123.453
 31
0.0
  0
ARC
  5
102
  8
_________1
 62
     7
 10
-32.202691999999999
 20
123.46256099999999
 30
0.0
 40
1.0648660000000001
 50
323.58927499999999
 51
359.82037400000002
  0
ARC
  5
103
  8
_________1
 62
     7
 10
-32.537368000000001
 20
123.671679
 30
0.0
 40
1.45865
 50
307.900308
 51
324.78185500000001
  0
ARC
  5
104
  8
_________1
 62
     7
 10
-32.883406999999998
 20
124.088831
 30
0.0
 40
2.0004550000000001
 50
288.4923
 51
308.3815009999999
  0
ARC
  5
105
  8
_________1
 62
     7
 10
-33.115853999999999
 20
124.672813
 30
0.0
 40
2.6282469999999991
 50
269.52328999999997
 51
289.26010300000002
  0
ARC
  5
106
  8
_________1
 62
     7
 10
-33.136381
 20
124.775211
 30
0.0
 40
2.7305540000000001
 50
247.180575
 51
269.971879
  0
ARC
  5
107
  8
_________1
 62
     7
 10
-33.391770000000001
 20
124.08878199999999
 30
0.0
 40
1.9990410000000001
 50
227.011841
 51
246.29729399999999
  0
ARC
  5
108
  8
_________1
 62
     7
 10
-33.826988
 20
123.589129
 30
0.0
 40
1.336981999999999
 50
198.86270200000001
 51
226.05495300000001
  0
ARC
  5
109
  8
_________1
 62
     7
 10
-34.105685999999999
 20
123.460916
 30
0.0
 40
1.032271999999999
 50
180.09400500000001
 51
197.12935200000001
  0
ARC
  5
10A
  8
_________1
 62
     7
 10
-34.075659000000002
 20
123.4562
 30
0.0
 40
1.0623020000000001
 50
143.53801899999999
 51
179.83698000000001
  0
ARC
  5
10B
  8
_________1
 62
     7
 10
-33.733443000000001
 20
123.240864
 30
0.0
 40
1.4658119999999999
 50
127.921391
 51
144.718199
  0
ARC
  5
10C
  8
_________1
 62
     7
 10
-33.391914
 20
122.82765999999999
 30
0.0
 40
2.0017269999999998
 50
108.486079
 51
128.36420100000001
  0
ARC
  5
10D
  8
_________1
 62
     7
 10
-33.159581000000003
 20
122.24426800000001
 30
0.0
 40
2.6289210000000001
 50
89.523564000000007
 51
109.256874
  0
ARC
  5
10E
  8
_________1
 62
     7
 10
-33.139060999999998
 20
122.14264799999999
 30
0.0
 40
2.7304499999999989
 50
67.181861999999995
 51
89.971876000000009
  0
ARC
  5
10F
  8
_________1
 62
     7
 10
-32.883543000000003
 20
122.82935999999999
 30
0.0
 40
1.9986259999999989
 50
47.014704000000002
 51
66.299169999999975
  0
ARC
  5
110
  8
_________1
 62
     7
 10
-32.470596999999998
 20
123.306355
 30
0.0
 40
1.3683350000000001
 50
24.001821
 51
46.045763999999998
  0
ARC
  5
111
  8
_________1
 62
     7
 10
-32.18947
 20
123.454021
 30
0.0
 40
1.0516509999999999
 50
0.283389
 51
22.882462
  0
ARC
  5
112
  8
_________1
 62
     7
 10
-31.709966000000001
 20
123.462431
 30
0.0
 40
1.572255
 50
328.216183
 51
359.88305400000002
  0
ARC
  5
113
  8
_________1
 62
     7
 10
-32.143565000000002
 20
123.700496
 30
0.0
 40
2.066389
 50
309.72956499999998
 51
328.93763300000001
  0
ARC
  5
114
  8
_________1
 62
     7
 10
-32.683106000000002
 20
124.29573499999999
 30
0.0
 40
2.8692319999999989
 50
291.22199000000001
 51
310.41829300000001
  0
ARC
  5
115
  8
_________1
 62
     7
 10
-33.090569000000002
 20
125.20293100000001
 30
0.0
 40
3.8627440000000002
 50
269.30058600000001
 51
291.98505499999999
  0
ARC
  5
116
  8
_________1
 62
     7
 10
-33.136786000000001
 20
125.466898
 30
0.0
 40
4.1264229999999991
 50
249.23759799999999
 51
269.98701499999999
  0
ARC
  5
117
  8
_________1
 62
     7
 10
-33.441929999999999
 20
124.55112800000001
 30
0.0
 40
3.162196999999999
 50
231.05358000000001
 51
248.525375
  0
ARC
  5
118
  8
_________1
 62
     7
 10
-33.981934000000003
 20
123.83104299999999
 30
0.0
 40
2.2629549999999989
 50
212.63684000000001
 51
230.2266020000001
  0
ARC
  5
119
  8
_________1
 62
     7
 10
-34.471733999999998
 20
123.489131
 30
0.0
 40
1.6662639999999991
 50
181.02852300000001
 51
211.81944999999999
  0
ARC
  5
11A
  8
_________1
 62
     7
 10
-34.567549999999997
 20
123.45631400000001
 30
0.0
 40
1.5701819999999991
 50
148.19467299999999
 51
179.89385200000001
  0
ARC
  5
11B
  8
_________1
 62
     7
 10
-34.130984000000012
 20
123.216922
 30
0.0
 40
2.067534999999999
 50
129.73538500000001
 51
148.93294
  0
ARC
  5
11C
  8
_________1
 62
     7
 10
-33.591155999999998
 20
122.621166
 30
0.0
 40
2.870960999999999
 50
111.233987
 51
130.419873
  0
ARC
  5
11D
  8
_________1
 62
     7
 10
-33.184885999999999
 20
121.717473
 30
0.0
 40
3.860784999999999
 50
89.300032999999999
 51
111.99666499999999
  0
ARC
  5
11E
  8
_________1
 62
     7
 10
-33.138657000000002
 20
121.45457
 30
0.0
 40
4.1234000000000002
 50
69.223978999999986
 51
89.986992000000001
  0
ARC
  5
11F
  8
_________1
 62
     7
 10
-32.834101000000011
 20
122.366927
 30
0.0
 40
3.1625770000000002
 50
51.048195
 51
68.519664000000006
  0
ARC
  5
120
  8
_________1
 62
     7
 10
-32.294421999999997
 20
123.086234
 30
0.0
 40
2.2641459999999989
 50
32.643560000000008
 51
50.225502999999989
  0
ARC
  5
121
  8
_________1
 62
     7
 10
-31.803366
 20
123.429012
 30
0.0
 40
1.6659259999999989
 50
1.0390559999999991
 51
31.826611
  0
LINE
  5
122
  8
_________1
 62
     7
 10
-36.137700000000009
 20
123.459
 30
0.0
 11
-36.137700000000009
 21
134.119
 31
0.0
  0
ARC
  5
123
  8
_________1
 62
     7
 10
-33.137720999999999
 20
134.11910399999999
 30
0.0
 40
3.000008999999999
 50
90.0
 51
179.99996999999999
  0
ARC
  5
124
  8
_________1
 62
     7
 10
-33.137721999999997
 20
134.11910399999999
 30
0.0
 40
3.000008999999999
 50
0.00001
 51
89.999980000000008
  0
LINE
  5
125
  8
_________1
 62
     7
 10
-30.137699999999999
 20
134.119
 30
0.0
 11
-30.137699999999999
 21
123.459
 31
0.0
  0
LINE
  5
126
  8
_________1
 62
     7
 10
22.065300000000001
 20
110.726
 30
0.0
 11
24.319099999999999
 21
111.123
 31
0.0
  0
LINE
  5
127
  8
_________1
 62
     7
 10
24.319099999999999
 20
111.123
 30
0.0
 11
22.168600000000001
 21
111.90600000000001
 31
0.0
  0
LINE
  5
128
  8
_________1
 62
     7
 10
22.168600000000001
 20
111.90600000000001
 30
0.0
 11
22.065300000000001
 21
110.726
 31
0.0
  0
LINE
  5
129
  8
_________1
 62
     7
 10
17.701000000000001
 20
113.74299999999999
 30
0.0
 11
15.6271
 21
114.70999999999999
 31
0.0
  0
LINE
  5
12A
  8
_________1
 62
     7
 10
15.6271
 20
114.70999999999999
 30
0.0
 11
16.939599999999999
 21
112.83499999999999
 31
0.0
  0
LINE
  5
12B
  8
_________1
 62
     7
 10
16.939599999999999
 20
112.83499999999999
 30
0.0
 11
17.701000000000001
 21
113.74299999999999
 31
0.0
  0
ARC
  5
12C
  8
_________1
 62
     7
 10
24.399750000000001
 20
123.59831
 30
0.0
 40
12.484465
 50
225.276803
 51
269.72466100000003
  0
LINE
  5
12D
  8
_________1
 62
     7
 10
14.9315
 20
114.05
 30
0.0
 11
23.115400000000001
 21
122.23399999999999
 31
0.0
  0
ARC
  5
12E
  8
_________1
 62
     7
 10
59.171984000000002
 20
136.85970399999999
 30
0.0
 40
0.2601
 50
52.516144999999987
 51
89.702496999999994
  0
ARC
  5
12F
  8
_________1
 62
     7
 10
59.024771999999992
 20
136.63523799999999
 30
0.0
 40
0.528174
 50
36.597399000000003
 51
54.662423999999987
  0
ARC
  5
130
  8
_________1
 62
     7
 10
58.558109999999999
 20
136.261168
 30
0.0
 40
1.126064999999999
 50
25.171557
 51
37.722014999999999
  0
ARC
  5
131
  8
_________1
 62
     7
 10
57.455047999999991
 20
135.70361299999999
 30
0.0
 40
2.361788999999999
 50
17.441241999999999
 51
26.031407999999999
  0
ARC
  5
132
  8
_________1
 62
     7
 10
55.580364000000003
 20
135.07399599999999
 30
0.0
 40
4.3391710000000003
 50
11.556685
 51
17.953261999999999
  0
ARC
  5
133
  8
_________1
 62
     7
 10
52.625739000000003
 20
134.43389199999999
 30
0.0
 40
7.3622170000000002
 50
4.2260179999999989
 51
11.830669
  0
ARC
  5
134
  8
_________1
 62
     7
 10
49.66066
 20
134.13483500000001
 30
0.0
 40
10.34158
 50
359.91666600000008
 51
4.6678319999999989
  0
ARC
  5
135
  8
_________1
 62
     7
 10
49.651307000000003
 20
134.11931999999999
 30
0.0
 40
10.350922000000001
 50
352.60288300000002
 51
0.002618
  0
ARC
  5
136
  8
_________1
 62
     7
 10
53.123890000000003
 20
133.709486
 30
0.0
 40
6.8545959999999999
 50
347.14167800000001
 51
352.26304399999998
  0
ARC
  5
137
  8
_________1
 62
     7
 10
55.751023000000004
 20
133.119179
 30
0.0
 40
4.1619849999999987
 50
340.295841
 51
347.01584300000002
  0
ARC
  5
138
  8
_________1
 62
     7
 10
57.667077999999997
 20
132.44566399999999
 30
0.0
 40
2.131070999999999
 50
331.09828700000003
 51
339.974648
  0
ARC
  5
139
  8
_________1
 62
     7
 10
58.690620999999993
 20
131.889048
 30
0.0
 40
0.9660209999999999
 50
317.27525600000001
 51
330.65953100000007
  0
ARC
  5
13A
  8
_________1
 62
     7
 10
59.082007999999988
 20
131.537181
 30
0.0
 40
0.439823
 50
296.59688499999999
 51
316.35574300000002
  0
ARC
  5
13B
  8
_________1
 62
     7
 10
59.170397999999999
 20
131.37584699999999
 30
0.0
 40
0.256079
 50
270.65692799999999
 51
295.07405599999998
  0
LINE
  5
13C
  8
_________1
 62
     7
 10
30.821400000000001
 20
125.69199999999999
 30
0.0
 11
26.461300000000001
 21
121.33199999999999
 31
0.0
  0
LINE
  5
13D
  8
_________1
 62
     7
 10
26.461300000000001
 20
121.33199999999999
 30
0.0
 11
22.218900000000001
 21
125.575
 31
0.0
  0
LINE
  5
13E
  8
_________1
 62
     7
 10
22.218900000000001
 20
125.575
 30
0.0
 11
26.5791
 21
129.935
 31
0.0
  0
LINE
  5
13F
  8
_________1
  6
AIGENLINE001
 62
     7
 10
23.596599999999999
 20
122.715
 30
0.0
 11
31.584099999999999
 21
130.703
 31
0.0
  0
ARC
  5
140
  8
_________1
  6
AIGENLINE001
 62
     7
 10
39.893254999999989
 20
122.30886700000001
 30
0.0
 40
11.811076
 50
90.288291000000015
 51
134.70858799999999
  0
LINE
  5
141
  8
_________1
  6
AIGENLINE001
 62
     7
 10
39.833799999999997
 20
134.12
 30
0.0
 11
61.861600000000003
 21
134.12
 31
0.0
  0
LINE
  5
142
  8
_________1
  6
AIGENLINE001
 62
     7
 10
-33.137
 20
152.97900000000001
 30
0.0
 11
-33.137
 21
78.771900000000002
 31
0.0
  0
LINE
  5
143
  8
_________1
 62
     7
 10
-24.803599999999999
 20
100.119
 30
0.0
 11
-41.470399999999991
 21
100.119
 31
0.0
  0
LINE
  5
144
  8
_________1
 62
     7
 10
-41.470399999999991
 20
100.119
 30
0.0
 11
-41.470399999999991
 21
102.119
 31
0.0
  0
LINE
  5
145
  8
_________1
 62
     7
 10
-41.470399999999991
 20
102.119
 30
0.0
 11
-24.803599999999999
 21
102.119
 31
0.0
  0
LINE
  5
146
  8
_________1
 62
     7
 10
-24.803599999999999
 20
102.119
 30
0.0
 11
-24.803599999999999
 21
100.119
 31
0.0
  0
LINE
  5
147
  8
_________1
 62
     7
 10
-27.303799999999999
 20
150.453
 30
0.0
 11
-27.303799999999999
 21
102.119
 31
0.0
  0
LINE
  5
148
  8
_________1
 62
     7
 10
-38.970300000000002
 20
150.453
 30
0.0
 11
-38.970300000000002
 21
102.119
 31
0.0
  0
LINE
  5
149
  8
_________1
 62
     7
 10
-27.303799999999999
 20
141.286
 30
0.0
 11
-38.969999999999999
 21
141.286
 31
0.0
  0
LINE
  5
14A
  8
_________1
 62
     7
 10
-27.303799999999999
 20
150.453
 30
0.0
 11
-38.969999999999999
 21
150.453
 31
0.0
  0
LINE
  5
14B
  8
_________1
 62
     7
 10
-27.303799999999999
 20
148.453
 30
0.0
 11
-38.969999999999999
 21
148.453
 31
0.0
  0
LINE
  5
14C
  8
_________1
 62
     7
 10
-27.303799999999999
 20
141.453
 30
0.0
 11
-38.969999999999999
 21
141.453
 31
0.0
  0
LINE
  5
14D
  8
_________1
 62
     7
 10
26.576000000000001
 20
129.93799999999999
 30
0.0
 11
29.462599999999998
 21
132.82400000000001
 31
0.0
  0
ARC
  5
14E
  8
_________1
 62
     7
 10
39.905548000000003
 20
122.278323
 30
0.0
 40
14.841652
 50
90.276881000000003
 51
134.71826899999999
  0
LINE
  5
14F
  8
_________1
 62
     7
 10
39.833799999999997
 20
137.12
 30
0.0
 11
59.17329999999999
 21
137.12
 31
0.0
  0
LINE
  5
150
  8
_________1
 62
     7
 10
59.17329999999999
 20
131.119
 30
0.0
 11
39.833799999999997
 21
131.119
 31
0.0
  0
ARC
  5
151
  8
_________1
 62
     7
 10
39.875796000000001
 20
122.35119400000001
 30
0.0
 40
8.7680030000000002
 50
90.27426100000001
 51
134.72554400000001
  0
LINE
  5
152
  8
_________1
 62
     7
 10
33.705599999999997
 20
128.58099999999999
 30
0.0
 11
30.818999999999999
 21
125.694
 31
0.0
  0
LINE
  5
153
  8
_________1
  6
AIGENLINE001
 62
     7
 10
74.275700000000001
 20
231.88300000000001
 30
0.0
 11
55.7547
 21
231.88300000000001
 31
0.0
  0
LINE
  5
154
  8
_________1
 62
     7
 10
23.298999999999999
 20
123.453
 30
0.0
 11
10.861800000000001
 21
123.453
 31
0.0
  0
LINE
  5
155
  8
_________1
  6
AIGENLINE002
 62
     7
 10
79.500600000000006
 20
100.119
 30
0.0
 11
47.111600000000003
 21
100.119
 31
0.0
  0
LINE
  5
156
  8
_________1
 62
     7
 10
46.4116
 20
100.119
 30
0.0
 11
10.876200000000001
 21
100.119
 31
0.0
  0
LINE
  5
157
  8
_________1
 62
     7
 10
-36.304499999999997
 20
100.119
 30
0.0
 11
-36.304499999999997
 21
93.4529
 31
0.0
  0
LINE
  5
158
  8
_________1
 62
     7
 10
-29.971299999999999
 20
100.119
 30
0.0
 11
-29.971299999999999
 21
93.4529
 31
0.0
  0
LINE
  5
159
  8
_________1
 62
     7
 10
-29.638500000000001
 20
93.4529
 30
0.0
 11
-36.638300000000001
 21
93.4529
 31
0.0
  0
LINE
  5
15A
  8
_________1
 62
     7
 10
-36.638300000000001
 20
93.4529
 30
0.0
 11
-36.638300000000001
 21
100.119
 31
0.0
  0
LINE
  5
15B
  8
_________1
 62
     7
 10
-36.638300000000001
 20
100.119
 30
0.0
 11
-29.638500000000001
 21
100.119
 31
0.0
  0
LINE
  5
15C
  8
_________1
 62
     7
 10
-29.638500000000001
 20
100.119
 30
0.0
 11
-29.638500000000001
 21
93.4529
 31
0.0
  0
LINE
  5
15D
  8
_________1
 62
     7
 10
61.840200000000003
 20
100.119
 30
0.0
 11
61.840200000000003
 21
93.4529
 31
0.0
  0
LINE
  5
15E
  8
_________1
 62
     7
 10
68.173400000000001
 20
100.119
 30
0.0
 11
68.173400000000001
 21
93.4529
 31
0.0
  0
LINE
  5
15F
  8
_________1
 62
     7
 10
68.506500000000003
 20
93.4529
 30
0.0
 11
61.506399999999999
 21
93.4529
 31
0.0
  0
LINE
  5
160
  8
_________1
 62
     7
 10
61.506399999999999
 20
93.4529
 30
0.0
 11
61.506399999999999
 21
100.119
 31
0.0
  0
LINE
  5
161
  8
_________1
 62
     7
 10
61.506399999999999
 20
100.119
 30
0.0
 11
68.506500000000003
 21
100.119
 31
0.0
  0
LINE
  5
162
  8
_________1
 62
     7
 10
68.506500000000003
 20
100.119
 30
0.0
 11
68.506500000000003
 21
93.4529
 31
0.0
  0
LINE
  5
163
  8
_________1
 62
     7
 10
-36.304499999999997
 20
90.119399999999999
 30
0.0
 11
-36.304499999999997
 21
81.786399999999986
 31
0.0
  0
LINE
  5
164
  8
_________1
 62
     7
 10
-29.971299999999999
 20
90.119399999999999
 30
0.0
 11
-29.971299999999999
 21
81.786399999999986
 31
0.0
  0
LINE
  5
165
  8
_________1
 62
     7
 10
-29.638500000000001
 20
81.786399999999986
 30
0.0
 11
-36.638300000000001
 21
81.786399999999986
 31
0.0
  0
LINE
  5
166
  8
_________1
 62
     7
 10
-36.638300000000001
 20
81.786399999999986
 30
0.0
 11
-36.638300000000001
 21
90.119399999999999
 31
0.0
  0
LINE
  5
167
  8
_________1
 62
     7
 10
-36.638300000000001
 20
90.119399999999999
 30
0.0
 11
-29.638500000000001
 21
90.119399999999999
 31
0.0
  0
LINE
  5
168
  8
_________1
 62
     7
 10
-29.638500000000001
 20
90.119399999999999
 30
0.0
 11
-29.638500000000001
 21
81.786399999999986
 31
0.0
  0
LINE
  5
169
  8
_________1
 62
     7
 10
61.840200000000003
 20
90.119399999999999
 30
0.0
 11
61.840200000000003
 21
81.786399999999986
 31
0.0
  0
LINE
  5
16A
  8
_________1
 62
     7
 10
68.173400000000001
 20
90.119399999999999
 30
0.0
 11
68.173400000000001
 21
81.786399999999986
 31
0.0
  0
LINE
  5
16B
  8
_________1
 62
     7
 10
68.506500000000003
 20
81.786399999999986
 30
0.0
 11
61.506399999999999
 21
81.786399999999986
 31
0.0
  0
LINE
  5
16C
  8
_________1
 62
     7
 10
61.506399999999999
 20
81.786399999999986
 30
0.0
 11
61.506399999999999
 21
90.119399999999999
 31
0.0
  0
LINE
  5
16D
  8
_________1
 62
     7
 10
61.506399999999999
 20
90.119399999999999
 30
0.0
 11
68.506500000000003
 21
90.119399999999999
 31
0.0
  0
LINE
  5
16E
  8
_________1
 62
     7
 10
68.506500000000003
 20
90.119399999999999
 30
0.0
 11
68.506500000000003
 21
81.786399999999986
 31
0.0
  0
LINE
  5
16F
  8
_________1
 62
     7
 10
-30.732299999999999
 20
91.952899999999985
 30
0.0
 11
-30.732299999999999
 21
90.119399999999999
 31
0.0
  0
LINE
  5
170
  8
_________1
 62
     7
 10
-35.539000000000001
 20
91.952899999999985
 30
0.0
 11
-35.539000000000001
 21
90.119399999999999
 31
0.0
  0
LINE
  5
171
  8
_________1
 62
     7
 10
-28.326599999999999
 20
90.119399999999999
 30
0.0
 11
-37.948799999999999
 21
90.119399999999999
 31
0.0
  0
LINE
  5
172
  8
_________1
 62
     7
 10
-37.948799999999999
 20
90.119399999999999
 30
0.0
 11
-37.948799999999999
 21
91.952200000000005
 31
0.0
  0
LINE
  5
173
  8
_________1
 62
     7
 10
-37.948799999999999
 20
91.952200000000005
 30
0.0
 11
-28.326599999999999
 21
91.952200000000005
 31
0.0
  0
LINE
  5
174
  8
_________1
 62
     7
 10
-28.326599999999999
 20
91.952200000000005
 30
0.0
 11
-28.326599999999999
 21
90.119399999999999
 31
0.0
  0
LINE
  5
175
  8
_________1
 62
     7
 10
-26.638200000000001
 20
92.952699999999993
 30
0.0
 11
-39.638300000000001
 21
92.952699999999993
 31
0.0
  0
LINE
  5
176
  8
_________1
 62
     7
 10
-39.638300000000001
 20
92.952699999999993
 30
0.0
 11
-39.638300000000001
 21
93.4529
 31
0.0
  0
LINE
  5
177
  8
_________1
 62
     7
 10
-39.638300000000001
 20
93.4529
 30
0.0
 11
-26.638200000000001
 21
93.4529
 31
0.0
  0
LINE
  5
178
  8
_________1
 62
     7
 10
-26.638200000000001
 20
93.4529
 30
0.0
 11
-26.638200000000001
 21
92.952699999999993
 31
0.0
  0
LINE
  5
179
  8
_________1
 62
     7
 10
-26.137899999999998
 20
91.952899999999985
 30
0.0
 11
-40.138500000000001
 21
91.952899999999985
 31
0.0
  0
LINE
  5
17A
  8
_________1
 62
     7
 10
-40.138500000000001
 20
91.952899999999985
 30
0.0
 11
-40.138500000000001
 21
92.953400000000016
 31
0.0
  0
LINE
  5
17B
  8
_________1
 62
     7
 10
-40.138500000000001
 20
92.953400000000016
 30
0.0
 11
-26.137899999999998
 21
92.953400000000016
 31
0.0
  0
LINE
  5
17C
  8
_________1
 62
     7
 10
-26.137899999999998
 20
92.953400000000016
 30
0.0
 11
-26.137899999999998
 21
91.952899999999985
 31
0.0
  0
LINE
  5
17D
  8
_________1
 62
     7
 10
65.006600000000006
 20
91.952899999999985
 30
0.0
 11
65.006600000000006
 21
90.119399999999999
 31
0.0
  0
LINE
  5
17E
  8
_________1
 62
     7
 10
24.3398
 20
122.535
 30
0.0
 11
24.3398
 21
110.26900000000001
 31
0.0
  0
LINE
  5
17F
  8
_________1
 62
     7
 10
24.3398
 20
109.328
 30
0.0
 11
24.3398
 21
87.012999999999991
 31
0.0
  0
LINE
  5
180
  8
_________1
  6
AIGENLINE001
 62
     7
 10
65.006600000000006
 20
240.684
 30
0.0
 11
65.006600000000006
 21
222.869
 31
0.0
  0
LINE
  5
181
  8
_________1
  6
AIGENLINE001
 62
     7
 10
65.006600000000006
 20
152.97900000000001
 30
0.0
 11
65.006600000000006
 21
118.85299999999999
 31
0.0
  0
LINE
  5
182
  8
_________1
  6
AIGENLINE001
 62
     7
 10
65.006600000000006
 20
111.974
 30
0.0
 11
65.006600000000006
 21
79.341700000000003
 31
0.0
  0
LINE
  5
183
  8
_________1
 62
     7
 10
69.173500000000004
 20
90.119399999999999
 30
0.0
 11
60.8401
 21
90.119399999999999
 31
0.0
  0
LINE
  5
184
  8
_________1
 62
     7
 10
60.8401
 20
90.119399999999999
 30
0.0
 11
60.8401
 21
91.952200000000005
 31
0.0
  0
LINE
  5
185
  8
_________1
 62
     7
 10
60.8401
 20
91.952200000000005
 30
0.0
 11
69.173500000000004
 21
91.952200000000005
 31
0.0
  0
LINE
  5
186
  8
_________1
 62
     7
 10
69.173500000000004
 20
91.952200000000005
 30
0.0
 11
69.173500000000004
 21
90.119399999999999
 31
0.0
  0
LINE
  5
187
  8
_________1
 62
     7
 10
71.506500000000003
 20
92.952699999999993
 30
0.0
 11
58.506399999999999
 21
92.952699999999993
 31
0.0
  0
LINE
  5
188
  8
_________1
 62
     7
 10
58.506399999999999
 20
92.952699999999993
 30
0.0
 11
58.506399999999999
 21
93.4529
 31
0.0
  0
LINE
  5
189
  8
_________1
 62
     7
 10
58.506399999999999
 20
93.4529
 30
0.0
 11
71.506500000000003
 21
93.4529
 31
0.0
  0
LINE
  5
18A
  8
_________1
 62
     7
 10
71.506500000000003
 20
93.4529
 30
0.0
 11
71.506500000000003
 21
92.952699999999993
 31
0.0
  0
LINE
  5
18B
  8
_________1
 62
     7
 10
72.006699999999995
 20
91.952899999999985
 30
0.0
 11
58.006100000000004
 21
91.952899999999985
 31
0.0
  0
LINE
  5
18C
  8
_________1
 62
     7
 10
58.006100000000004
 20
91.952899999999985
 30
0.0
 11
58.006100000000004
 21
92.953400000000016
 31
0.0
  0
LINE
  5
18D
  8
_________1
 62
     7
 10
58.006100000000004
 20
92.953400000000016
 30
0.0
 11
72.006699999999995
 21
92.953400000000016
 31
0.0
  0
LINE
  5
18E
  8
_________1
 62
     7
 10
72.006699999999995
 20
92.953400000000016
 30
0.0
 11
72.006699999999995
 21
91.952899999999985
 31
0.0
  0
LINE
  5
18F
  8
_________1
 62
     7
 10
73.340000000000003
 20
100.119
 30
0.0
 11
56.673200000000001
 21
100.119
 31
0.0
  0
LINE
  5
190
  8
_________1
 62
     7
 10
56.673200000000001
 20
100.119
 30
0.0
 11
56.673200000000001
 21
102.119
 31
0.0
  0
LINE
  5
191
  8
_________1
 62
     7
 10
56.673200000000001
 20
102.119
 30
0.0
 11
73.340000000000003
 21
102.119
 31
0.0
  0
LINE
  5
192
  8
_________1
 62
     7
 10
73.340000000000003
 20
102.119
 30
0.0
 11
73.340000000000003
 21
100.119
 31
0.0
  0
LINE
  5
193
  8
_________1
 62
     7
 10
70.840199999999996
 20
150.453
 30
0.0
 11
70.840199999999996
 21
102.119
 31
0.0
  0
LINE
  5
194
  8
_________1
 62
     7
 10
59.17329999999999
 20
150.453
 30
0.0
 11
59.17329999999999
 21
137.12
 31
0.0
  0
LINE
  5
195
  8
_________1
 62
     7
 10
59.17329999999999
 20
131.119
 30
0.0
 11
59.17329999999999
 21
102.119
 31
0.0
  0
LINE
  5
196
  8
_________1
 62
     7
 10
70.840199999999996
 20
141.286
 30
0.0
 11
59.17329999999999
 21
141.286
 31
0.0
  0
LINE
  5
197
  8
_________1
 62
     7
 10
70.840199999999996
 20
150.453
 30
0.0
 11
59.17329999999999
 21
150.453
 31
0.0
  0
LINE
  5
198
  8
_________1
 62
     7
 10
70.840199999999996
 20
148.453
 30
0.0
 11
59.17329999999999
 21
148.453
 31
0.0
  0
LINE
  5
199
  8
_________1
 62
     7
 10
70.840199999999996
 20
141.453
 30
0.0
 11
59.17329999999999
 21
141.453
 31
0.0
  0
TEXT
  5
19A
  8
_________2
 62
     7
 10
169.50999999999999
 20
85.297300000000007
 30
0.0
 40
3.9357000000000002
  1
※快適にお使いいただくためには、0.2MPa程度の圧力をおすすめします。
 41
0.5
  0
TEXT
  5
19B
  8
_________2
 62
     7
 10
169.50999999999999
 20
91.377600000000001
 30
0.0
 40
3.9357000000000002
  1
0.4MPa（流動圧）
 41
0.5
  0
TEXT
  5
19C
  8
_________2
 62
     7
 10
169.50999999999999
 20
63.960700000000003
 30
0.0
 40
3.9357000000000002
  1
※寒冷地仕様ではありません、凍結が予想される場合は凍結予防をしてください。
 41
0.5
  0
TEXT
  5
19D
  8
_________2
 62
     7
 10
169.50999999999999
 20
70.040999999999997
 30
0.0
 40
3.9357000000000002
  1
1～40℃
 41
0.5
  0
TEXT
  5
19E
  8
_________2
 62
     7
 10
219.08699999999999
 20
45.473100000000002
 30
0.0
 40
3.9357000000000002
  1
立水栓　スピッロ
 41
0.5
  0
TEXT
  5
19F
  8
_________2
 62
     7
 10
200.4570586666666
 20
34.465299999999999
 30
0.0
 40
3.6545800000000002
  1
1 ： 3
 41
0.5
 72
     1
 11
203.86799999999999
 21
34.465299999999999
 31
0.0
  0
TEXT
  5
1A0
  8
_________2
 62
     7
 10
246.24254999999999
 20
30.3553
 30
0.0
 40
3.9357000000000002
  1
FM3251CR
 41
0.5
 72
     1
 11
253.458
 21
30.3553
 31
0.0
  0
TEXT
  5
1A1
  8
_________2
 62
     7
 10
149.3328003333333
 20
34.850499999999997
 30
0.0
 40
3.6545800000000002
  1
井田
 41
0.5
 72
     1
 11
151.221
 21
34.850499999999997
 31
0.0
  0
TEXT
  5
1A2
  8
_________2
 62
     7
 10
130.69789066666669
 20
34.850499999999997
 30
0.0
 40
3.6545800000000002
  1
恋塚
 41
0.5
 72
     1
 11
132.64699999999999
 21
34.850499999999997
 31
0.0
  0
TEXT
  5
1A3
  8
_________2
 62
     7
 10
177.69399999999999
 20
34.465299999999999
 30
0.0
 40
3.6545800000000002
  1
19.01.09
 41
0.5
  0
TEXT
  5
1A4
  8
_________2
 62
     7
 10
290.64778333333328
 20
12.808299999999999
 30
0.0
 40
3.3734599999999988
  1
A3
 41
0.5
 72
     2
 11
293.459
 21
12.808299999999999
 31
0.0
  0
TEXT
  5
1A5
  8
_________2
 62
     7
 10
134.495
 20
21.954699999999999
 30
0.0
 40
3.9357000000000002
  1
（社）日本水道協会認証品
 41
0.5
  0
LINE
  5
1A6
  8
_________2
 62
     7
 10
315.209
 20
148.65899999999999
 30
0.0
 11
293.459
 21
148.65899999999999
 31
0.0
  0
LINE
  5
1A7
  8
_________2
 62
     7
 10
105.20699999999999
 20
17.156300000000002
 30
0.0
 11
105.20699999999999
 21
0.176045
 31
0.0
  0
LINE
  5
1A8
  8
_________2
 62
     7
 10
105.20699999999999
 20
297.178
 30
0.0
 11
105.20699999999999
 21
280.15800000000002
 31
0.0
  0
LINE
  5
1A9
  8
_________2
 62
     7
 10
-83.043899999999994
 20
148.65899999999999
 30
0.0
 11
-104.794
 21
148.65899999999999
 31
0.0
  0
INSERT
  5
1AA
  8
_________2
 62
     7
  2
AIGNBL03010002
 10
0.0
 20
0.0
 30
0.0
  0
TEXT
  5
1AB
  8
_________2
 62
     7
 10
214.51300000000001
 20
22.9269
 30
0.0
 40
3.0923400000000001
  1
図番
 41
0.5
  0
LINE
  5
1AC
  8
_________2
 62
     7
 10
213.458
 20
27.156099999999999
 30
0.0
 11
293.459
 21
27.156099999999999
 31
0.0
  0
TEXT
  5
1AD
  8
_________2
 62
     7
 10
214.51300000000001
 20
32.926699999999997
 30
0.0
 40
3.0923400000000001
  1
品番
 41
0.5
  0
TEXT
  5
1AE
  8
_________2
 62
     7
 10
214.51300000000001
 20
53.0655
 30
0.0
 40
3.0923400000000001
  1
名称
 41
0.5
  0
TEXT
  5
1AF
  8
_________2
 62
     7
 10
201.75325833333329
 20
48.069400000000002
 30
0.0
 40
3.6545800000000002
  1
mm
 41
0.5
 72
     1
 11
203.27600000000001
 21
48.069400000000002
 31
0.0
  0
TEXT
  5
1B0
  8
_________2
 62
     7
 10
195.55099999999999
 20
53.0655
 30
0.0
 40
3.0923400000000001
  1
単位
 41
0.5
  0
TEXT
  5
1B1
  8
_________2
 62
     7
 10
195.55099999999999
 20
40.658200000000001
 30
0.0
 40
3.0923400000000001
  1
尺度
 41
0.5
  0
TEXT
  5
1B2
  8
_________2
 62
     7
 10
246.24254999999999
 20
20.354800000000001
 30
0.0
 40
3.9357000000000002
  1
FM3251CR
 41
0.5
 72
     1
 11
253.458
 21
20.354800000000001
 31
0.0
  0
TEXT
  5
1B3
  8
_________2
 62
     7
 10
129.49600000000001
 20
98.999600000000001
 30
0.0
 40
3.9357000000000002
  1
給水圧力
 41
0.5
  0
TEXT
  5
1B4
  8
_________2
 62
     7
 10
129.49600000000001
 20
106.762
 30
0.0
 40
3.9357000000000002
  1
用途
 41
0.5
  0
TEXT
  5
1B5
  8
_________2
 62
     7
 10
169.50999999999999
 20
106.762
 30
0.0
 40
3.9357000000000002
  1
一般住宅用（屋内用）
 41
0.5
  0
LINE
  5
1B6
  8
_________2
 62
     7
 10
145.64099999999999
 20
104.654
 30
0.0
 11
145.64099999999999
 21
83.317400000000006
 31
0.0
  0
LINE
  5
1B7
  8
_________2
 62
     7
 10
166.97200000000001
 20
112.417
 30
0.0
 11
166.97200000000001
 21
61.980800000000002
 31
0.0
  0
LINE
  5
1B8
  8
_________2
 62
     7
 10
290.16199999999998
 20
112.417
 30
0.0
 11
126.95699999999999
 21
112.417
 31
0.0
  0
LINE
  5
1B9
  8
_________2
 62
     7
 10
126.95699999999999
 20
112.417
 30
0.0
 11
126.95699999999999
 21
61.980800000000002
 31
0.0
  0
LINE
  5
1BA
  8
_________2
 62
     7
 10
126.95699999999999
 20
61.980800000000002
 30
0.0
 11
290.16199999999998
 21
61.980800000000002
 31
0.0
  0
LINE
  5
1BB
  8
_________2
 62
     7
 10
290.16199999999998
 20
61.980800000000002
 30
0.0
 11
290.16199999999998
 21
112.417
 31
0.0
  0
TEXT
  5
1BC
  8
_________2
 62
     7
 10
147.41499999999999
 20
98.999600000000001
 30
0.0
 40
3.9357000000000002
  1
最低必要水圧
 41
0.5
  0
TEXT
  5
1BD
  8
_________2
 62
     7
 10
169.50999999999999
 20
98.999600000000001
 30
0.0
 40
3.9357000000000002
  1
0.1MPa（流動圧）
 41
0.5
  0
LINE
  5
1BE
  8
_________2
 62
     7
 10
126.95699999999999
 20
104.654
 30
0.0
 11
290.16199999999998
 21
104.654
 31
0.0
  0
TEXT
  5
1BF
  8
_________2
 62
     7
 10
129.49600000000001
 20
77.662899999999993
 30
0.0
 40
3.9357000000000002
  1
使用可能水質
 41
0.5
  0
TEXT
  5
1C0
  8
_________2
 62
     7
 10
169.50999999999999
 20
77.662899999999993
 30
0.0
 40
3.9357000000000002
  1
水道水
 41
0.5
  0
LINE
  5
1C1
  8
_________2
 62
     7
 10
126.95699999999999
 20
83.317400000000006
 30
0.0
 11
290.16199999999998
 21
83.317400000000006
 31
0.0
  0
TEXT
  5
1C2
  8
_________2
 62
     7
 10
147.41499999999999
 20
91.377600000000001
 30
0.0
 40
3.9357000000000002
  1
最高水圧
 41
0.5
  0
LINE
  5
1C3
  8
_________2
 62
     7
 10
145.64099999999999
 20
96.891499999999994
 30
0.0
 11
290.16199999999998
 21
96.891499999999994
 31
0.0
  0
TEXT
  5
1C4
  8
_________2
 62
     7
 10
129.49600000000001
 20
70.040999999999997
 30
0.0
 40
3.9357000000000002
  1
使用環境温度
 41
0.5
  0
LINE
  5
1C5
  8
_________2
 62
     7
 10
126.95699999999999
 20
75.554900000000004
 30
0.0
 11
290.16199999999998
 21
75.554900000000004
 31
0.0
  0
TEXT
  5
1C6
  8
_________2
 62
     7
 10
176.501
 20
40.658200000000001
 30
0.0
 40
3.0923400000000001
  1
日付
 41
0.5
  0
TEXT
  5
1C7
  8
_________2
 62
     7
 10
139.547
 20
40.658200000000001
 30
0.0
 40
3.0923400000000001
  1
検図
 41
0.5
  0
TEXT
  5
1C8
  8
_________2
 62
     7
 10
127.929
 20
26.4588
 30
0.0
 40
3.0923400000000001
  1
備考
 41
0.5
  0
TEXT
  5
1C9
  8
_________2
 62
     7
 10
127.929
 20
40.658200000000001
 30
0.0
 40
3.0923400000000001
  1
製図
 41
0.5
  0
TEXT
  5
1CA
  8
_________2
 62
     7
 10
133.69596533333331
 20
49.184199999999997
 30
0.0
 40
4.4979399999999989
  1
セラトレーディング株式会社
 41
0.5
 72
     1
 11
151.08799999999999
 21
49.184199999999997
 31
0.0
  0
LINE
  5
1CB
  8
_________2
 62
     7
 10
293.459
 20
17.156300000000002
 30
0.0
 11
-83.043899999999994
 21
17.156300000000002
 31
0.0
  0
LINE
  5
1CC
  8
_________2
 62
     7
 10
-83.043899999999994
 20
17.156300000000002
 30
0.0
 11
-83.043899999999994
 21
280.15800000000002
 31
0.0
  0
LINE
  5
1CD
  8
_________2
 62
     7
 10
-83.043899999999994
 20
280.15800000000002
 30
0.0
 11
293.459
 21
280.15800000000002
 31
0.0
  0
LINE
  5
1CE
  8
_________2
 62
     7
 10
293.459
 20
280.15800000000002
 30
0.0
 11
293.459
 21
17.156300000000002
 31
0.0
  0
LINE
  5
1CF
  8
_________2
 62
     7
 10
175.458
 20
30.656400000000001
 30
0.0
 11
175.458
 21
57.156199999999998
 31
0.0
  0
LINE
  5
1D0
  8
_________2
 62
     7
 10
194.458
 20
30.656400000000001
 30
0.0
 11
194.458
 21
57.156199999999998
 31
0.0
  0
LINE
  5
1D1
  8
_________2
 62
     7
 10
126.95699999999999
 20
17.156300000000002
 30
0.0
 11
126.95699999999999
 21
57.156199999999998
 31
0.0
  0
LINE
  5
1D2
  8
_________2
 62
     7
 10
213.458
 20
17.156300000000002
 30
0.0
 11
213.458
 21
57.156199999999998
 31
0.0
  0
LINE
  5
1D3
  8
_________2
 62
     7
 10
138.45699999999999
 20
30.656400000000001
 30
0.0
 11
138.45699999999999
 21
44.65659999999999
 31
0.0
  0
LINE
  5
1D4
  8
_________2
 62
     7
 10
126.95699999999999
 20
30.656400000000001
 30
0.0
 11
213.458
 21
30.656400000000001
 31
0.0
  0
LINE
  5
1D5
  8
_________2
 62
     7
 10
126.95699999999999
 20
44.65659999999999
 30
0.0
 11
213.458
 21
44.65659999999999
 31
0.0
  0
LINE
  5
1D6
  8
_________2
 62
     7
 10
213.458
 20
37.15590000000001
 30
0.0
 11
293.459
 21
37.15590000000001
 31
0.0
  0
LINE
  5
1D7
  8
_________2
 62
     7
 10
126.95699999999999
 20
57.156199999999998
 30
0.0
 11
293.459
 21
57.156199999999998
 31
0.0
  0
ENDSEC
  0
EOF
