  0
SECTION
  2
HEADER
  9
$ACADVER
  1
AC1009
  9
$INSBASE
 10
0.0
 20
0.0
 30
0.0
  9
$EXTMIN
 10
-4.70052
 20
-21.071000000000002
 30
0.0
  9
$EXTMAX
 10
205.30099999999999
 20
275.93099999999998
 30
0.0
  9
$LIMMIN
 10
0.0
 20
0.0
  9
$LIMMAX
 10
12.0
 20
9.0
  9
$ORTHOMODE
 70
     0
  9
$REGENMODE
 70
     1
  9
$FILLMODE
 70
     1
  9
$QTEXTMODE
 70
     0
  9
$MIRRTEXT
 70
     1
  9
$DRAGMODE
 70
     2
  9
$LTSCALE
 40
1.0
  9
$OSMODE
 70
    37
  9
$ATTMODE
 70
     1
  9
$TEXTSIZE
 40
0.0
  9
$TRACEWID
 40
0.05
  9
$TEXTSTYLE
  7
STANDARD
  9
$CLAYER
  8
0
  9
$CELTYPE
  6
CONTINUOUS
  9
$CECOLOR
 62
   256
  9
$DIMSCALE
 40
1.0
  9
$DIMASZ
 40
0.18
  9
$DIMEXO
 40
0.0625
  9
$DIMDLI
 40
0.38
  9
$DIMRND
 40
0.0
  9
$DIMDLE
 40
0.0
  9
$DIMEXE
 40
0.18
  9
$DIMTP
 40
0.0
  9
$DIMTM
 40
0.0
  9
$DIMTXT
 40
0.18
  9
$DIMCEN
 40
0.09
  9
$DIMTSZ
 40
0.0
  9
$DIMTOL
 70
     0
  9
$DIMLIM
 70
     0
  9
$DIMTIH
 70
     1
  9
$DIMTOH
 70
     1
  9
$DIMSE1
 70
     0
  9
$DIMSE2
 70
     0
  9
$DIMTAD
 70
     0
  9
$DIMZIN
 70
     0
  9
$DIMBLK
  1

  9
$DIMASO
 70
     1
  9
$DIMSHO
 70
     1
  9
$DIMPOST
  1

  9
$DIMAPOST
  1

  9
$DIMALT
 70
     0
  9
$DIMALTD
 70
     2
  9
$DIMALTF
 40
25.399999999999999
  9
$DIMLFAC
 40
1.0
  9
$DIMTOFL
 70
     0
  9
$DIMTVP
 40
0.0
  9
$DIMTIX
 70
     0
  9
$DIMSOXD
 70
     0
  9
$DIMSAH
 70
     0
  9
$DIMBLK1
  1

  9
$DIMBLK2
  1

  9
$DIMSTYLE
  2
STANDARD
  9
$DIMCLRD
 70
     0
  9
$DIMCLRE
 70
     0
  9
$DIMCLRT
 70
     0
  9
$DIMTFAC
 40
1.0
  9
$DIMGAP
 40
0.09
  9
$LUNITS
 70
     2
  9
$LUPREC
 70
     4
  9
$SKETCHINC
 40
0.1
  9
$FILLETRAD
 40
0.0
  9
$AUNITS
 70
     0
  9
$AUPREC
 70
     0
  9
$MENU
  1
.
  9
$ELEVATION
 40
0.0
  9
$PELEVATION
 40
0.0
  9
$THICKNESS
 40
0.0
  9
$LIMCHECK
 70
     0
  9
$BLIPMODE
 70
     0
  9
$CHAMFERA
 40
0.0
  9
$CHAMFERB
 40
0.0
  9
$SKPOLY
 70
     0
  9
$TDCREATE
 40
2444972.375
  9
$TDUPDATE
 40
2457829.249212292
  9
$TDINDWG
 40
0.0000282176
  9
$TDUSRTIMER
 40
0.0000282176
  9
$USRTIMER
 70
     1
  9
$ANGBASE
 50
0.0
  9
$ANGDIR
 70
     0
  9
$PDMODE
 70
     0
  9
$PDSIZE
 40
0.0
  9
$PLINEWID
 40
0.0
  9
$COORDS
 70
     1
  9
$SPLFRAME
 70
     0
  9
$SPLINETYPE
 70
     6
  9
$SPLINESEGS
 70
     8
  9
$ATTDIA
 70
     1
  9
$ATTREQ
 70
     1
  9
$HANDLING
 70
     1
  9
$HANDSEED
  5
283
  9
$SURFTAB1
 70
     6
  9
$SURFTAB2
 70
     6
  9
$SURFTYPE
 70
     6
  9
$SURFU
 70
     6
  9
$SURFV
 70
     6
  9
$UCSNAME
  2

  9
$UCSORG
 10
0.0
 20
0.0
 30
0.0
  9
$UCSXDIR
 10
1.0
 20
0.0
 30
0.0
  9
$UCSYDIR
 10
0.0
 20
1.0
 30
0.0
  9
$PUCSNAME
  2

  9
$PUCSORG
 10
0.0
 20
0.0
 30
0.0
  9
$PUCSXDIR
 10
1.0
 20
0.0
 30
0.0
  9
$PUCSYDIR
 10
0.0
 20
1.0
 30
0.0
  9
$USERI1
 70
     0
  9
$USERI2
 70
     0
  9
$USERI3
 70
     0
  9
$USERI4
 70
     0
  9
$USERI5
 70
     0
  9
$USERR1
 40
0.0
  9
$USERR2
 40
0.0
  9
$USERR3
 40
0.0
  9
$USERR4
 40
0.0
  9
$USERR5
 40
0.0
  9
$WORLDVIEW
 70
     1
  9
$SHADEDGE
 70
     3
  9
$SHADEDIF
 70
    70
  9
$TILEMODE
 70
     1
  9
$MAXACTVP
 70
    48
  9
$PLIMCHECK
 70
     0
  9
$PEXTMIN
 10
1.0000000000000000E+020
 20
1.0000000000000000E+020
 30
1.0000000000000000E+020
  9
$PEXTMAX
 10
-1.0000000000000000E+020
 20
-1.0000000000000000E+020
 30
-1.0000000000000000E+020
  9
$PLIMMIN
 10
0.0
 20
0.0
  9
$PLIMMAX
 10
12.0
 20
9.0
  9
$UNITMODE
 70
     0
  9
$VISRETAIN
 70
     1
  9
$PLINEGEN
 70
     0
  9
$PSLTSCALE
 70
     1
  0
ENDSEC
  0
SECTION
  2
TABLES
  0
TABLE
  2
VPORT
 70
     1
  0
VPORT
  2
*ACTIVE
 70
     0
 10
0.0
 20
0.0
 11
1.0
 21
1.0
 12
173.05885373675909
 22
127.42999999999989
 13
0.0
 23
0.0
 14
1.0
 24
1.0
 15
0.0
 25
0.0
 16
0.0
 26
0.0
 36
1.0
 17
0.0
 27
0.0
 37
0.0
 40
289.64129411868203
 41
2.1063583815028899
 42
50.0
 43
0.0
 44
0.0
 50
0.0
 51
0.0
 71
     0
 72
   100
 73
     1
 74
     1
 75
     0
 76
     0
 77
     0
 78
     0
  0
ENDTAB
  0
TABLE
  2
LTYPE
 70
     3
  0
LTYPE
  2
CONTINUOUS
 70
     0
  3
Solid line
 72
    65
 73
     0
 40
0.0
  0
LTYPE
  2
AIGENLINE001
 70
     0
  3
generate AI->DXF Converter
 72
    65
 73
     4
 40
5.8561449999999988
 49
3.5278
 49
-0.776115
 49
0.776115
 49
-0.776115
  0
LTYPE
  2
AIGENLINE002
 70
     0
  3
generate AI->DXF Converter
 72
    65
 73
     2
 40
1.5522299999999991
 49
0.776115
 49
-0.776115
  0
ENDTAB
  0
TABLE
  2
LAYER
 70
     2
  0
LAYER
  2
0
 70
     0
 62
     7
  6
CONTINUOUS
  0
LAYER
  2
_________2
 70
     0
 62
     7
  6
CONTINUOUS
  0
ENDTAB
  0
TABLE
  2
STYLE
 70
     1
  0
STYLE
  2
STANDARD
 70
     0
 40
0.0
 41
0.0
 50
0.0
 71
     0
 42
0.0
  3
TXT
  4
EXTFONT.SHX
  0
ENDTAB
  0
TABLE
  2
VIEW
 70
     0
  0
ENDTAB
  0
TABLE
  2
UCS
 70
     0
  0
ENDTAB
  0
TABLE
  2
APPID
 70
     3
  0
APPID
  2
ACAD
 70
     0
  0
APPID
  2
ACAD_NAV_VCDISPLAY
 70
     0
  0
APPID
  2
ACAD_MLEADERVER
 70
     0
  0
ENDTAB
  0
TABLE
  2
DIMSTYLE
 70
     1
  0
DIMSTYLE
  2
STANDARD
 70
     0
  3

  4

  5

  6

  7

 40
1.0
 41
0.18
 42
0.0625
 43
0.38
 44
0.18
 45
0.0
 46
0.0
 47
0.0
 48
0.0
140
0.18
141
0.09
142
0.0
143
25.399999999999999
144
1.0
145
0.0
146
1.0
147
0.09
 71
     0
 72
     0
 73
     1
 74
     1
 75
     0
 76
     0
 77
     0
 78
     0
170
     0
171
     2
172
     0
173
     0
174
     0
175
     0
176
     0
177
     0
178
     0
  0
ENDTAB
  0
ENDSEC
  0
SECTION
  2
BLOCKS
  0
BLOCK
  8
0
  2
$MODEL_SPACE
 70
     0
 10
0.0
 20
0.0
 30
0.0
  3
$MODEL_SPACE
  1

  0
ENDBLK
  5
1A
  8
0
  0
BLOCK
 67
     1
  8
0
  2
$PAPER_SPACE
 70
     0
 10
0.0
 20
0.0
 30
0.0
  3
$PAPER_SPACE
  1

  0
ENDBLK
  5
17
 67
     1
  8
0
  0
ENDSEC
  0
SECTION
  2
ENTITIES
  0
TEXT
  5
23
  8
0
 62
     7
 10
65.474198000000001
 20
68.644300000000001
 30
0.0
 40
3.0923400000000001
  1
G 1/2
 41
0.5
 72
     2
 11
71.555800000000005
 21
68.644300000000001
 31
0.0
  0
LINE
  5
24
  8
0
 62
     7
 10
142.15000000000001
 20
144.137
 30
0.0
 11
142.56100000000001
 21
143.726
 31
0.0
  0
LINE
  5
25
  8
0
 62
     7
 10
142.15000000000001
 20
145.017
 30
0.0
 11
143.441
 21
143.726
 31
0.0
  0
LINE
  5
26
  8
0
 62
     7
 10
142.322
 20
145.72399999999999
 30
0.0
 11
144.31999999999999
 21
143.726
 31
0.0
  0
LINE
  5
27
  8
0
 62
     7
 10
143.20099999999999
 20
145.72399999999999
 30
0.0
 11
145.19900000000001
 21
143.726
 31
0.0
  0
LINE
  5
28
  8
0
 62
     7
 10
152.87799999999999
 20
145.72399999999999
 30
0.0
 11
153.816
 21
144.786
 31
0.0
  0
LINE
  5
29
  8
0
 62
     7
 10
153.816
 20
144.297
 30
0.0
 11
153.245
 21
143.726
 31
0.0
  0
LINE
  5
2A
  8
0
 62
     7
 10
151.999
 20
145.72399999999999
 30
0.0
 11
153.816
 21
143.90700000000001
 31
0.0
  0
LINE
  5
2B
  8
0
 62
     7
 10
153.816
 20
145.17699999999999
 30
0.0
 11
152.36500000000001
 21
143.726
 31
0.0
  0
LINE
  5
2C
  8
0
 62
     7
 10
151.119
 20
145.72399999999999
 30
0.0
 11
153.11699999999999
 21
143.726
 31
0.0
  0
LINE
  5
2D
  8
0
 62
     7
 10
153.48500000000001
 20
145.72399999999999
 30
0.0
 11
151.48599999999999
 21
143.726
 31
0.0
  0
LINE
  5
2E
  8
0
 62
     7
 10
150.239
 20
145.72399999999999
 30
0.0
 11
152.23699999999999
 21
143.726
 31
0.0
  0
LINE
  5
2F
  8
0
 62
     7
 10
152.60499999999999
 20
145.72399999999999
 30
0.0
 11
150.60599999999999
 21
143.726
 31
0.0
  0
LINE
  5
30
  8
0
 62
     7
 10
149.35900000000001
 20
145.72399999999999
 30
0.0
 11
151.357
 21
143.726
 31
0.0
  0
LINE
  5
31
  8
0
 62
     7
 10
151.72499999999999
 20
145.72399999999999
 30
0.0
 11
149.726
 21
143.726
 31
0.0
  0
LINE
  5
32
  8
0
 62
     7
 10
148.47999999999999
 20
145.72399999999999
 30
0.0
 11
150.47800000000001
 21
143.726
 31
0.0
  0
LINE
  5
33
  8
0
 62
     7
 10
150.845
 20
145.72399999999999
 30
0.0
 11
148.846
 21
143.726
 31
0.0
  0
LINE
  5
34
  8
0
 62
     7
 10
147.59999999999999
 20
145.72399999999999
 30
0.0
 11
149.59800000000001
 21
143.726
 31
0.0
  0
LINE
  5
35
  8
0
 62
     7
 10
149.96600000000001
 20
145.72399999999999
 30
0.0
 11
147.96700000000001
 21
143.726
 31
0.0
  0
LINE
  5
36
  8
0
 62
     7
 10
146.72
 20
145.72399999999999
 30
0.0
 11
148.71799999999999
 21
143.726
 31
0.0
  0
LINE
  5
37
  8
0
 62
     7
 10
149.08600000000001
 20
145.72399999999999
 30
0.0
 11
147.08699999999999
 21
143.726
 31
0.0
  0
LINE
  5
38
  8
0
 62
     7
 10
145.84
 20
145.72399999999999
 30
0.0
 11
147.839
 21
143.726
 31
0.0
  0
LINE
  5
39
  8
0
 62
     7
 10
148.20599999999999
 20
145.72399999999999
 30
0.0
 11
146.20699999999999
 21
143.726
 31
0.0
  0
LINE
  5
3A
  8
0
 62
     7
 10
144.96100000000001
 20
145.72399999999999
 30
0.0
 11
146.959
 21
143.726
 31
0.0
  0
LINE
  5
3B
  8
0
 62
     7
 10
147.327
 20
145.72399999999999
 30
0.0
 11
145.327
 21
143.726
 31
0.0
  0
LINE
  5
3C
  8
0
 62
     7
 10
144.08099999999999
 20
145.72399999999999
 30
0.0
 11
146.07900000000001
 21
143.726
 31
0.0
  0
LINE
  5
3D
  8
0
 62
     7
 10
146.447
 20
145.72399999999999
 30
0.0
 11
144.44799999999989
 21
143.726
 31
0.0
  0
LINE
  5
3E
  8
0
 62
     7
 10
145.56700000000001
 20
145.72399999999999
 30
0.0
 11
143.56899999999999
 21
143.726
 31
0.0
  0
LINE
  5
3F
  8
0
 62
     7
 10
142.928
 20
145.72399999999999
 30
0.0
 11
142.15000000000001
 21
144.946
 31
0.0
  0
LINE
  5
40
  8
0
 62
     7
 10
143.80799999999999
 20
145.72399999999999
 30
0.0
 11
142.15000000000001
 21
144.066
 31
0.0
  0
LINE
  5
41
  8
0
 62
     7
 10
144.68799999999999
 20
145.72399999999999
 30
0.0
 11
142.68899999999999
 21
143.726
 31
0.0
  0
ARC
  5
42
  8
0
 62
     7
 10
58.194220999999999
 20
212.70383899999999
 30
0.0
 40
8.5504570000000015
 50
180.97467
 51
247.89145099999999
  0
ARC
  5
43
  8
0
 62
     7
 10
57.978568999999993
 20
212.55839399999999
 30
0.0
 40
8.3335679999999996
 50
90.0
 51
179.99996999999999
  0
ARC
  5
44
  8
0
 62
     7
 10
57.978566000000001
 20
212.55839399999999
 30
0.0
 40
8.3335679999999996
 50
0.00001
 51
89.999980000000008
  0
ARC
  5
45
  8
0
 62
     7
 10
57.761929000000002
 20
212.70442600000001
 30
0.0
 40
8.5514510000000001
 50
292.093052
 51
359.02152899999999
  0
LINE
  5
46
  8
0
 62
     7
 10
80.898099999999985
 20
210.28899999999999
 30
0.0
 11
80.410599999999988
 21
212.52500000000001
 31
0.0
  0
LINE
  5
47
  8
0
 62
     7
 10
80.410599999999988
 20
212.52500000000001
 30
0.0
 11
79.714699999999993
 21
210.345
 31
0.0
  0
LINE
  5
48
  8
0
 62
     7
 10
79.714699999999993
 20
210.345
 30
0.0
 11
80.898099999999985
 21
210.28899999999999
 31
0.0
  0
LINE
  5
49
  8
0
 62
     7
 10
60.192599999999999
 20
190.80799999999999
 30
0.0
 11
58.012500000000003
 21
190.11199999999999
 31
0.0
  0
LINE
  5
4A
  8
0
 62
     7
 10
58.012500000000003
 20
190.11199999999999
 30
0.0
 11
60.248199999999997
 21
189.624
 31
0.0
  0
LINE
  5
4B
  8
0
 62
     7
 10
60.248199999999997
 20
189.624
 30
0.0
 11
60.192599999999999
 21
190.80799999999999
 31
0.0
  0
ARC
  5
4C
  8
0
 62
     7
 10
57.978563999999999
 20
212.55839900000001
 30
0.0
 40
22.443736999999999
 50
270.00002000000001
 51
359.99999000000003
  0
LINE
  5
4D
  8
0
 62
     7
 10
52.267099999999999
 20
67.358900000000006
 30
0.0
 11
54.478700000000003
 21
67.951499999999996
 31
0.0
  0
LINE
  5
4E
  8
0
 62
     7
 10
54.478700000000003
 20
67.951499999999996
 30
0.0
 11
52.267099999999999
 21
68.5441
 31
0.0
  0
LINE
  5
4F
  8
0
 62
     7
 10
52.267099999999999
 20
68.5441
 30
0.0
 11
52.267099999999999
 21
67.358900000000006
 31
0.0
  0
LINE
  5
50
  8
0
 62
     7
 10
49.712400000000002
 20
67.944299999999998
 30
0.0
 11
54.477800000000002
 21
67.944299999999998
 31
0.0
  0
LINE
  5
51
  8
0
 62
     7
 10
63.690100000000001
 20
68.529600000000002
 30
0.0
 11
61.478499999999997
 21
67.936999999999998
 31
0.0
  0
LINE
  5
52
  8
0
 62
     7
 10
61.478499999999997
 20
67.936999999999998
 30
0.0
 11
63.690100000000001
 21
67.344499999999996
 31
0.0
  0
LINE
  5
53
  8
0
 62
     7
 10
63.690100000000001
 20
67.344499999999996
 30
0.0
 11
63.690100000000001
 21
68.529600000000002
 31
0.0
  0
LINE
  5
54
  8
0
 62
     7
 10
61.479300000000002
 20
67.944299999999998
 30
0.0
 11
71.555800000000005
 21
67.944299999999998
 31
0.0
  0
LINE
  5
55
  8
0
 62
     7
 10
54.478700000000003
 20
67.944299999999998
 30
0.0
 11
61.478499999999997
 21
67.944299999999998
 31
0.0
  0
LINE
  5
56
  8
0
 62
     7
 10
61.478499999999997
 20
76.357600000000005
 30
0.0
 11
61.478499999999997
 21
67.244200000000006
 31
0.0
  0
LINE
  5
57
  8
0
 62
     7
 10
54.478700000000003
 20
76.357600000000005
 30
0.0
 11
54.478700000000003
 21
67.244200000000006
 31
0.0
  0
TEXT
  5
58
  8
0
 62
     7
 10
42.465899999999998
 20
88.197229166666659
 30
0.0
 40
3.0924999999999989
  1
max.40
 50
90.0
 41
0.5
 72
     1
 11
42.465899999999998
 21
91.933999999999997
 31
0.0
  0
LINE
  5
59
  8
0
 62
     7
 10
43.751300000000001
 20
93.180099999999996
 30
0.0
 11
43.158700000000003
 21
95.391199999999998
 31
0.0
  0
LINE
  5
5A
  8
0
 62
     7
 10
43.158700000000003
 20
95.391199999999998
 30
0.0
 11
42.566099999999999
 21
93.180099999999996
 31
0.0
  0
LINE
  5
5B
  8
0
 62
     7
 10
42.566099999999999
 20
93.180099999999996
 30
0.0
 11
43.751300000000001
 21
93.180099999999996
 31
0.0
  0
LINE
  5
5C
  8
0
 62
     7
 10
42.58059999999999
 20
90.934600000000003
 30
0.0
 11
43.173200000000001
 21
88.723500000000001
 31
0.0
  0
LINE
  5
5D
  8
0
 62
     7
 10
43.173200000000001
 20
88.723500000000001
 30
0.0
 11
43.765700000000002
 21
90.934600000000003
 31
0.0
  0
LINE
  5
5E
  8
0
 62
     7
 10
43.765700000000002
 20
90.934600000000003
 30
0.0
 11
42.58059999999999
 21
90.934600000000003
 31
0.0
  0
LINE
  5
5F
  8
0
 62
     7
 10
43.165900000000001
 20
95.390500000000003
 30
0.0
 11
43.165900000000001
 21
88.724199999999996
 31
0.0
  0
LINE
  5
60
  8
0
 62
     7
 10
50.778599999999997
 20
88.724199999999996
 30
0.0
 11
42.465899999999998
 21
88.724199999999996
 31
0.0
  0
LINE
  5
61
  8
0
 62
     7
 10
74.489599999999996
 20
77.057599999999994
 30
0.0
 11
62.304299999999998
 21
77.057599999999994
 31
0.0
  0
TEXT
  5
62
  8
0
 62
     7
 10
73.095100000000002
 20
84.935558333333347
 30
0.0
 40
3.0924999999999989
  1
55
 50
90.0
 41
0.5
 72
     1
 11
73.095100000000002
 21
86.224100000000007
 31
0.0
  0
LINE
  5
63
  8
0
 62
     7
 10
74.374600000000001
 20
93.180099999999996
 30
0.0
 11
73.782399999999996
 21
95.390500000000003
 31
0.0
  0
LINE
  5
64
  8
0
 62
     7
 10
73.782399999999996
 20
95.390500000000003
 30
0.0
 11
73.189999999999984
 21
93.180099999999996
 31
0.0
  0
LINE
  5
65
  8
0
 62
     7
 10
73.189999999999984
 20
93.180099999999996
 30
0.0
 11
74.374600000000001
 21
93.180099999999996
 31
0.0
  0
LINE
  5
66
  8
0
 62
     7
 10
73.204599999999999
 20
79.268000000000001
 30
0.0
 11
73.796800000000005
 21
77.057599999999994
 31
0.0
  0
LINE
  5
67
  8
0
 62
     7
 10
73.796800000000005
 20
77.057599999999994
 30
0.0
 11
74.389200000000002
 21
79.268000000000001
 31
0.0
  0
LINE
  5
68
  8
0
 62
     7
 10
74.389200000000002
 20
79.268000000000001
 30
0.0
 11
73.204599999999999
 21
79.268000000000001
 31
0.0
  0
LINE
  5
69
  8
0
 62
     7
 10
73.789599999999993
 20
95.390500000000003
 30
0.0
 11
73.789599999999993
 21
77.057599999999994
 31
0.0
  0
TEXT
  5
6A
  8
0
 62
     7
 10
73.095100000000002
 20
119.01075
 30
0.0
 40
3.0924999999999989
  1
151
 50
90.0
 41
0.5
 72
     1
 11
73.095100000000002
 21
120.557
 31
0.0
  0
LINE
  5
6B
  8
0
 62
     7
 10
74.374600000000001
 20
143.51400000000001
 30
0.0
 11
73.782399999999996
 21
145.72399999999999
 31
0.0
  0
LINE
  5
6C
  8
0
 62
     7
 10
73.782399999999996
 20
145.72399999999999
 30
0.0
 11
73.189999999999984
 21
143.51400000000001
 31
0.0
  0
LINE
  5
6D
  8
0
 62
     7
 10
73.189999999999984
 20
143.51400000000001
 30
0.0
 11
74.374600000000001
 21
143.51400000000001
 31
0.0
  0
LINE
  5
6E
  8
0
 62
     7
 10
73.204599999999999
 20
97.600899999999996
 30
0.0
 11
73.796800000000005
 21
95.390500000000003
 31
0.0
  0
LINE
  5
6F
  8
0
 62
     7
 10
73.796800000000005
 20
95.390500000000003
 30
0.0
 11
74.389200000000002
 21
97.600899999999996
 31
0.0
  0
LINE
  5
70
  8
0
 62
     7
 10
74.389200000000002
 20
97.600899999999996
 30
0.0
 11
73.204599999999999
 21
97.600899999999996
 31
0.0
  0
LINE
  5
71
  8
0
 62
     7
 10
73.789599999999993
 20
145.72399999999999
 30
0.0
 11
73.789599999999993
 21
95.390500000000003
 31
0.0
  0
LINE
  5
72
  8
0
 62
     7
 10
74.489599999999996
 20
145.72399999999999
 30
0.0
 11
64.513300000000001
 21
145.72399999999999
 31
0.0
  0
LINE
  5
73
  8
0
 62
     7
 10
74.489599999999996
 20
95.390500000000003
 30
0.0
 11
67.013400000000004
 21
95.390500000000003
 31
0.0
  0
LINE
  5
74
  8
0
 62
     7
 10
48.9465
 20
95.390500000000003
 30
0.0
 11
42.465899999999998
 21
95.390500000000003
 31
0.0
  0
LINE
  5
75
  8
0
 62
     7
 10
95.129999999999995
 20
116.514
 30
0.0
 11
94.537800000000004
 21
118.724
 31
0.0
  0
LINE
  5
76
  8
0
 62
     7
 10
94.537800000000004
 20
118.724
 30
0.0
 11
93.945400000000006
 21
116.514
 31
0.0
  0
LINE
  5
77
  8
0
 62
     7
 10
93.945400000000006
 20
116.514
 30
0.0
 11
95.129999999999995
 21
116.514
 31
0.0
  0
LINE
  5
78
  8
0
 62
     7
 10
93.960099999999997
 20
97.600899999999996
 30
0.0
 11
94.552300000000002
 21
95.390500000000003
 31
0.0
  0
LINE
  5
79
  8
0
 62
     7
 10
94.552300000000002
 20
95.390500000000003
 30
0.0
 11
95.144700000000014
 21
97.600899999999996
 31
0.0
  0
LINE
  5
7A
  8
0
 62
     7
 10
95.144700000000014
 20
97.600899999999996
 30
0.0
 11
93.960099999999997
 21
97.600899999999996
 31
0.0
  0
LINE
  5
7B
  8
0
 62
     7
 10
94.545000000000016
 20
118.724
 30
0.0
 11
94.545000000000016
 21
95.390500000000003
 31
0.0
  0
TEXT
  5
7C
  8
0
 62
     7
 10
93.844999999999999
 20
105.8973125
 30
0.0
 40
3.0924999999999989
  1
70
 50
90.0
 41
0.5
 72
     1
 11
93.844999999999999
 21
107.057
 31
0.0
  0
TEXT
  5
7D
  8
0
 62
     7
 10
116.31100000000001
 20
104.7084583333333
 30
0.0
 40
3.0924999999999989
  1
64
 50
90.0
 41
0.5
 72
     1
 11
116.31100000000001
 21
105.997
 31
0.0
  0
LINE
  5
7E
  8
0
 62
     7
 10
117.596
 20
114.392
 30
0.0
 11
117.004
 21
116.60299999999999
 31
0.0
  0
LINE
  5
7F
  8
0
 62
     7
 10
117.004
 20
116.60299999999999
 30
0.0
 11
116.41200000000001
 21
114.392
 31
0.0
  0
LINE
  5
80
  8
0
 62
     7
 10
116.41200000000001
 20
114.392
 30
0.0
 11
117.596
 21
114.392
 31
0.0
  0
LINE
  5
81
  8
0
 62
     7
 10
116.426
 20
97.600899999999996
 30
0.0
 11
117.018
 21
95.390500000000003
 31
0.0
  0
LINE
  5
82
  8
0
 62
     7
 10
117.018
 20
95.390500000000003
 30
0.0
 11
117.61
 21
97.600899999999996
 31
0.0
  0
LINE
  5
83
  8
0
 62
     7
 10
117.61
 20
97.600899999999996
 30
0.0
 11
116.426
 21
97.600899999999996
 31
0.0
  0
LINE
  5
84
  8
0
 62
     7
 10
117.011
 20
116.60299999999999
 30
0.0
 11
117.011
 21
95.390500000000003
 31
0.0
  0
LINE
  5
85
  8
0
 62
     7
 10
117.711
 20
116.60299999999999
 30
0.0
 11
110.137
 21
116.60299999999999
 31
0.0
  0
TEXT
  5
86
  8
0
 62
     7
 10
101.746
 20
108.386
 30
0.0
 40
3.0924999999999989
  1
45%%d
 41
0.5
  0
TEXT
  5
87
  8
0
 62
     7
 10
127.7010416666666
 20
159.904
 30
0.0
 40
3.0924999999999989
  1
146
 41
0.5
 72
     1
 11
129.505
 21
159.904
 31
0.0
  0
LINE
  5
88
  8
0
 62
     7
 10
107.40600000000001
 20
159.78899999999999
 30
0.0
 11
105.19499999999999
 21
159.197
 31
0.0
  0
LINE
  5
89
  8
0
 62
     7
 10
105.19499999999999
 20
159.197
 30
0.0
 11
107.40600000000001
 21
158.60499999999999
 31
0.0
  0
LINE
  5
8A
  8
0
 62
     7
 10
107.40600000000001
 20
158.60499999999999
 30
0.0
 11
107.40600000000001
 21
159.78899999999999
 31
0.0
  0
LINE
  5
8B
  8
0
 62
     7
 10
151.60499999999999
 20
158.619
 30
0.0
 11
153.816
 21
159.21100000000001
 31
0.0
  0
LINE
  5
8C
  8
0
 62
     7
 10
153.816
 20
159.21100000000001
 30
0.0
 11
151.60499999999999
 21
159.804
 31
0.0
  0
LINE
  5
8D
  8
0
 62
     7
 10
151.60499999999999
 20
159.804
 30
0.0
 11
151.60499999999999
 21
158.619
 31
0.0
  0
LINE
  5
8E
  8
0
 62
     7
 10
105.19499999999999
 20
159.20400000000001
 30
0.0
 11
153.816
 21
159.20400000000001
 31
0.0
  0
TEXT
  5
8F
  8
0
 62
     7
 10
125.8450416666667
 20
83.691500000000005
 30
0.0
 40
3.0924999999999989
  1
122
 41
0.5
 72
     1
 11
127.649
 21
83.691500000000005
 31
0.0
  0
LINE
  5
90
  8
0
 62
     7
 10
109.526
 20
83.576499999999996
 30
0.0
 11
107.315
 21
82.984300000000005
 31
0.0
  0
LINE
  5
91
  8
0
 62
     7
 10
107.315
 20
82.984300000000005
 30
0.0
 11
109.526
 21
82.392000000000024
 31
0.0
  0
LINE
  5
92
  8
0
 62
     7
 10
109.526
 20
82.392000000000024
 30
0.0
 11
109.526
 21
83.576499999999996
 31
0.0
  0
LINE
  5
93
  8
0
 62
     7
 10
145.77199999999999
 20
82.406499999999994
 30
0.0
 11
147.983
 21
82.998699999999999
 31
0.0
  0
LINE
  5
94
  8
0
 62
     7
 10
147.983
 20
82.998699999999999
 30
0.0
 11
145.77199999999999
 21
83.590900000000005
 31
0.0
  0
LINE
  5
95
  8
0
 62
     7
 10
145.77199999999999
 20
83.590900000000005
 30
0.0
 11
145.77199999999999
 21
82.406499999999994
 31
0.0
  0
LINE
  5
96
  8
0
 62
     7
 10
107.316
 20
82.991500000000002
 30
0.0
 11
147.983
 21
82.991500000000002
 31
0.0
  0
TEXT
  5
97
  8
0
 62
     7
 10
146.05018749999999
 20
109.205
 30
0.0
 40
3.0924999999999989
  1
%%c50
 41
0.5
 72
     1
 11
147.983
 21
109.205
 31
0.0
  0
LINE
  5
98
  8
0
 62
     7
 10
139.649
 20
98.090800000000016
 30
0.0
 11
139.649
 21
109.44199999999999
 31
0.0
  0
LINE
  5
99
  8
0
 62
     7
 10
156.316
 20
98.090800000000016
 30
0.0
 11
156.316
 21
109.44199999999999
 31
0.0
  0
LINE
  5
9A
  8
0
 62
     7
 10
139.649
 20
108.505
 30
0.0
 11
156.316
 21
108.505
 31
0.0
  0
LINE
  5
9B
  8
0
 62
     7
 10
141.86000000000001
 20
107.913
 30
0.0
 11
139.649
 21
108.505
 31
0.0
  0
LINE
  5
9C
  8
0
 62
     7
 10
139.649
 20
108.505
 30
0.0
 11
141.86000000000001
 21
109.098
 31
0.0
  0
LINE
  5
9D
  8
0
 62
     7
 10
141.86000000000001
 20
109.098
 30
0.0
 11
141.86000000000001
 21
107.913
 31
0.0
  0
LINE
  5
9E
  8
0
 62
     7
 10
154.10499999999999
 20
109.09699999999999
 30
0.0
 11
156.316
 21
108.505
 31
0.0
  0
LINE
  5
9F
  8
0
 62
     7
 10
156.316
 20
108.505
 30
0.0
 11
154.10499999999999
 21
107.913
 31
0.0
  0
LINE
  5
A0
  8
0
 62
     7
 10
154.10499999999999
 20
107.913
 30
0.0
 11
154.10499999999999
 21
109.09699999999999
 31
0.0
  0
TEXT
  5
A1
  8
0
 62
     7
 10
145.92133333333331
 20
153.119
 30
0.0
 40
3.0924999999999989
  1
%%c35
 41
0.5
 72
     1
 11
147.983
 21
153.119
 31
0.0
  0
LINE
  5
A2
  8
0
 62
     7
 10
142.149
 20
146.42500000000001
 30
0.0
 11
142.149
 21
153.35599999999999
 31
0.0
  0
LINE
  5
A3
  8
0
 62
     7
 10
153.816
 20
146.42500000000001
 30
0.0
 11
153.816
 21
159.911
 31
0.0
  0
LINE
  5
A4
  8
0
 62
     7
 10
142.149
 20
152.41900000000001
 30
0.0
 11
153.816
 21
152.41900000000001
 31
0.0
  0
LINE
  5
A5
  8
0
 62
     7
 10
144.36000000000001
 20
151.827
 30
0.0
 11
142.149
 21
152.41900000000001
 31
0.0
  0
LINE
  5
A6
  8
0
 62
     7
 10
142.149
 20
152.41900000000001
 30
0.0
 11
144.36000000000001
 21
153.011
 31
0.0
  0
LINE
  5
A7
  8
0
 62
     7
 10
144.36000000000001
 20
153.011
 30
0.0
 11
144.36000000000001
 21
151.827
 31
0.0
  0
LINE
  5
A8
  8
0
 62
     7
 10
151.60499999999999
 20
153.011
 30
0.0
 11
153.816
 21
152.41900000000001
 31
0.0
  0
LINE
  5
A9
  8
0
 62
     7
 10
153.816
 20
152.41900000000001
 30
0.0
 11
151.60499999999999
 21
151.82599999999999
 31
0.0
  0
LINE
  5
AA
  8
0
 62
     7
 10
151.60499999999999
 20
151.82599999999999
 30
0.0
 11
151.60499999999999
 21
153.011
 31
0.0
  0
LINE
  5
AB
  8
0
 62
     7
 10
52.146700000000003
 20
144.137
 30
0.0
 11
52.5578
 21
143.726
 31
0.0
  0
LINE
  5
AC
  8
0
 62
     7
 10
52.146700000000003
 20
145.017
 30
0.0
 11
53.437600000000003
 21
143.726
 31
0.0
  0
LINE
  5
AD
  8
0
 62
     7
 10
52.318600000000011
 20
145.72399999999999
 30
0.0
 11
54.316800000000001
 21
143.726
 31
0.0
  0
LINE
  5
AE
  8
0
 62
     7
 10
53.198300000000003
 20
145.72399999999999
 30
0.0
 11
55.1965
 21
143.726
 31
0.0
  0
LINE
  5
AF
  8
0
 62
     7
 10
62.87510000000001
 20
145.72399999999999
 30
0.0
 11
63.813200000000002
 21
144.786
 31
0.0
  0
LINE
  5
B0
  8
0
 62
     7
 10
63.813200000000002
 20
144.297
 30
0.0
 11
63.241999999999997
 21
143.726
 31
0.0
  0
LINE
  5
B1
  8
0
 62
     7
 10
61.995399999999989
 20
145.72399999999999
 30
0.0
 11
63.813200000000002
 21
143.90700000000001
 31
0.0
  0
LINE
  5
B2
  8
0
 62
     7
 10
63.813200000000002
 20
145.17699999999999
 30
0.0
 11
62.362299999999991
 21
143.726
 31
0.0
  0
LINE
  5
B3
  8
0
 62
     7
 10
61.115699999999997
 20
145.72399999999999
 30
0.0
 11
63.113900000000001
 21
143.726
 31
0.0
  0
LINE
  5
B4
  8
0
 62
     7
 10
63.4816
 20
145.72399999999999
 30
0.0
 11
61.482599999999998
 21
143.726
 31
0.0
  0
LINE
  5
B5
  8
0
 62
     7
 10
60.235999999999997
 20
145.72399999999999
 30
0.0
 11
62.234099999999998
 21
143.726
 31
0.0
  0
LINE
  5
B6
  8
0
 62
     7
 10
62.601900000000001
 20
145.72399999999999
 30
0.0
 11
60.602899999999998
 21
143.726
 31
0.0
  0
LINE
  5
B7
  8
0
 62
     7
 10
59.35629999999999
 20
145.72399999999999
 30
0.0
 11
61.354399999999998
 21
143.726
 31
0.0
  0
LINE
  5
B8
  8
0
 62
     7
 10
61.722200000000001
 20
145.72399999999999
 30
0.0
 11
59.723199999999991
 21
143.726
 31
0.0
  0
LINE
  5
B9
  8
0
 62
     7
 10
58.476599999999998
 20
145.72399999999999
 30
0.0
 11
60.474699999999999
 21
143.726
 31
0.0
  0
LINE
  5
BA
  8
0
 62
     7
 10
60.842500000000001
 20
145.72399999999999
 30
0.0
 11
58.843499999999999
 21
143.726
 31
0.0
  0
LINE
  5
BB
  8
0
 62
     7
 10
57.596800000000002
 20
145.72399999999999
 30
0.0
 11
59.594999999999999
 21
143.726
 31
0.0
  0
LINE
  5
BC
  8
0
 62
     7
 10
59.962800000000001
 20
145.72399999999999
 30
0.0
 11
57.963799999999999
 21
143.726
 31
0.0
  0
LINE
  5
BD
  8
0
 62
     7
 10
56.717100000000002
 20
145.72399999999999
 30
0.0
 11
58.715299999999992
 21
143.726
 31
0.0
  0
LINE
  5
BE
  8
0
 62
     7
 10
59.083100000000002
 20
145.72399999999999
 30
0.0
 11
57.084000000000003
 21
143.726
 31
0.0
  0
LINE
  5
BF
  8
0
 62
     7
 10
55.837400000000002
 20
145.72399999999999
 30
0.0
 11
57.835599999999999
 21
143.726
 31
0.0
  0
LINE
  5
C0
  8
0
 62
     7
 10
58.203400000000002
 20
145.72399999999999
 30
0.0
 11
56.204300000000003
 21
143.726
 31
0.0
  0
LINE
  5
C1
  8
0
 62
     7
 10
54.957700000000003
 20
145.72399999999999
 30
0.0
 11
56.9559
 21
143.726
 31
0.0
  0
LINE
  5
C2
  8
0
 62
     7
 10
57.323700000000002
 20
145.72399999999999
 30
0.0
 11
55.324599999999997
 21
143.726
 31
0.0
  0
LINE
  5
C3
  8
0
 62
     7
 10
54.078000000000003
 20
145.72399999999999
 30
0.0
 11
56.0762
 21
143.726
 31
0.0
  0
LINE
  5
C4
  8
0
 62
     7
 10
56.443899999999999
 20
145.72399999999999
 30
0.0
 11
54.444899999999997
 21
143.726
 31
0.0
  0
LINE
  5
C5
  8
0
 62
     7
 10
55.563899999999997
 20
145.72399999999999
 30
0.0
 11
53.5657
 21
143.726
 31
0.0
  0
LINE
  5
C6
  8
0
 62
     7
 10
52.9251
 20
145.72399999999999
 30
0.0
 11
52.146700000000003
 21
144.946
 31
0.0
  0
LINE
  5
C7
  8
0
 62
     7
 10
53.8048
 20
145.72399999999999
 30
0.0
 11
52.146700000000003
 21
144.066
 31
0.0
  0
LINE
  5
C8
  8
0
 62
     7
 10
54.684699999999992
 20
145.72399999999999
 30
0.0
 11
52.6858
 21
143.726
 31
0.0
  0
TEXT
  5
C9
  8
0
 62
     7
 10
157.32266666666661
 20
206.428
 30
0.0
 40
3.0924999999999989
  1
%%c25～28
 41
0.5
 72
     2
 11
166.39400000000001
 21
206.428
 31
0.0
  0
LINE
  5
CA
  8
0
 62
     7
 10
143.05500000000001
 20
216.65899999999999
 30
0.0
 11
145.03700000000001
 21
215.51400000000001
 31
0.0
  0
LINE
  5
CB
  8
0
 62
     7
 10
145.03700000000001
 20
215.51400000000001
 30
0.0
 11
143.893
 21
217.49600000000001
 31
0.0
  0
LINE
  5
CC
  8
0
 62
     7
 10
143.893
 20
217.49600000000001
 30
0.0
 11
143.05500000000001
 21
216.65899999999999
 31
0.0
  0
LINE
  5
CD
  8
0
 62
     7
 10
142.024
 20
218.518
 30
0.0
 11
145.03200000000001
 21
215.50899999999999
 31
0.0
  0
LINE
  5
CE
  8
0
 62
     7
 10
145.03200000000001
 20
215.50899999999999
 30
0.0
 11
150.923
 21
209.61699999999999
 31
0.0
  0
LINE
  5
CF
  8
0
 62
     7
 10
152.90000000000001
 20
208.46700000000001
 30
0.0
 11
150.91800000000001
 21
209.61199999999999
 31
0.0
  0
LINE
  5
D0
  8
0
 62
     7
 10
150.91800000000001
 20
209.61199999999999
 30
0.0
 11
152.06200000000001
 21
207.62899999999999
 31
0.0
  0
LINE
  5
D1
  8
0
 62
     7
 10
152.06200000000001
 20
207.62899999999999
 30
0.0
 11
152.90000000000001
 21
208.46700000000001
 31
0.0
  0
LINE
  5
D2
  8
0
 62
     7
 10
150.923
 20
209.61699999999999
 30
0.0
 11
154.81
 21
205.72800000000001
 31
0.0
  0
LINE
  5
D3
  8
0
 62
     7
 10
154.81
 20
205.72800000000001
 30
0.0
 11
166.39400000000001
 21
205.72800000000001
 31
0.0
  0
TEXT
  5
D4
  8
0
 62
     7
 10
63.043416666666658
 20
186.03999999999999
 30
0.0
 40
3.0924999999999989
  1
閉
 41
0.5
 72
     1
 11
63.765000000000001
 21
186.03999999999999
 31
0.0
  0
TEXT
  5
D5
  8
0
 62
     7
 10
83.636916666666664
 20
209.14699999999999
 30
0.0
 40
3.0924999999999989
  1
開
 41
0.5
 72
     1
 11
84.358500000000006
 21
209.14699999999999
 31
0.0
  0
TEXT
  5
D6
  8
0
 62
     7
 10
141.70291666666671
 20
195.035
 30
0.0
 40
3.0924999999999989
  1
水栓金具取付穴
 41
0.5
 72
     1
 11
147.99100000000001
 21
195.035
 31
0.0
  0
ARC
  5
D7
  8
0
 62
     7
 10
59.406606000000011
 20
171.89821000000001
 30
0.0
 40
1.571283
 50
328.20609200000001
 51
359.88247200000001
  0
ARC
  5
D8
  8
0
 62
     7
 10
58.971141000000003
 20
172.13728699999999
 30
0.0
 40
2.067534999999999
 50
309.73540500000001
 51
328.93295899999998
  0
ARC
  5
D9
  8
0
 62
     7
 10
58.430956000000009
 20
172.733642
 30
0.0
 40
2.871648
 50
291.23632400000002
 51
310.417576
  0
ARC
  5
DA
  8
0
 62
     7
 10
58.025042999999997
 20
173.63673700000001
 30
0.0
 40
3.860784999999999
 50
269.30005299999999
 51
291.99668500000001
  0
ARC
  5
DB
  8
0
 62
     7
 10
57.978808999999998
 20
173.89961099999999
 30
0.0
 40
4.1233709999999988
 50
249.22392500000001
 51
269.98708599999998
  0
ARC
  5
DC
  8
0
 62
     7
 10
57.674257999999988
 20
172.98728199999999
 30
0.0
 40
3.1625770000000002
 50
231.048215
 51
248.51968400000001
  0
ARC
  5
DD
  8
0
 62
     7
 10
57.134579000000002
 20
172.267976
 30
0.0
 40
2.2641459999999989
 50
212.64357899999999
 51
230.22552300000001
  0
ARC
  5
DE
  8
0
 62
     7
 10
56.643154000000003
 20
171.92508799999999
 30
0.0
 40
1.665554999999999
 50
181.03556599999999
 51
211.83014
  0
ARC
  5
DF
  8
0
 62
     7
 10
56.549655999999999
 20
176.25524300000001
 30
0.0
 40
1.571788999999999
 50
180.11726100000001
 51
211.788679
  0
ARC
  5
E0
  8
0
 62
     7
 10
56.984473999999999
 20
176.49408700000001
 30
0.0
 40
2.0673659999999989
 50
211.066971
 51
230.265871
  0
ARC
  5
E1
  8
0
 62
     7
 10
57.524043999999989
 20
177.08962500000001
 30
0.0
 40
2.870458999999999
 50
229.58209099999999
 51
248.770692
  0
ARC
  5
E2
  8
0
 62
     7
 10
57.930717999999999
 20
177.994756
 30
0.0
 40
3.8617650000000001
 50
248.00915000000001
 51
270.69973800000002
  0
ARC
  5
E3
  8
0
 62
     7
 10
57.976945999999991
 20
178.25859700000001
 30
0.0
 40
4.125318
 50
270.01295599999997
 51
290.76818600000001
  0
ARC
  5
E4
  8
0
 62
     7
 10
58.282577000000003
 20
177.342816
 30
0.0
 40
3.1609080000000001
 50
291.474289
 51
308.953777
  0
ARC
  5
E5
  8
0
 62
     7
 10
58.822611000000002
 20
176.62351799999999
 30
0.0
 40
2.2622580000000001
 50
309.77079300000003
 51
327.36631499999999
  0
ARC
  5
E6
  8
0
 62
     7
 10
59.312288000000002
 20
176.28197499999999
 30
0.0
 40
1.6658679999999999
 50
328.17663900000002
 51
358.96990699999998
  0
LINE
  5
E7
  8
0
 62
     7
 10
54.977899999999998
 20
171.89500000000001
 30
0.0
 11
54.977899999999998
 21
207.55500000000001
 31
0.0
  0
LINE
  5
E8
  8
0
 62
     7
 10
60.977899999999991
 20
207.554
 30
0.0
 11
60.977899999999991
 21
171.89500000000001
 31
0.0
  0
LINE
  5
E9
  8
0
  6
AIGENLINE001
 62
     7
 10
57.9786
 20
203.94499999999999
 30
0.0
 11
57.9786
 21
167.989
 31
0.0
  0
ARC
  5
EA
  8
0
 62
     7
 10
57.754910999999993
 20
212.78205199999999
 30
0.0
 40
6.061056999999999
 50
272.11473799999999
 51
357.88527199999999
  0
ARC
  5
EB
  8
0
 62
     7
 10
57.978738999999997
 20
212.558222
 30
0.0
 40
5.8330989999999989
 50
179.998278
 51
269.99832800000001
  0
ARC
  5
EC
  8
0
 62
     7
 10
57.978741000000007
 20
212.55856700000001
 30
0.0
 40
5.8331010000000001
 50
90.001692000000006
 51
180.00170199999999
  0
ARC
  5
ED
  8
0
 62
     7
 10
57.755307999999992
 20
212.33513600000001
 30
0.0
 40
6.0606460000000002
 50
2.1111159999999991
 51
87.888874000000001
  0
LINE
  5
EE
  8
0
  6
AIGENLINE001
 62
     7
 10
81.133899999999997
 20
212.55799999999999
 30
0.0
 11
66.187899999999999
 21
212.55799999999999
 31
0.0
  0
LINE
  5
EF
  8
0
  6
AIGENLINE002
 62
     7
 10
65.403499999999994
 20
212.55799999999999
 30
0.0
 11
50.214300000000001
 21
212.55799999999999
 31
0.0
  0
LINE
  5
F0
  8
0
  6
AIGENLINE001
 62
     7
 10
57.9786
 20
219.34
 30
0.0
 11
57.9786
 21
204.71899999999999
 31
0.0
  0
ARC
  5
F1
  8
0
 62
     7
 10
147.82300699999999
 20
212.727993
 30
0.0
 40
4.3294189999999997
 50
272.11255899999998
 51
357.88271300000002
  0
ARC
  5
F2
  8
0
 62
     7
 10
148.142518
 20
212.728317
 30
0.0
 40
4.3297549999999996
 50
182.12143699999999
 51
267.88333
  0
ARC
  5
F3
  8
0
 62
     7
 10
147.98277300000001
 20
212.56821299999999
 30
0.0
 40
4.1670419999999986
 50
90.002368000000004
 51
180.00237799999999
  0
ARC
  5
F4
  8
0
 62
     7
 10
147.982428
 20
212.56821299999999
 30
0.0
 40
4.1670419999999986
 50
359.99764099999999
 51
89.997612000000004
  0
LINE
  5
F5
  8
0
  6
AIGENLINE002
 62
     7
 10
61.904299999999999
 20
118.724
 30
0.0
 11
54.145200000000003
 21
118.724
 31
0.0
  0
ARC
  5
F6
  8
0
 62
     7
 10
58.915220999999988
 20
118.733476
 30
0.0
 40
1.0639299999999989
 50
323.57326599999999
 51
359.83726799999999
  0
ARC
  5
F7
  8
0
 62
     7
 10
58.579065
 20
118.94345199999999
 30
0.0
 40
1.4594119999999999
 50
307.90415600000011
 51
324.77696500000002
  0
ARC
  5
F8
  8
0
 62
     7
 10
58.233790999999997
 20
119.359647
 30
0.0
 40
1.9999919999999991
 50
288.49025799999998
 51
308.38396899999998
  0
ARC
  5
F9
  8
0
 62
     7
 10
58.001081999999997
 20
119.944334
 30
0.0
 40
2.6285359999999991
 50
269.524269
 51
289.25901199999998
  0
ARC
  5
FA
  8
0
 62
     7
 10
57.980596999999989
 20
120.046443
 30
0.0
 40
2.7305540000000001
 50
247.180575
 51
269.971879
  0
ARC
  5
FB
  8
0
 62
     7
 10
57.725207999999988
 20
119.36001400000001
 30
0.0
 40
1.9990410000000001
 50
227.011841
 51
246.29729399999999
  0
ARC
  5
FC
  8
0
 62
     7
 10
57.290225
 20
118.860497
 30
0.0
 40
1.3372429999999991
 50
198.86506
 51
226.05176700000001
  0
ARC
  5
FD
  8
0
 62
     7
 10
57.010635999999998
 20
118.732066
 30
0.0
 40
1.0316160000000001
 50
180.0895229999999
 51
197.13582700000001
  0
ARC
  5
FE
  8
0
 62
     7
 10
57.041319000000001
 20
118.72743199999999
 30
0.0
 40
1.0623020000000001
 50
143.53801899999999
 51
179.83698000000001
  0
ARC
  5
FF
  8
0
 62
     7
 10
57.383534999999988
 20
118.512096
 30
0.0
 40
1.4658119999999999
 50
127.921391
 51
144.718199
  0
ARC
  5
100
  8
0
 62
     7
 10
57.725304000000001
 20
118.09845
 30
0.0
 40
2.0022220000000002
 50
108.488563
 51
128.361717
  0
ARC
  5
101
  8
0
 62
     7
 10
57.957397
 20
117.5155
 30
0.0
 40
2.6289210000000001
 50
89.523564000000007
 51
109.256874
  0
ARC
  5
102
  8
0
 62
     7
 10
57.977917000000012
 20
117.41388000000001
 30
0.0
 40
2.7304499999999989
 50
67.181861999999995
 51
89.971876000000009
  0
ARC
  5
103
  8
0
 62
     7
 10
58.233435999999998
 20
118.10059200000001
 30
0.0
 40
1.9986259999999989
 50
47.014704000000002
 51
66.299169999999975
  0
ARC
  5
104
  8
0
 62
     7
 10
58.646380999999998
 20
118.57758699999999
 30
0.0
 40
1.3683350000000001
 50
24.001821
 51
46.045763999999998
  0
ARC
  5
105
  8
0
 62
     7
 10
58.927508999999993
 20
118.725253
 30
0.0
 40
1.0516509999999999
 50
0.283389
 51
22.882462
  0
ARC
  5
106
  8
0
 62
     7
 10
59.407012999999999
 20
118.73366300000001
 30
0.0
 40
1.572255
 50
328.216183
 51
359.88305400000002
  0
ARC
  5
107
  8
0
 62
     7
 10
58.973413000000001
 20
118.971728
 30
0.0
 40
2.066389
 50
309.72956499999998
 51
328.93763300000001
  0
ARC
  5
108
  8
0
 62
     7
 10
58.43384799999999
 20
119.566997
 30
0.0
 40
2.869270999999999
 50
291.22233199999999
 51
310.41828199999998
  0
ARC
  5
109
  8
0
 62
     7
 10
58.026414000000003
 20
120.474164
 30
0.0
 40
3.862744999999999
 50
269.30051200000003
 51
291.98505399999999
  0
ARC
  5
10A
  8
0
 62
     7
 10
57.980192000000002
 20
120.73813
 30
0.0
 40
4.1264229999999991
 50
249.23759799999999
 51
269.98701499999999
  0
ARC
  5
10B
  8
0
 62
     7
 10
57.675016999999997
 20
119.82228499999999
 30
0.0
 40
3.1621160000000001
 50
231.053234
 51
248.525398
  0
ARC
  5
10C
  8
0
 62
     7
 10
57.134616000000001
 20
119.101912
 30
0.0
 40
2.2623989999999998
 50
212.634952
 51
230.22915900000001
  0
ARC
  5
10D
  8
0
 62
     7
 10
56.645243999999991
 20
118.760363
 30
0.0
 40
1.6662639999999991
 50
181.02852300000001
 51
211.81944999999999
  0
ARC
  5
10E
  8
0
 62
     7
 10
56.550527999999993
 20
118.727231
 30
0.0
 40
1.571283
 50
148.206073
 51
179.882452
  0
ARC
  5
10F
  8
0
 62
     7
 10
56.985993999999991
 20
118.48815399999999
 30
0.0
 40
2.067534999999999
 50
129.73538500000001
 51
148.93294
  0
ARC
  5
110
  8
0
 62
     7
 10
57.526178999999999
 20
117.89179900000001
 30
0.0
 40
2.871648
 50
111.236304
 51
130.41755599999999
  0
ARC
  5
111
  8
0
 62
     7
 10
57.932091999999997
 20
116.988705
 30
0.0
 40
3.860784999999999
 50
89.300032999999999
 51
111.99666499999999
  0
ARC
  5
112
  8
0
 62
     7
 10
57.978326000000003
 20
116.725831
 30
0.0
 40
4.1233709999999988
 50
69.223905000000002
 51
89.987065999999999
  0
ARC
  5
113
  8
0
 62
     7
 10
58.282876999999999
 20
117.638159
 30
0.0
 40
3.1625770000000002
 50
51.048195
 51
68.519664000000006
  0
ARC
  5
114
  8
0
 62
     7
 10
58.822555999999999
 20
118.357466
 30
0.0
 40
2.2641459999999989
 50
32.643560000000008
 51
50.225502999999989
  0
ARC
  5
115
  8
0
 62
     7
 10
59.313980999999998
 20
118.70035300000001
 30
0.0
 40
1.665554999999999
 50
1.035545999999999
 51
31.830120000000001
  0
ARC
  5
116
  8
0
 62
     7
 10
56.550527999999993
 20
123.083927
 30
0.0
 40
1.571283
 50
148.206073
 51
179.882452
  0
ARC
  5
117
  8
0
 62
     7
 10
56.985993999999991
 20
122.844849
 30
0.0
 40
2.067534999999999
 50
129.73538500000001
 51
148.93294
  0
ARC
  5
118
  8
0
 62
     7
 10
57.526178999999999
 20
122.24849500000001
 30
0.0
 40
2.871648
 50
111.236304
 51
130.41755599999999
  0
ARC
  5
119
  8
0
 62
     7
 10
57.932091999999997
 20
121.3454
 30
0.0
 40
3.860784999999999
 50
89.300032999999999
 51
111.99666499999999
  0
ARC
  5
11A
  8
0
 62
     7
 10
57.978326000000003
 20
121.082526
 30
0.0
 40
4.1233709999999988
 50
69.223905000000002
 51
89.987065999999999
  0
ARC
  5
11B
  8
0
 62
     7
 10
58.282876999999999
 20
121.994855
 30
0.0
 40
3.1625770000000002
 50
51.048195
 51
68.519664000000006
  0
ARC
  5
11C
  8
0
 62
     7
 10
58.822555999999999
 20
122.714161
 30
0.0
 40
2.2641459999999989
 50
32.643560000000008
 51
50.225502999999989
  0
ARC
  5
11D
  8
0
 62
     7
 10
59.313980999999998
 20
123.05704900000001
 30
0.0
 40
1.665554999999999
 50
1.035545999999999
 51
31.830120000000001
  0
LINE
  5
11E
  8
0
 62
     7
 10
54.979199999999999
 20
118.73
 30
0.0
 11
54.979199999999999
 21
129.38999999999999
 31
0.0
  0
ARC
  5
11F
  8
0
 62
     7
 10
58.094544999999997
 20
129.275226
 30
0.0
 40
3.1174230000000001
 50
92.119389000000012
 51
177.883871
  0
ARC
  5
120
  8
0
 62
     7
 10
57.86412399999999
 20
129.27538300000001
 30
0.0
 40
3.1172610000000001
 50
2.1133459999999991
 51
87.883353999999997
  0
LINE
  5
121
  8
0
 62
     7
 10
60.979300000000002
 20
129.38999999999999
 30
0.0
 11
60.979300000000002
 21
118.73
 31
0.0
  0
LINE
  5
122
  8
0
 62
     7
 10
105.041
 20
105.997
 30
0.0
 11
107.295
 21
106.395
 31
0.0
  0
LINE
  5
123
  8
0
 62
     7
 10
107.295
 20
106.395
 30
0.0
 11
105.145
 21
107.17700000000001
 31
0.0
  0
LINE
  5
124
  8
0
 62
     7
 10
105.145
 20
107.17700000000001
 30
0.0
 11
105.041
 21
105.997
 31
0.0
  0
LINE
  5
125
  8
0
 62
     7
 10
100.67700000000001
 20
109.014
 30
0.0
 11
98.602999999999994
 21
109.98099999999999
 31
0.0
  0
LINE
  5
126
  8
0
 62
     7
 10
98.602999999999994
 20
109.98099999999999
 30
0.0
 11
99.915599999999984
 21
108.10599999999999
 31
0.0
  0
LINE
  5
127
  8
0
 62
     7
 10
99.915599999999984
 20
108.10599999999999
 30
0.0
 11
100.67700000000001
 21
109.014
 31
0.0
  0
ARC
  5
128
  8
0
 62
     7
 10
107.375739
 20
118.869529
 30
0.0
 40
12.484451999999999
 50
225.276779
 51
269.72468500000002
  0
LINE
  5
129
  8
0
 62
     7
 10
97.907499999999999
 20
109.321
 30
0.0
 11
106.09099999999999
 21
117.505
 31
0.0
  0
ARC
  5
12A
  8
0
 62
     7
 10
142.14797100000001
 20
132.13107400000001
 30
0.0
 40
0.260135
 50
52.518719000000011
 51
89.701126999999985
  0
ARC
  5
12B
  8
0
 62
     7
 10
142.00084000000001
 20
131.90673200000001
 30
0.0
 40
0.5280620000000001
 50
36.594363999999999
 51
54.662857000000002
  0
ARC
  5
12C
  8
0
 62
     7
 10
141.5351
 20
131.53318100000001
 30
0.0
 40
1.1249039999999999
 50
25.165056
 51
37.728515999999999
  0
ARC
  5
12D
  8
0
 62
     7
 10
140.431625
 20
130.97527299999999
 30
0.0
 40
2.3611529999999989
 50
17.439315000000001
 51
26.032043999999999
  0
ARC
  5
12E
  8
0
 62
     7
 10
138.55427499999999
 20
130.34488099999999
 30
0.0
 40
4.34131
 50
11.557475999999999
 51
17.951174000000002
  0
ARC
  5
12F
  8
0
 62
     7
 10
135.60521800000001
 20
129.705792
 30
0.0
 40
7.3586979999999986
 50
4.2234179999999988
 51
11.83221
  0
ARC
  5
130
  8
0
 62
     7
 10
132.63540399999999
 20
129.406091
 30
0.0
 40
10.342829999999999
 50
359.91654299999999
 51
4.6675519999999988
  0
ARC
  5
131
  8
0
 62
     7
 10
132.6796379999999
 20
129.389048
 30
0.0
 40
10.298584999999999
 50
352.3914299999999
 51
0.011003
  0
ARC
  5
132
  8
0
 62
     7
 10
136.680115
 20
128.88908599999999
 30
0.0
 40
6.2672249999999989
 50
344.31633399999998
 51
352.07947899999999
  0
ARC
  5
133
  8
0
 62
     7
 10
139.824771
 20
128.04002199999999
 30
0.0
 40
3.0103019999999998
 50
336.20452
 51
343.695269
  0
ARC
  5
134
  8
0
 62
     7
 10
141.23592600000001
 20
127.426365
 30
0.0
 40
1.4715339999999999
 50
325.17127699999998
 51
335.89800000000002
  0
ARC
  5
135
  8
0
 62
     7
 10
141.915505
 20
126.961061
 30
0.0
 40
0.647975
 50
308.219877
 51
324.62534099999999
  0
ARC
  5
136
  8
0
 62
     7
 10
142.13421
 20
126.691828
 30
0.0
 40
0.301191
 50
272.87704100000002
 51
307.22016600000001
  0
LINE
  5
137
  8
0
 62
     7
 10
109.437
 20
116.60299999999999
 30
0.0
 11
105.19499999999999
 21
120.846
 31
0.0
  0
LINE
  5
138
  8
0
 62
     7
 10
105.19499999999999
 20
120.846
 30
0.0
 11
109.55500000000001
 21
125.206
 31
0.0
  0
LINE
  5
139
  8
0
 62
     7
 10
109.55500000000001
 20
125.206
 30
0.0
 11
113.797
 21
120.964
 31
0.0
  0
LINE
  5
13A
  8
0
 62
     7
 10
113.797
 20
120.964
 30
0.0
 11
109.437
 21
116.60299999999999
 31
0.0
  0
LINE
  5
13B
  8
0
  6
AIGENLINE001
 62
     7
 10
106.57299999999999
 20
117.986
 30
0.0
 11
114.56
 21
125.974
 31
0.0
  0
ARC
  5
13C
  8
0
  6
AIGENLINE001
 62
     7
 10
122.869248
 20
117.580099
 30
0.0
 40
11.811076
 50
90.288291000000015
 51
134.70858799999999
  0
LINE
  5
13D
  8
0
  6
AIGENLINE001
 62
     7
 10
122.81
 20
129.39099999999999
 30
0.0
 11
144.83799999999999
 21
129.39099999999999
 31
0.0
  0
LINE
  5
13E
  8
0
  6
AIGENLINE001
 62
     7
 10
57.979900000000001
 20
148.25
 30
0.0
 11
57.979900000000001
 21
74.043099999999995
 31
0.0
  0
LINE
  5
13F
  8
0
 62
     7
 10
66.313299999999998
 20
95.390500000000003
 30
0.0
 11
49.646599999999999
 21
95.390500000000003
 31
0.0
  0
LINE
  5
140
  8
0
 62
     7
 10
49.646599999999999
 20
95.390500000000003
 30
0.0
 11
49.646599999999999
 21
97.390699999999995
 31
0.0
  0
LINE
  5
141
  8
0
 62
     7
 10
49.646599999999999
 20
97.390699999999995
 30
0.0
 11
66.313299999999998
 21
97.390699999999995
 31
0.0
  0
LINE
  5
142
  8
0
 62
     7
 10
66.313299999999998
 20
97.390699999999995
 30
0.0
 11
66.313299999999998
 21
95.390500000000003
 31
0.0
  0
LINE
  5
143
  8
0
 62
     7
 10
63.813200000000002
 20
145.72399999999999
 30
0.0
 11
63.813200000000002
 21
97.390699999999995
 31
0.0
  0
LINE
  5
144
  8
0
 62
     7
 10
52.146700000000003
 20
145.72399999999999
 30
0.0
 11
52.146700000000003
 21
97.390699999999995
 31
0.0
  0
LINE
  5
145
  8
0
 62
     7
 10
63.813200000000002
 20
136.55799999999999
 30
0.0
 11
52.146999999999998
 21
136.55799999999999
 31
0.0
  0
LINE
  5
146
  8
0
 62
     7
 10
63.813200000000002
 20
145.72399999999999
 30
0.0
 11
52.146999999999998
 21
145.72399999999999
 31
0.0
  0
LINE
  5
147
  8
0
 62
     7
 10
63.813200000000002
 20
143.72399999999999
 30
0.0
 11
52.146999999999998
 21
143.72399999999999
 31
0.0
  0
LINE
  5
148
  8
0
 62
     7
 10
63.813200000000002
 20
136.72399999999999
 30
0.0
 11
52.146999999999998
 21
136.72399999999999
 31
0.0
  0
LINE
  5
149
  8
0
 62
     7
 10
109.55200000000001
 20
125.209
 30
0.0
 11
112.43899999999999
 21
128.096
 31
0.0
  0
ARC
  5
14A
  8
0
 62
     7
 10
122.881359
 20
117.550591
 30
0.0
 40
14.840787000000001
 50
90.276190999999997
 51
134.720584
  0
LINE
  5
14B
  8
0
 62
     7
 10
122.81
 20
132.39099999999999
 30
0.0
 11
142.149
 21
132.39099999999999
 31
0.0
  0
LINE
  5
14C
  8
0
 62
     7
 10
142.149
 20
126.39
 30
0.0
 11
122.81
 21
126.39
 31
0.0
  0
ARC
  5
14D
  8
0
 62
     7
 10
122.851789
 20
117.622426
 30
0.0
 40
8.7680030000000002
 50
90.27426100000001
 51
134.72554400000001
  0
LINE
  5
14E
  8
0
 62
     7
 10
116.682
 20
123.852
 30
0.0
 11
113.795
 21
120.96599999999999
 31
0.0
  0
LINE
  5
14F
  8
0
  6
AIGENLINE001
 62
     7
 10
157.25200000000001
 20
212.56800000000001
 30
0.0
 11
138.73099999999999
 21
212.56800000000001
 31
0.0
  0
LINE
  5
150
  8
0
 62
     7
 10
106.27500000000001
 20
118.724
 30
0.0
 11
93.837799999999987
 21
118.724
 31
0.0
  0
LINE
  5
151
  8
0
  6
AIGENLINE002
 62
     7
 10
162.477
 20
95.390500000000003
 30
0.0
 11
130.08799999999999
 21
95.390500000000003
 31
0.0
  0
LINE
  5
152
  8
0
 62
     7
 10
129.38800000000001
 20
95.390500000000003
 30
0.0
 11
93.852199999999996
 21
95.390500000000003
 31
0.0
  0
LINE
  5
153
  8
0
 62
     7
 10
54.8125
 20
95.390500000000003
 30
0.0
 11
54.8125
 21
88.724199999999996
 31
0.0
  0
LINE
  5
154
  8
0
 62
     7
 10
61.145699999999998
 20
95.390500000000003
 30
0.0
 11
61.145699999999998
 21
88.724199999999996
 31
0.0
  0
LINE
  5
155
  8
0
 62
     7
 10
61.478499999999997
 20
88.724199999999996
 30
0.0
 11
54.478700000000003
 21
88.724199999999996
 31
0.0
  0
LINE
  5
156
  8
0
 62
     7
 10
54.478700000000003
 20
88.724199999999996
 30
0.0
 11
54.478700000000003
 21
95.390500000000003
 31
0.0
  0
LINE
  5
157
  8
0
 62
     7
 10
54.478700000000003
 20
95.390500000000003
 30
0.0
 11
61.478499999999997
 21
95.390500000000003
 31
0.0
  0
LINE
  5
158
  8
0
 62
     7
 10
61.478499999999997
 20
95.390500000000003
 30
0.0
 11
61.478499999999997
 21
88.724199999999996
 31
0.0
  0
LINE
  5
159
  8
0
 62
     7
 10
144.816
 20
95.390500000000003
 30
0.0
 11
144.816
 21
88.724199999999996
 31
0.0
  0
LINE
  5
15A
  8
0
 62
     7
 10
151.149
 20
95.390500000000003
 30
0.0
 11
151.149
 21
88.724199999999996
 31
0.0
  0
LINE
  5
15B
  8
0
 62
     7
 10
151.482
 20
88.724199999999996
 30
0.0
 11
144.482
 21
88.724199999999996
 31
0.0
  0
LINE
  5
15C
  8
0
 62
     7
 10
144.482
 20
88.724199999999996
 30
0.0
 11
144.482
 21
95.390500000000003
 31
0.0
  0
LINE
  5
15D
  8
0
 62
     7
 10
144.482
 20
95.390500000000003
 30
0.0
 11
151.482
 21
95.390500000000003
 31
0.0
  0
LINE
  5
15E
  8
0
 62
     7
 10
151.482
 20
95.390500000000003
 30
0.0
 11
151.482
 21
88.724199999999996
 31
0.0
  0
LINE
  5
15F
  8
0
 62
     7
 10
54.8125
 20
85.390699999999995
 30
0.0
 11
54.8125
 21
77.057599999999994
 31
0.0
  0
LINE
  5
160
  8
0
 62
     7
 10
61.145699999999998
 20
85.390699999999995
 30
0.0
 11
61.145699999999998
 21
77.057599999999994
 31
0.0
  0
LINE
  5
161
  8
0
 62
     7
 10
61.478499999999997
 20
77.057599999999994
 30
0.0
 11
54.478700000000003
 21
77.057599999999994
 31
0.0
  0
LINE
  5
162
  8
0
 62
     7
 10
54.478700000000003
 20
77.057599999999994
 30
0.0
 11
54.478700000000003
 21
85.390699999999995
 31
0.0
  0
LINE
  5
163
  8
0
 62
     7
 10
54.478700000000003
 20
85.390699999999995
 30
0.0
 11
61.478499999999997
 21
85.390699999999995
 31
0.0
  0
LINE
  5
164
  8
0
 62
     7
 10
61.478499999999997
 20
85.390699999999995
 30
0.0
 11
61.478499999999997
 21
77.057599999999994
 31
0.0
  0
LINE
  5
165
  8
0
 62
     7
 10
144.816
 20
85.390699999999995
 30
0.0
 11
144.816
 21
77.057599999999994
 31
0.0
  0
LINE
  5
166
  8
0
 62
     7
 10
151.149
 20
85.390699999999995
 30
0.0
 11
151.149
 21
77.057599999999994
 31
0.0
  0
LINE
  5
167
  8
0
 62
     7
 10
151.482
 20
77.057599999999994
 30
0.0
 11
144.482
 21
77.057599999999994
 31
0.0
  0
LINE
  5
168
  8
0
 62
     7
 10
144.482
 20
77.057599999999994
 30
0.0
 11
144.482
 21
85.390699999999995
 31
0.0
  0
LINE
  5
169
  8
0
 62
     7
 10
144.482
 20
85.390699999999995
 30
0.0
 11
151.482
 21
85.390699999999995
 31
0.0
  0
LINE
  5
16A
  8
0
 62
     7
 10
151.482
 20
85.390699999999995
 30
0.0
 11
151.482
 21
77.057599999999994
 31
0.0
  0
LINE
  5
16B
  8
0
 62
     7
 10
60.384599999999999
 20
87.224199999999996
 30
0.0
 11
60.384599999999999
 21
85.390699999999995
 31
0.0
  0
LINE
  5
16C
  8
0
 62
     7
 10
55.578000000000003
 20
87.224199999999996
 30
0.0
 11
55.578000000000003
 21
85.390699999999995
 31
0.0
  0
LINE
  5
16D
  8
0
 62
     7
 10
62.790399999999998
 20
85.390699999999995
 30
0.0
 11
53.168199999999992
 21
85.390699999999995
 31
0.0
  0
LINE
  5
16E
  8
0
 62
     7
 10
53.168199999999992
 20
85.390699999999995
 30
0.0
 11
53.168199999999992
 21
87.223500000000001
 31
0.0
  0
LINE
  5
16F
  8
0
 62
     7
 10
53.168199999999992
 20
87.223500000000001
 30
0.0
 11
62.790399999999998
 21
87.223500000000001
 31
0.0
  0
LINE
  5
170
  8
0
 62
     7
 10
62.790399999999998
 20
87.223500000000001
 30
0.0
 11
62.790399999999998
 21
85.390699999999995
 31
0.0
  0
LINE
  5
171
  8
0
 62
     7
 10
64.478800000000007
 20
88.2239
 30
0.0
 11
51.478700000000011
 21
88.2239
 31
0.0
  0
LINE
  5
172
  8
0
 62
     7
 10
51.478700000000011
 20
88.2239
 30
0.0
 11
51.478700000000011
 21
88.724199999999996
 31
0.0
  0
LINE
  5
173
  8
0
 62
     7
 10
51.478700000000011
 20
88.724199999999996
 30
0.0
 11
64.478800000000007
 21
88.724199999999996
 31
0.0
  0
LINE
  5
174
  8
0
 62
     7
 10
64.478800000000007
 20
88.724199999999996
 30
0.0
 11
64.478800000000007
 21
88.2239
 31
0.0
  0
LINE
  5
175
  8
0
 62
     7
 10
64.978999999999999
 20
87.224199999999996
 30
0.0
 11
50.978400000000001
 21
87.224199999999996
 31
0.0
  0
LINE
  5
176
  8
0
 62
     7
 10
50.978400000000001
 20
87.224199999999996
 30
0.0
 11
50.978400000000001
 21
88.224599999999995
 31
0.0
  0
LINE
  5
177
  8
0
 62
     7
 10
50.978400000000001
 20
88.224599999999995
 30
0.0
 11
64.978999999999999
 21
88.224599999999995
 31
0.0
  0
LINE
  5
178
  8
0
 62
     7
 10
64.978999999999999
 20
88.224599999999995
 30
0.0
 11
64.978999999999999
 21
87.224199999999996
 31
0.0
  0
LINE
  5
179
  8
0
 62
     7
 10
147.983
 20
87.224199999999996
 30
0.0
 11
147.983
 21
85.390699999999995
 31
0.0
  0
LINE
  5
17A
  8
0
 62
     7
 10
107.316
 20
117.806
 30
0.0
 11
107.316
 21
105.54000000000001
 31
0.0
  0
LINE
  5
17B
  8
0
 62
     7
 10
105.19499999999999
 20
159.89699999999999
 30
0.0
 11
105.19499999999999
 21
121.54600000000001
 31
0.0
  0
LINE
  5
17C
  8
0
 62
     7
 10
107.316
 20
104.599
 30
0.0
 11
107.316
 21
82.284199999999984
 31
0.0
  0
LINE
  5
17D
  8
0
  6
AIGENLINE001
 62
     7
 10
147.983
 20
221.369
 30
0.0
 11
147.983
 21
203.554
 31
0.0
  0
LINE
  5
17E
  8
0
  6
AIGENLINE001
 62
     7
 10
147.983
 20
148.25
 30
0.0
 11
147.983
 21
114.124
 31
0.0
  0
LINE
  5
17F
  8
0
  6
AIGENLINE001
 62
     7
 10
147.983
 20
107.245
 30
0.0
 11
147.983
 21
74.613
 31
0.0
  0
LINE
  5
180
  8
0
 62
     7
 10
152.149
 20
85.390699999999995
 30
0.0
 11
143.816
 21
85.390699999999995
 31
0.0
  0
LINE
  5
181
  8
0
 62
     7
 10
143.816
 20
85.390699999999995
 30
0.0
 11
143.816
 21
87.223500000000001
 31
0.0
  0
LINE
  5
182
  8
0
 62
     7
 10
143.816
 20
87.223500000000001
 30
0.0
 11
152.149
 21
87.223500000000001
 31
0.0
  0
LINE
  5
183
  8
0
 62
     7
 10
152.149
 20
87.223500000000001
 30
0.0
 11
152.149
 21
85.390699999999995
 31
0.0
  0
LINE
  5
184
  8
0
 62
     7
 10
154.483
 20
88.2239
 30
0.0
 11
141.482
 21
88.2239
 31
0.0
  0
LINE
  5
185
  8
0
 62
     7
 10
141.482
 20
88.2239
 30
0.0
 11
141.482
 21
88.724199999999996
 31
0.0
  0
LINE
  5
186
  8
0
 62
     7
 10
141.482
 20
88.724199999999996
 30
0.0
 11
154.483
 21
88.724199999999996
 31
0.0
  0
LINE
  5
187
  8
0
 62
     7
 10
154.483
 20
88.724199999999996
 30
0.0
 11
154.483
 21
88.2239
 31
0.0
  0
LINE
  5
188
  8
0
 62
     7
 10
154.983
 20
87.224199999999996
 30
0.0
 11
140.982
 21
87.224199999999996
 31
0.0
  0
LINE
  5
189
  8
0
 62
     7
 10
140.982
 20
87.224199999999996
 30
0.0
 11
140.982
 21
88.224599999999995
 31
0.0
  0
LINE
  5
18A
  8
0
 62
     7
 10
140.982
 20
88.224599999999995
 30
0.0
 11
154.983
 21
88.224599999999995
 31
0.0
  0
LINE
  5
18B
  8
0
 62
     7
 10
154.983
 20
88.224599999999995
 30
0.0
 11
154.983
 21
87.224199999999996
 31
0.0
  0
LINE
  5
18C
  8
0
 62
     7
 10
156.316
 20
95.390500000000003
 30
0.0
 11
139.649
 21
95.390500000000003
 31
0.0
  0
LINE
  5
18D
  8
0
 62
     7
 10
139.649
 20
95.390500000000003
 30
0.0
 11
139.649
 21
97.390699999999995
 31
0.0
  0
LINE
  5
18E
  8
0
 62
     7
 10
139.649
 20
97.390699999999995
 30
0.0
 11
156.316
 21
97.390699999999995
 31
0.0
  0
LINE
  5
18F
  8
0
 62
     7
 10
156.316
 20
97.390699999999995
 30
0.0
 11
156.316
 21
95.390500000000003
 31
0.0
  0
LINE
  5
190
  8
0
 62
     7
 10
153.816
 20
145.72399999999999
 30
0.0
 11
153.816
 21
97.390699999999995
 31
0.0
  0
LINE
  5
191
  8
0
 62
     7
 10
142.149
 20
145.72399999999999
 30
0.0
 11
142.149
 21
132.392
 31
0.0
  0
LINE
  5
192
  8
0
 62
     7
 10
142.149
 20
126.39
 30
0.0
 11
142.149
 21
97.390699999999995
 31
0.0
  0
LINE
  5
193
  8
0
 62
     7
 10
153.816
 20
136.55799999999999
 30
0.0
 11
142.149
 21
136.55799999999999
 31
0.0
  0
LINE
  5
194
  8
0
 62
     7
 10
153.816
 20
145.72399999999999
 30
0.0
 11
142.149
 21
145.72399999999999
 31
0.0
  0
LINE
  5
195
  8
0
 62
     7
 10
153.816
 20
143.72399999999999
 30
0.0
 11
142.149
 21
143.72399999999999
 31
0.0
  0
LINE
  5
196
  8
0
 62
     7
 10
153.816
 20
136.72399999999999
 30
0.0
 11
142.149
 21
136.72399999999999
 31
0.0
  0
LINE
  5
197
  8
_________2
 62
     7
 10
100.3
 20
-4.0907299999999998
 30
0.0
 11
100.3
 21
-21.071000000000002
 31
0.0
  0
LINE
  5
198
  8
_________2
 62
     7
 10
76.741399999999999
 20
29.805099999999999
 30
0.0
 11
74.554900000000004
 21
29.805099999999999
 31
0.0
  0
LINE
  5
199
  8
_________2
 62
     7
 10
77.233999999999995
 20
29.805099999999999
 30
0.0
 11
76.981800000000007
 21
29.805099999999999
 31
0.0
  0
LINE
  5
19A
  8
_________2
 62
     7
 10
77.726500000000001
 20
29.805099999999999
 30
0.0
 11
80.651600000000002
 21
29.805099999999999
 31
0.0
  0
LINE
  5
19B
  8
_________2
 62
     7
 10
77.233999999999995
 20
29.805099999999999
 30
0.0
 11
77.485900000000001
 21
29.805099999999999
 31
0.0
  0
LINE
  5
19C
  8
_________2
 62
     7
 10
70.837500000000006
 20
29.805099999999999
 30
0.0
 11
68.650700000000001
 21
29.805099999999999
 31
0.0
  0
LINE
  5
19D
  8
_________2
 62
     7
 10
71.329899999999995
 20
29.805099999999999
 30
0.0
 11
71.0779
 21
29.805099999999999
 31
0.0
  0
LINE
  5
19E
  8
_________2
 62
     7
 10
71.329899999999995
 20
30.2974
 30
0.0
 11
71.329899999999995
 21
32.484400000000001
 31
0.0
  0
LINE
  5
19F
  8
_________2
 62
     7
 10
71.329899999999995
 20
29.805099999999999
 30
0.0
 11
71.329899999999995
 21
30.057300000000001
 31
0.0
  0
LINE
  5
1A0
  8
_________2
 62
     7
 10
71.822599999999994
 20
29.805099999999999
 30
0.0
 11
74.009200000000007
 21
29.805099999999999
 31
0.0
  0
LINE
  5
1A1
  8
_________2
 62
     7
 10
71.329899999999995
 20
29.805099999999999
 30
0.0
 11
71.582099999999997
 21
29.805099999999999
 31
0.0
  0
LINE
  5
1A2
  8
_________2
 62
     7
 10
71.329899999999995
 20
29.312799999999999
 30
0.0
 11
71.329899999999995
 21
27.125800000000002
 31
0.0
  0
LINE
  5
1A3
  8
_________2
 62
     7
 10
71.329899999999995
 20
29.805099999999999
 30
0.0
 11
71.329899999999995
 21
29.5532
 31
0.0
  0
LINE
  5
1A4
  8
_________2
 62
     7
 10
75.040999999999997
 20
28.5855
 30
0.0
 11
80.218699999999984
 21
27.720400000000001
 31
0.0
  0
LINE
  5
1A5
  8
_________2
 62
     7
 10
75.040999999999997
 20
31.024699999999999
 30
0.0
 11
80.218699999999984
 21
31.889700000000001
 31
0.0
  0
LINE
  5
1A6
  8
_________2
 62
     7
 10
80.218699999999984
 20
27.720400000000001
 30
0.0
 11
80.218699999999984
 21
31.889700000000001
 31
0.0
  0
LINE
  5
1A7
  8
_________2
 62
     7
 10
75.040999999999997
 20
28.5855
 30
0.0
 11
75.040999999999997
 21
31.024699999999999
 31
0.0
  0
ARC
  5
1A8
  8
_________2
 62
     7
 10
71.330033
 20
29.805001000000001
 30
0.0
 40
1.219657999999999
 50
0.004056
 51
90.004025999999996
  0
ARC
  5
1A9
  8
_________2
 62
     7
 10
71.329860999999994
 20
29.805001000000001
 30
0.0
 40
1.219657999999999
 50
89.995953999999998
 51
179.995924
  0
ARC
  5
1AA
  8
_________2
 62
     7
 10
71.329860999999994
 20
29.805173
 30
0.0
 40
1.2196569999999991
 50
180.00405599999999
 51
270.00406600000002
  0
ARC
  5
1AB
  8
_________2
 62
     7
 10
71.330033
 20
29.805174000000001
 30
0.0
 40
1.219657999999999
 50
269.9959740000001
 51
359.99594400000001
  0
ARC
  5
1AC
  8
_________2
 62
     7
 10
71.329947000000004
 20
29.805087
 30
0.0
 40
2.0846409999999991
 50
0.00001
 51
89.999980000000008
  0
ARC
  5
1AD
  8
_________2
 62
     7
 10
71.329860999999994
 20
29.805001000000001
 30
0.0
 40
2.0847269999999991
 50
89.997632999999993
 51
179.997603
  0
ARC
  5
1AE
  8
_________2
 62
     7
 10
71.409793999999991
 20
29.885114000000002
 30
0.0
 40
2.1661389999999989
 50
182.11724599999999
 51
267.887518
  0
ARC
  5
1AF
  8
_________2
 62
     7
 10
71.249943000000002
 20
29.885092
 30
0.0
 40
2.1661229999999989
 50
272.11667999999997
 51
357.88333
  0
TEXT
  5
1B0
  8
_________2
 62
     7
 10
104.605
 20
1.6794899999999999
 30
0.0
 40
3.0923400000000001
  1
図番
 41
0.5
  0
LINE
  5
1B1
  8
_________2
 62
     7
 10
103.55
 20
5.9087199999999989
 30
0.0
 11
183.55099999999999
 21
5.9087199999999989
 31
0.0
  0
TEXT
  5
1B2
  8
_________2
 62
     7
 10
104.605
 20
11.679600000000001
 30
0.0
 40
3.0923400000000001
  1
品番
 41
0.5
  0
TEXT
  5
1B3
  8
_________2
 62
     7
 10
104.605
 20
31.818100000000001
 30
0.0
 40
3.0923400000000001
  1
名称
 41
0.5
  0
TEXT
  5
1B4
  8
_________2
 62
     7
 10
91.845658333333333
 20
26.821999999999999
 30
0.0
 40
3.6545800000000002
  1
mm
 41
0.5
 72
     1
 11
93.368399999999994
 21
26.821999999999999
 31
0.0
  0
TEXT
  5
1B5
  8
_________2
 62
     7
 10
85.643399999999986
 20
31.818100000000001
 30
0.0
 40
3.0923400000000001
  1
単位
 41
0.5
  0
TEXT
  5
1B6
  8
_________2
 62
     7
 10
85.643399999999986
 20
19.411200000000001
 30
0.0
 40
3.0923400000000001
  1
尺度
 41
0.5
  0
TEXT
  5
1B7
  8
_________2
 62
     7
 10
90.549158666666656
 20
13.2182
 30
0.0
 40
3.6545800000000002
  1
1 ： 3
 41
0.5
 72
     1
 11
93.960099999999997
 21
13.2182
 31
0.0
  0
TEXT
  5
1B8
  8
_________2
 62
     7
 10
137.31847500000001
 20
9.1078600000000005
 30
0.0
 40
3.9357000000000002
  1
FM3251C
 41
0.5
 72
     1
 11
143.55000000000001
 21
9.1078600000000005
 31
0.0
  0
TEXT
  5
1B9
  8
_________2
 62
     7
 10
137.31847500000001
 20
-0.892285
 30
0.0
 40
3.9357000000000002
  1
FM3251C
 41
0.5
 72
     1
 11
143.55000000000001
 21
-0.892285
 31
0.0
  0
TEXT
  5
1BA
  8
_________2
 62
     7
 10
24.587299999999999
 20
0.707627
 30
0.0
 40
3.9357000000000002
  1
（社）日本水道協会認証品
 41
0.5
  0
TEXT
  5
1BB
  8
_________2
 62
     7
 10
109.179
 20
25.940999999999999
 30
0.0
 40
3.9357000000000002
  1
スピッロ 立水栓
 41
0.5
  0
TEXT
  5
1BC
  8
_________2
 62
     7
 10
39.364590666666672
 20
13.603
 30
0.0
 40
3.6545800000000002
  1
篠崎
 41
0.5
 72
     1
 11
41.31369999999999
 21
13.603
 31
0.0
  0
TEXT
  5
1BD
  8
_________2
 62
     7
 10
20.790390666666671
 20
13.603
 30
0.0
 40
3.6545800000000002
  1
木場
 41
0.5
 72
     1
 11
22.7395
 21
13.603
 31
0.0
  0
TEXT
  5
1BE
  8
_________2
 62
     7
 10
67.785799999999995
 20
13.2182
 30
0.0
 40
3.6545800000000002
  1
17.01.05
 41
0.5
  0
TEXT
  5
1BF
  8
_________2
 62
     7
 10
66.593299999999999
 20
19.411200000000001
 30
0.0
 40
3.0923400000000001
  1
日付
 41
0.5
  0
TEXT
  5
1C0
  8
_________2
 62
     7
 10
29.639500000000002
 20
19.411200000000001
 30
0.0
 40
3.0923400000000001
  1
検図
 41
0.5
  0
TEXT
  5
1C1
  8
_________2
 62
     7
 10
18.021599999999999
 20
5.2117699999999987
 30
0.0
 40
3.0923400000000001
  1
備考
 41
0.5
  0
TEXT
  5
1C2
  8
_________2
 62
     7
 10
18.021599999999999
 20
19.411200000000001
 30
0.0
 40
3.0923400000000001
  1
製図
 41
0.5
  0
TEXT
  5
1C3
  8
_________2
 62
     7
 10
23.788865333333341
 20
27.936800000000002
 30
0.0
 40
4.4979399999999989
  1
セラトレーディング株式会社
 41
0.5
 72
     1
 11
41.180900000000001
 21
27.936800000000002
 31
0.0
  0
LINE
  5
1C4
  8
_________2
 62
     7
 10
183.55099999999999
 20
-4.0910799999999998
 30
0.0
 11
17.049700000000001
 21
-4.0910799999999998
 31
0.0
  0
LINE
  5
1C5
  8
_________2
 62
     7
 10
17.049700000000001
 20
-4.0910799999999998
 30
0.0
 11
17.049700000000001
 21
258.911
 31
0.0
  0
LINE
  5
1C6
  8
_________2
 62
     7
 10
17.049700000000001
 20
258.911
 30
0.0
 11
183.55099999999999
 21
258.911
 31
0.0
  0
LINE
  5
1C7
  8
_________2
 62
     7
 10
183.55099999999999
 20
258.911
 30
0.0
 11
183.55099999999999
 21
-4.0910799999999998
 31
0.0
  0
LINE
  5
1C8
  8
_________2
 62
     7
 10
65.549899999999994
 20
9.4092999999999982
 30
0.0
 11
65.549899999999994
 21
35.909100000000002
 31
0.0
  0
LINE
  5
1C9
  8
_________2
 62
     7
 10
84.550099999999986
 20
9.4092999999999982
 30
0.0
 11
84.550099999999986
 21
35.909100000000002
 31
0.0
  0
LINE
  5
1CA
  8
_________2
 62
     7
 10
103.55
 20
-4.0910799999999998
 30
0.0
 11
103.55
 21
35.909100000000002
 31
0.0
  0
LINE
  5
1CB
  8
_________2
 62
     7
 10
28.549900000000001
 20
9.4092999999999982
 30
0.0
 11
28.549900000000001
 21
23.409199999999998
 31
0.0
  0
LINE
  5
1CC
  8
_________2
 62
     7
 10
17.049700000000001
 20
9.4092999999999982
 30
0.0
 11
103.55
 21
9.4092999999999982
 31
0.0
  0
LINE
  5
1CD
  8
_________2
 62
     7
 10
17.049700000000001
 20
23.409199999999998
 30
0.0
 11
103.55
 21
23.409199999999998
 31
0.0
  0
LINE
  5
1CE
  8
_________2
 62
     7
 10
103.55
 20
15.908899999999999
 30
0.0
 11
183.55099999999999
 21
15.908899999999999
 31
0.0
  0
LINE
  5
1CF
  8
_________2
 62
     7
 10
17.049700000000001
 20
35.909100000000002
 30
0.0
 11
183.55099999999999
 21
35.909100000000002
 31
0.0
  0
LINE
  5
1D0
  8
_________2
 62
     7
 10
205.30099999999999
 20
127.411
 30
0.0
 11
183.55000000000001
 21
127.411
 31
0.0
  0
LINE
  5
1D1
  8
_________2
 62
     7
 10
100.3
 20
275.93099999999998
 30
0.0
 11
100.3
 21
258.911
 31
0.0
  0
LINE
  5
1D2
  8
_________2
 62
     7
 10
17.049499999999998
 20
127.411
 30
0.0
 11
-4.70052
 21
127.411
 31
0.0
  0
ENDSEC
  0
EOF
