  0
SECTION
  2
HEADER
  9
$ACADVER
  1
AC1009
  9
$INSBASE
 10
0.0
 20
0.0
 30
0.0
  9
$EXTMIN
 10
-104.794
 20
0.176045
 30
0.0
  9
$EXTMAX
 10
315.209
 20
297.178
 30
0.0
  9
$LIMMIN
 10
0.0
 20
0.0
  9
$LIMMAX
 10
12.0
 20
9.0
  9
$ORTHOMODE
 70
     0
  9
$REGENMODE
 70
     1
  9
$FILLMODE
 70
     1
  9
$QTEXTMODE
 70
     0
  9
$MIRRTEXT
 70
     1
  9
$DRAGMODE
 70
     2
  9
$LTSCALE
 40
1.0
  9
$OSMODE
 70
    37
  9
$ATTMODE
 70
     1
  9
$TEXTSIZE
 40
0.0
  9
$TRACEWID
 40
0.05
  9
$TEXTSTYLE
  7
STANDARD
  9
$CLAYER
  8
0
  9
$CELTYPE
  6
CONTINUOUS
  9
$CECOLOR
 62
   256
  9
$DIMSCALE
 40
1.0
  9
$DIMASZ
 40
0.18
  9
$DIMEXO
 40
0.0625
  9
$DIMDLI
 40
0.38
  9
$DIMRND
 40
0.0
  9
$DIMDLE
 40
0.0
  9
$DIMEXE
 40
0.18
  9
$DIMTP
 40
0.0
  9
$DIMTM
 40
0.0
  9
$DIMTXT
 40
0.18
  9
$DIMCEN
 40
0.09
  9
$DIMTSZ
 40
0.0
  9
$DIMTOL
 70
     0
  9
$DIMLIM
 70
     0
  9
$DIMTIH
 70
     1
  9
$DIMTOH
 70
     1
  9
$DIMSE1
 70
     0
  9
$DIMSE2
 70
     0
  9
$DIMTAD
 70
     0
  9
$DIMZIN
 70
     0
  9
$DIMBLK
  1

  9
$DIMASO
 70
     1
  9
$DIMSHO
 70
     1
  9
$DIMPOST
  1

  9
$DIMAPOST
  1

  9
$DIMALT
 70
     0
  9
$DIMALTD
 70
     2
  9
$DIMALTF
 40
25.399999999999999
  9
$DIMLFAC
 40
1.0
  9
$DIMTOFL
 70
     0
  9
$DIMTVP
 40
0.0
  9
$DIMTIX
 70
     0
  9
$DIMSOXD
 70
     0
  9
$DIMSAH
 70
     0
  9
$DIMBLK1
  1

  9
$DIMBLK2
  1

  9
$DIMSTYLE
  2
STANDARD
  9
$DIMCLRD
 70
     0
  9
$DIMCLRE
 70
     0
  9
$DIMCLRT
 70
     0
  9
$DIMTFAC
 40
1.0
  9
$DIMGAP
 40
0.09
  9
$LUNITS
 70
     2
  9
$LUPREC
 70
     4
  9
$SKETCHINC
 40
0.1
  9
$FILLETRAD
 40
0.0
  9
$AUNITS
 70
     0
  9
$AUPREC
 70
     0
  9
$MENU
  1
.
  9
$ELEVATION
 40
0.0
  9
$PELEVATION
 40
0.0
  9
$THICKNESS
 40
0.0
  9
$LIMCHECK
 70
     0
  9
$BLIPMODE
 70
     0
  9
$CHAMFERA
 40
0.0
  9
$CHAMFERB
 40
0.0
  9
$SKPOLY
 70
     0
  9
$TDCREATE
 40
2444972.375
  9
$TDUPDATE
 40
2458339.248708901
  9
$TDINDWG
 40
0.0000631597
  9
$TDUSRTIMER
 40
0.0000631597
  9
$USRTIMER
 70
     1
  9
$ANGBASE
 50
0.0
  9
$ANGDIR
 70
     0
  9
$PDMODE
 70
     0
  9
$PDSIZE
 40
0.0
  9
$PLINEWID
 40
0.0
  9
$COORDS
 70
     1
  9
$SPLFRAME
 70
     0
  9
$SPLINETYPE
 70
     6
  9
$SPLINESEGS
 70
     8
  9
$ATTDIA
 70
     1
  9
$ATTREQ
 70
     1
  9
$HANDLING
 70
     1
  9
$HANDSEED
  5
86B
  9
$SURFTAB1
 70
     6
  9
$SURFTAB2
 70
     6
  9
$SURFTYPE
 70
     6
  9
$SURFU
 70
     6
  9
$SURFV
 70
     6
  9
$UCSNAME
  2

  9
$UCSORG
 10
0.0
 20
0.0
 30
0.0
  9
$UCSXDIR
 10
1.0
 20
0.0
 30
0.0
  9
$UCSYDIR
 10
0.0
 20
1.0
 30
0.0
  9
$PUCSNAME
  2

  9
$PUCSORG
 10
0.0
 20
0.0
 30
0.0
  9
$PUCSXDIR
 10
1.0
 20
0.0
 30
0.0
  9
$PUCSYDIR
 10
0.0
 20
1.0
 30
0.0
  9
$USERI1
 70
     0
  9
$USERI2
 70
     0
  9
$USERI3
 70
     0
  9
$USERI4
 70
     0
  9
$USERI5
 70
     0
  9
$USERR1
 40
0.0
  9
$USERR2
 40
0.0
  9
$USERR3
 40
0.0
  9
$USERR4
 40
0.0
  9
$USERR5
 40
0.0
  9
$WORLDVIEW
 70
     1
  9
$SHADEDGE
 70
     3
  9
$SHADEDIF
 70
    70
  9
$TILEMODE
 70
     1
  9
$MAXACTVP
 70
    48
  9
$PLIMCHECK
 70
     0
  9
$PEXTMIN
 10
1.0000000000000000E+020
 20
1.0000000000000000E+020
 30
1.0000000000000000E+020
  9
$PEXTMAX
 10
-1.0000000000000000E+020
 20
-1.0000000000000000E+020
 30
-1.0000000000000000E+020
  9
$PLIMMIN
 10
0.0
 20
0.0
  9
$PLIMMAX
 10
12.0
 20
9.0
  9
$UNITMODE
 70
     0
  9
$VISRETAIN
 70
     1
  9
$PLINEGEN
 70
     0
  9
$PSLTSCALE
 70
     1
  0
ENDSEC
  0
SECTION
  2
TABLES
  0
TABLE
  2
VPORT
 70
     1
  0
VPORT
  2
*ACTIVE
 70
     0
 10
0.0
 20
0.0
 11
1.0
 21
1.0
 12
195.84271114783351
 22
148.589
 13
0.0
 23
0.0
 14
1.0
 24
1.0
 15
0.0
 25
0.0
 16
0.0
 26
0.0
 36
1.0
 17
0.0
 27
0.0
 37
0.0
 40
281.11539623648741
 41
2.298642533936651
 42
50.0
 43
0.0
 44
0.0
 50
0.0
 51
0.0
 71
     0
 72
   100
 73
     1
 74
     1
 75
     0
 76
     0
 77
     0
 78
     0
  0
ENDTAB
  0
TABLE
  2
LTYPE
 70
     4
  0
LTYPE
  2
CONTINUOUS
 70
     0
  3
Solid line
 72
    65
 73
     0
 40
0.0
  0
LTYPE
  2
AIGENLINE001
 70
     0
  3
generate AI->DXF Converter
 72
    65
 73
     6
 40
7.4083750000000004
 49
3.5278
 49
-0.776115
 49
0.776115
 49
-0.776115
 49
0.776115
 49
-0.776115
  0
LTYPE
  2
AIGENLINE002
 70
     0
  3
generate AI->DXF Converter
 72
    65
 73
     2
 40
1.5522299999999991
 49
0.776115
 49
-0.776115
  0
LTYPE
  2
AIGENLINE003
 70
     0
  3
generate AI->DXF Converter
 72
    65
 73
     4
 40
5.8561449999999988
 49
3.5278
 49
-0.776115
 49
0.776115
 49
-0.776115
  0
ENDTAB
  0
TABLE
  2
LAYER
 70
     2
  0
LAYER
  2
0
 70
     0
 62
     7
  6
CONTINUOUS
  0
LAYER
  2
_________2
 70
     0
 62
     7
  6
CONTINUOUS
  0
ENDTAB
  0
TABLE
  2
STYLE
 70
     1
  0
STYLE
  2
STANDARD
 70
     0
 40
0.0
 41
0.0
 50
0.0
 71
     0
 42
0.0
  3
TXT
  4
EXTFONT.SHX
  0
ENDTAB
  0
TABLE
  2
VIEW
 70
     0
  0
ENDTAB
  0
TABLE
  2
UCS
 70
     0
  0
ENDTAB
  0
TABLE
  2
APPID
 70
     3
  0
APPID
  2
ACAD
 70
     0
  0
APPID
  2
ACAD_NAV_VCDISPLAY
 70
     0
  0
APPID
  2
ACAD_MLEADERVER
 70
     0
  0
ENDTAB
  0
TABLE
  2
DIMSTYLE
 70
     1
  0
DIMSTYLE
  2
STANDARD
 70
     0
  3

  4

  5

  6

  7

 40
1.0
 41
0.18
 42
0.0625
 43
0.38
 44
0.18
 45
0.0
 46
0.0
 47
0.0
 48
0.0
140
0.18
141
0.09
142
0.0
143
25.399999999999999
144
1.0
145
0.0
146
1.0
147
0.09
 71
     0
 72
     0
 73
     1
 74
     1
 75
     0
 76
     0
 77
     0
 78
     0
170
     0
171
     2
172
     0
173
     0
174
     0
175
     0
176
     0
177
     0
178
     0
  0
ENDTAB
  0
ENDSEC
  0
SECTION
  2
BLOCKS
  0
BLOCK
  8
0
  2
$MODEL_SPACE
 70
     0
 10
0.0
 20
0.0
 30
0.0
  3
$MODEL_SPACE
  1

  0
ENDBLK
  5
1A
  8
0
  0
BLOCK
 67
     1
  8
0
  2
$PAPER_SPACE
 70
     0
 10
0.0
 20
0.0
 30
0.0
  3
$PAPER_SPACE
  1

  0
ENDBLK
  5
17
 67
     1
  8
0
  0
ENDSEC
  0
SECTION
  2
ENTITIES
  0
TEXT
  5
24
  8
0
 62
     7
 10
180.47900000000001
 20
140.077
 30
0.0
 40
3.0923400000000001
  1
キッチンシンクFR21072
 41
0.5
  0
TEXT
  5
25
  8
0
 62
     7
 10
186.28599999999989
 20
126.14100000000001
 30
0.0
 40
3.0923400000000001
  1
固定用木（現場手配）
 41
0.5
  0
TEXT
  5
26
  8
0
 62
     7
 10
186.28599999999989
 20
121.361
 30
0.0
 40
3.0923400000000001
  1
t＝14 50mm\U+00D720mm
 41
0.5
  0
TEXT
  5
27
  8
0
 62
     7
 10
222.12159700000001
 20
119.661
 30
0.0
 40
3.0923400000000001
  1
（CET007R）別売
 41
0.5
 72
     1
 11
231.244
 21
119.661
 31
0.0
  0
TEXT
  5
28
  8
0
 62
     7
 10
230.16480899999999
 20
124.79000000000001
 30
0.0
 40
3.0923400000000001
  1
固定金具
 41
0.5
 72
     1
 11
233.721
 21
124.79000000000001
 31
0.0
  0
TEXT
  5
29
  8
0
 62
     7
 10
251.46600000000001
 20
123.473
 30
0.0
 40
3.0923400000000001
  1
t＝24～30 50mm\U+00D750mm以上
 41
0.5
  0
TEXT
  5
2A
  8
0
 62
     7
 10
255.825954
 20
127.70399999999999
 30
0.0
 40
3.0923400000000001
  1
カウンター裏補強木（現場手配）
 41
0.5
 72
     2
 11
282.31700000000001
 21
127.70399999999999
 31
0.0
  0
TEXT
  5
2B
  8
0
 62
     7
 10
210.089
 20
199.50200000000001
 30
0.0
 40
3.0923400000000001
  1
10
 41
0.5
  0
TEXT
  5
2C
  8
0
 62
     7
 10
191.47300000000001
 20
254.99799999999999
 30
0.0
 40
3.0923400000000001
  1
t＝24～30 50mm\U+00D750mm以上
 41
0.5
  0
TEXT
  5
2D
  8
0
 62
     7
 10
191.47300000000001
 20
259.57900000000001
 30
0.0
 40
3.0923400000000001
  1
カウンター裏補強木（現場手配）
 41
0.5
  0
TEXT
  5
2E
  8
0
 62
     7
 10
230.672
 20
231.38399999999999
 30
0.0
 40
3.0923400000000001
  1
排水口
 41
0.5
  0
TEXT
  5
2F
  8
0
 62
     7
 10
207.126
 20
214.883745
 30
0.0
 40
3.0923400000000001
  1
30
 50
90.0
 41
0.5
 72
     2
 11
207.126
 21
217.203
 31
0.0
  0
TEXT
  5
30
  8
0
 62
     7
 10
257.45100000000002
 20
239.90483
 30
0.0
 40
3.0923400000000001
  1
100
 50
90.0
 41
0.5
 72
     1
 11
257.45100000000002
 21
241.45099999999999
 31
0.0
  0
TEXT
  5
31
  8
0
 62
     7
 10
282.87599999999998
 20
226.8599825
 30
0.0
 40
3.0923400000000001
  1
410
 50
90.0
 41
0.5
 72
     1
 11
282.87599999999998
 21
228.535
 31
0.0
  0
TEXT
  5
32
  8
0
 62
     7
 10
244.04328749999999
 20
186.21700000000001
 30
0.0
 40
3.0923400000000001
  1
720
 41
0.5
 72
     1
 11
245.976
 21
186.21700000000001
 31
0.0
  0
TEXT
  5
33
  8
0
 62
     7
 10
244.0442875
 20
193.81700000000001
 30
0.0
 40
3.0923400000000001
  1
290
 41
0.5
 72
     1
 11
245.977
 21
193.81700000000001
 31
0.0
  0
TEXT
  5
34
  8
0
 62
     7
 10
263.88498249999998
 20
193.81700000000001
 30
0.0
 40
3.0923400000000001
  1
180
 41
0.5
 72
     1
 11
265.56
 21
193.81700000000001
 31
0.0
  0
TEXT
  5
35
  8
0
 62
     7
 10
224.71798250000001
 20
193.81700000000001
 30
0.0
 40
3.0923400000000001
  1
180
 41
0.5
 72
     1
 11
226.393
 21
193.81700000000001
 31
0.0
  0
TEXT
  5
36
  8
0
 62
     7
 10
222.71826999999999
 20
216.726
 30
0.0
 40
3.0923400000000001
  1
R12
 41
0.5
 72
     2
 11
226.32599999999999
 21
216.726
 31
0.0
  0
TEXT
  5
37
  8
0
 62
     7
 10
239.375597
 20
265.86799999999999
 30
0.0
 40
3.0923400000000001
  1
アンダーカウンター用
 41
0.5
 72
     1
 11
248.49799999999999
 21
265.86799999999999
 31
0.0
  0
TEXT
  5
38
  8
0
 62
     7
 10
182.29488799999999
 20
178.143
 30
0.0
 40
3.0923400000000001
  1
カウンター切込寸法 1:12
 41
0.5
 72
     1
 11
193.01499999999999
 21
178.143
 31
0.0
  0
TEXT
  5
39
  8
0
 62
     7
 10
124.416
 20
231.38399999999999
 30
0.0
 40
3.0923400000000001
  1
排水口
 41
0.5
  0
TEXT
  5
3A
  8
0
 62
     7
 10
237.136448
 20
160.273
 30
0.0
 40
3.0923400000000001
  1
カウンター
 41
0.5
 72
     2
 11
245.79499999999999
 21
160.273
 31
0.0
  0
TEXT
  5
3B
  8
0
 62
     7
 10
219.93576100000001
 20
109.31699999999999
 30
0.0
 40
3.0923400000000001
  1
アンダーカウンター固定部詳細 1：2
 41
0.5
 72
     1
 11
235.44900000000001
 21
109.31699999999999
 31
0.0
  0
TEXT
  5
3C
  8
0
 62
     7
 10
172.84200000000001
 20
98.842100000000016
 30
0.0
 40
3.0923400000000001
  1
オーバーカウンター
 50
90.0
 41
0.5
  0
TEXT
  5
3D
  8
0
 62
     7
 10
168.61099999999999
 20
98.842100000000016
 30
0.0
 40
3.0923400000000001
  1
カウンター厚さmax.20
 50
90.0
 41
0.5
  0
TEXT
  5
3E
  8
0
 62
     7
 10
61.600876
 20
134.94800000000001
 30
0.0
 40
3.0923400000000001
  1
t＝1.2
 41
0.5
 72
     2
 11
67.579400000000007
 21
134.94800000000001
 31
0.0
  0
TEXT
  5
3F
  8
0
 62
     7
 10
68.863900000000001
 20
264.49644000000001
 30
0.0
 40
3.0923400000000001
  1
17
 50
90.0
 41
0.5
 72
     2
 11
68.863900000000001
 21
266.55799999999999
 31
0.0
  0
TEXT
  5
40
  8
0
 62
     7
 10
68.863900000000001
 20
255.44337250000001
 30
0.0
 40
3.0923400000000001
  1
20
 50
90.0
 41
0.5
 72
     1
 11
68.863900000000001
 21
256.60300000000001
 31
0.0
  0
TEXT
  5
41
  8
0
 62
     7
 10
68.863900000000001
 20
177.16
 30
0.0
 40
3.0923400000000001
  1
20
 50
90.0
 41
0.5
  0
TEXT
  5
42
  8
0
 62
     7
 10
72.782200000000003
 20
103.61444
 30
0.0
 40
3.0923400000000001
  1
294
 50
90.0
 41
0.5
 72
     1
 11
72.782200000000003
 21
105.676
 31
0.0
  0
TEXT
  5
43
  8
0
 62
     7
 10
64.785799999999995
 20
111.717135
 30
0.0
 40
3.0923400000000001
  1
200
 50
90.0
 41
0.5
 72
     1
 11
64.785799999999995
 21
113.521
 31
0.0
  0
TEXT
  5
44
  8
0
 62
     7
 10
178.00599999999989
 20
226.60228749999999
 30
0.0
 40
3.0923400000000001
  1
420
 50
90.0
 41
0.5
 72
     1
 11
178.00599999999989
 21
228.535
 31
0.0
  0
TEXT
  5
45
  8
0
 62
     7
 10
151.19399999999999
 20
239.9839825
 30
0.0
 40
3.0923400000000001
  1
105
 50
90.0
 41
0.5
 72
     1
 11
151.19399999999999
 21
241.65899999999999
 31
0.0
  0
TEXT
  5
46
  8
0
 62
     7
 10
76.463899999999995
 20
218.8372875
 30
0.0
 40
3.0923400000000001
  1
450
 50
90.0
 41
0.5
 72
     1
 11
76.463899999999995
 21
220.77000000000001
 31
0.0
  0
TEXT
  5
47
  8
0
 62
     7
 10
68.863900000000001
 20
219.09498249999999
 30
0.0
 40
3.0923400000000001
  1
410
 50
90.0
 41
0.5
 72
     1
 11
68.863900000000001
 21
220.77000000000001
 31
0.0
  0
TEXT
  5
48
  8
0
 62
     7
 10
137.78728749999999
 20
201.614
 30
0.0
 40
3.0923400000000001
  1
730
 41
0.5
 72
     1
 11
139.72
 21
201.614
 31
0.0
  0
TEXT
  5
49
  8
0
 62
     7
 10
116.22826999999999
 20
216.339
 30
0.0
 40
3.0923400000000001
  1
R13
 41
0.5
 72
     2
 11
119.836
 21
216.339
 31
0.0
  0
TEXT
  5
4A
  8
0
 62
     7
 10
9.737487999999999
 20
229.74199999999999
 30
0.0
 40
3.0923400000000001
  1
メーカーロゴ
 41
0.5
 72
     2
 11
20.457599999999999
 21
229.74199999999999
 31
0.0
  0
TEXT
  5
4B
  8
0
 62
     7
 10
113.658
 20
72.5959
 30
0.0
 40
3.0923400000000001
  1
オーバーフロー付排水ヘッド部付属
 41
0.5
  0
TEXT
  5
4C
  8
0
 62
     7
 10
11.364988
 20
134.916
 30
0.0
 40
3.0923400000000001
  1
メーカーロゴ
 41
0.5
 72
     2
 11
22.085100000000001
 21
134.916
 31
0.0
  0
TEXT
  5
4D
  8
0
 62
     7
 10
60.136245000000002
 20
172.869
 30
0.0
 40
3.0923400000000001
  1
20
 41
0.5
 72
     2
 11
62.455500000000001
 21
172.869
 31
0.0
  0
TEXT
  5
4E
  8
0
 62
     7
 10
-76.781999999999996
 20
172.869
 30
0.0
 40
3.0923400000000001
  1
20
 41
0.5
  0
TEXT
  5
4F
  8
0
 62
     7
 10
-23.3949
 20
228.59299999999999
 30
0.0
 40
3.0923400000000001
  1
%%c88
 41
0.5
  0
TEXT
  5
50
  8
0
 62
     7
 10
-8.9206125000000007
 20
172.869
 30
0.0
 40
3.0923400000000001
  1
720
 41
0.5
 72
     1
 11
-6.9878999999999989
 21
172.869
 31
0.0
  0
TEXT
  5
51
  8
0
 62
     7
 10
146.2829825
 20
140.43700000000001
 30
0.0
 40
3.0923400000000001
  1
120
 41
0.5
 72
     1
 11
147.958
 21
140.43700000000001
 31
0.0
  0
TEXT
  5
52
  8
0
 62
     7
 10
-22.758600000000001
 20
72.695099999999996
 30
0.0
 40
3.0923400000000001
  1
G1 1/2
 41
0.5
  0
TEXT
  5
53
  8
0
 62
     7
 10
-8.9206125000000007
 20
165.28800000000001
 30
0.0
 40
3.0923400000000001
  1
760
 41
0.5
 72
     1
 11
-6.9878999999999989
 21
165.28800000000001
 31
0.0
  0
TEXT
  5
54
  8
0
 62
     7
 10
131.452597
 20
265.86799999999999
 30
0.0
 40
3.0923400000000001
  1
オーバーカウンター用
 41
0.5
 72
     1
 11
140.57499999999999
 21
265.86799999999999
 31
0.0
  0
LINE
  5
55
  8
0
  6
AIGENLINE001
 62
     7
 10
-5.0291800000000002
 20
122.76300000000001
 30
0.0
 11
-8.9459400000000002
 21
122.76300000000001
 31
0.0
  0
LINE
  5
56
  8
0
  6
AIGENLINE001
 62
     7
 10
-8.9459400000000002
 20
122.76300000000001
 30
0.0
 11
-8.9459400000000002
 21
124.01300000000001
 31
0.0
  0
LINE
  5
57
  8
0
  6
AIGENLINE001
 62
     7
 10
-8.9459400000000002
 20
124.01300000000001
 30
0.0
 11
-5.0291800000000002
 21
124.01300000000001
 31
0.0
  0
LINE
  5
58
  8
0
  6
AIGENLINE001
 62
     7
 10
-5.0291800000000002
 20
124.01300000000001
 30
0.0
 11
-5.0291800000000002
 21
122.76300000000001
 31
0.0
  0
ARC
  5
59
  8
0
 62
     7
 10
69.563980000000001
 20
258.27027799999991
 30
0.0
 40
0.353986
 50
270.00002000000001
 51
359.99999000000003
  0
ARC
  5
5A
  8
0
 62
     7
 10
69.563980000000001
 20
258.27027799999991
 30
0.0
 40
0.353986
 50
179.99996999999999
 51
270.00002000000001
  0
ARC
  5
5B
  8
0
 62
     7
 10
69.563980000000001
 20
258.27027799999991
 30
0.0
 40
0.353986
 50
90.0
 51
179.99996999999999
  0
ARC
  5
5C
  8
0
 62
     7
 10
69.563980000000001
 20
258.27027799999991
 30
0.0
 40
0.353986
 50
0.00001
 51
89.999980000000008
  0
LINE
  5
5D
  8
0
 62
     7
 10
214.52600000000001
 20
137.726
 30
0.0
 11
215.82499999999999
 21
136.92400000000001
 31
0.0
  0
LINE
  5
5E
  8
0
 62
     7
 10
215.82499999999999
 20
136.92400000000001
 30
0.0
 11
214.29900000000001
 21
136.96899999999999
 31
0.0
  0
LINE
  5
5F
  8
0
 62
     7
 10
214.29900000000001
 20
136.96899999999999
 30
0.0
 11
214.52600000000001
 21
137.726
 31
0.0
  0
LINE
  5
60
  8
0
 62
     7
 10
180.47900000000001
 20
139.37700000000001
 30
0.0
 11
207.655
 21
139.37700000000001
 31
0.0
  0
LINE
  5
61
  8
0
 62
     7
 10
207.655
 20
139.37700000000001
 30
0.0
 11
215.86699999999999
 21
136.917
 31
0.0
  0
LINE
  5
62
  8
0
 62
     7
 10
218.21899999999999
 20
138.768
 30
0.0
 11
219.333
 21
139.81200000000001
 31
0.0
  0
LINE
  5
63
  8
0
 62
     7
 10
219.333
 20
139.81200000000001
 30
0.0
 11
218.88999999999999
 21
138.351
 31
0.0
  0
LINE
  5
64
  8
0
 62
     7
 10
218.88999999999999
 20
138.351
 30
0.0
 11
218.21899999999999
 21
138.768
 31
0.0
  0
LINE
  5
65
  8
0
 62
     7
 10
210.048
 20
124.892
 30
0.0
 11
219.351
 21
139.84999999999999
 31
0.0
  0
LINE
  5
66
  8
0
 62
     7
 10
186.33600000000001
 20
124.892
 30
0.0
 11
210.048
 21
124.892
 31
0.0
  0
LINE
  5
67
  8
0
 62
     7
 10
227.02699999999999
 20
132.476
 30
0.0
 11
228.011
 21
133.643
 31
0.0
  0
LINE
  5
68
  8
0
 62
     7
 10
228.011
 20
133.643
 30
0.0
 11
227.74299999999999
 21
132.14099999999999
 31
0.0
  0
LINE
  5
69
  8
0
 62
     7
 10
227.74299999999999
 20
132.14099999999999
 30
0.0
 11
227.02699999999999
 21
132.476
 31
0.0
  0
LINE
  5
6A
  8
0
 62
     7
 10
223.21799999999999
 20
123.443
 30
0.0
 11
228.024
 21
133.684
 31
0.0
  0
LINE
  5
6B
  8
0
 62
     7
 10
241.19399999999999
 20
123.443
 30
0.0
 11
223.21799999999999
 21
123.443
 31
0.0
  0
LINE
  5
6C
  8
0
 62
     7
 10
250.71899999999999
 20
133.21100000000001
 30
0.0
 11
251.43000000000001
 21
134.56100000000001
 31
0.0
  0
LINE
  5
6D
  8
0
 62
     7
 10
251.43000000000001
 20
134.56100000000001
 30
0.0
 11
251.489
 21
133.036
 31
0.0
  0
LINE
  5
6E
  8
0
 62
     7
 10
251.489
 20
133.036
 30
0.0
 11
250.71899999999999
 21
133.21100000000001
 31
0.0
  0
LINE
  5
6F
  8
0
 62
     7
 10
249.709
 20
127.004
 30
0.0
 11
251.435
 21
134.60400000000001
 31
0.0
  0
LINE
  5
70
  8
0
 62
     7
 10
281.45999999999998
 20
127.004
 30
0.0
 11
249.709
 21
127.004
 31
0.0
  0
ARC
  5
71
  8
0
 62
     7
 10
-6.9778619999999991
 20
257.99347599999999
 30
0.0
 40
2.5261390000000001
 50
90.227738000000016
 51
132.594032
  0
ARC
  5
72
  8
0
 62
     7
 10
-6.9979899999999988
 20
257.99328300000002
 30
0.0
 40
2.5263330000000002
 50
47.419195999999999
 51
89.771235000000019
  0
ARC
  5
73
  8
0
 62
     7
 10
-6.9601610000000003
 20
257.96349700000002
 30
0.0
 40
3.139135
 50
90.506349999999983
 51
142.98942600000001
  0
ARC
  5
74
  8
0
 62
     7
 10
-7.0129070000000011
 20
257.96909799999997
 30
0.0
 40
3.133510999999999
 50
36.983488000000001
 51
89.542803000000006
  0
LINE
  5
75
  8
0
 62
     7
 10
213.76499999999999
 20
199.39400000000001
 30
0.0
 11
215.976
 21
198.80199999999999
 31
0.0
  0
LINE
  5
76
  8
0
 62
     7
 10
215.976
 20
198.80199999999999
 30
0.0
 11
213.76499999999999
 21
198.209
 31
0.0
  0
LINE
  5
77
  8
0
 62
     7
 10
213.76499999999999
 20
198.209
 30
0.0
 11
213.76499999999999
 21
199.39400000000001
 31
0.0
  0
LINE
  5
78
  8
0
 62
     7
 10
219.02099999999999
 20
198.209
 30
0.0
 11
216.809
 21
198.80199999999999
 31
0.0
  0
LINE
  5
79
  8
0
 62
     7
 10
216.809
 20
198.80199999999999
 30
0.0
 11
219.02099999999999
 21
199.39400000000001
 31
0.0
  0
LINE
  5
7A
  8
0
 62
     7
 10
219.02099999999999
 20
199.39400000000001
 30
0.0
 11
219.02099999999999
 21
198.209
 31
0.0
  0
LINE
  5
7B
  8
0
 62
     7
 10
219.97900000000001
 20
198.80199999999999
 30
0.0
 11
210.089
 21
198.80199999999999
 31
0.0
  0
LINE
  5
7C
  8
0
 62
     7
 10
216.809
 20
198.102
 30
0.0
 11
216.809
 21
204.084
 31
0.0
  0
LINE
  5
7D
  8
0
 62
     7
 10
226.90899999999999
 20
258.87900000000002
 30
0.0
 11
191.47300000000001
 21
258.87900000000002
 31
0.0
  0
LINE
  5
7E
  8
0
 62
     7
 10
232.76599999999999
 20
254.26599999999999
 30
0.0
 11
233.91
 21
252.28399999999999
 31
0.0
  0
LINE
  5
7F
  8
0
 62
     7
 10
233.91
 20
252.28399999999999
 30
0.0
 11
231.928
 21
253.429
 31
0.0
  0
LINE
  5
80
  8
0
 62
     7
 10
231.928
 20
253.429
 30
0.0
 11
232.76599999999999
 21
254.26599999999999
 31
0.0
  0
LINE
  5
81
  8
0
 62
     7
 10
226.90899999999999
 20
258.87900000000002
 30
0.0
 11
233.91
 21
252.28399999999999
 31
0.0
  0
LINE
  5
82
  8
0
 62
     7
 10
238.96799999999999
 20
230.684
 30
0.0
 11
230.672
 21
230.684
 31
0.0
  0
LINE
  5
83
  8
0
 62
     7
 10
242.16200000000001
 20
232.78899999999999
 30
0.0
 11
243.30699999999999
 21
234.77099999999999
 31
0.0
  0
LINE
  5
84
  8
0
 62
     7
 10
243.30699999999999
 20
234.77099999999999
 30
0.0
 11
241.32499999999999
 21
233.62700000000001
 31
0.0
  0
LINE
  5
85
  8
0
 62
     7
 10
241.32499999999999
 20
233.62700000000001
 30
0.0
 11
242.16200000000001
 21
232.78899999999999
 31
0.0
  0
LINE
  5
86
  8
0
 62
     7
 10
238.96799999999999
 20
230.684
 30
0.0
 11
243.30699999999999
 21
234.77099999999999
 31
0.0
  0
ARC
  5
87
  8
0
  6
AIGENLINE002
 62
     7
 10
245.97611800000001
 20
237.284605
 30
0.0
 40
3.666725
 50
270.00136600000002
 51
0.001336
  0
ARC
  5
88
  8
0
  6
AIGENLINE002
 62
     7
 10
245.976291
 20
237.284604
 30
0.0
 40
3.666723999999999
 50
179.99862400000001
 51
269.99867399999999
  0
ARC
  5
89
  8
0
  6
AIGENLINE002
 62
     7
 10
245.97612000000001
 20
237.284604
 30
0.0
 40
3.6665529999999991
 50
89.998654000000002
 51
179.99862400000001
  0
ARC
  5
8A
  8
0
  6
AIGENLINE002
 62
     7
 10
245.976291
 20
237.284604
 30
0.0
 40
3.6665529999999991
 50
0.001356
 51
90.00132600000002
  0
LINE
  5
8B
  8
0
  6
AIGENLINE003
 62
     7
 10
245.976
 20
209.95099999999999
 30
0.0
 11
245.976
 21
247.11799999999999
 31
0.0
  0
LINE
  5
8C
  8
0
  6
AIGENLINE003
 62
     7
 10
251.976
 20
237.285
 30
0.0
 11
239.976
 21
237.285
 31
0.0
  0
LINE
  5
8D
  8
0
  6
AIGENLINE001
 62
     7
 10
255.976
 20
252.28399999999999
 30
0.0
 11
260.14299999999997
 21
252.28399999999999
 31
0.0
  0
LINE
  5
8E
  8
0
  6
AIGENLINE001
 62
     7
 10
260.14299999999997
 20
252.28399999999999
 30
0.0
 11
260.14299999999997
 21
248.11799999999999
 31
0.0
  0
LINE
  5
8F
  8
0
  6
AIGENLINE001
 62
     7
 10
260.14299999999997
 20
248.11799999999999
 30
0.0
 11
255.976
 21
248.11799999999999
 31
0.0
  0
LINE
  5
90
  8
0
  6
AIGENLINE001
 62
     7
 10
255.976
 20
248.11799999999999
 30
0.0
 11
255.976
 21
252.28399999999999
 31
0.0
  0
LINE
  5
91
  8
0
 62
     7
 10
260.14299999999997
 20
248.11799999999999
 30
0.0
 11
255.976
 21
252.28399999999999
 31
0.0
  0
LINE
  5
92
  8
0
 62
     7
 10
255.976
 20
248.11799999999999
 30
0.0
 11
260.14299999999997
 21
252.28399999999999
 31
0.0
  0
LINE
  5
93
  8
0
  6
AIGENLINE001
 62
     7
 10
270.976
 20
252.28399999999999
 30
0.0
 11
275.14299999999997
 21
252.28399999999999
 31
0.0
  0
LINE
  5
94
  8
0
  6
AIGENLINE001
 62
     7
 10
275.14299999999997
 20
252.28399999999999
 30
0.0
 11
275.14299999999997
 21
248.11799999999999
 31
0.0
  0
LINE
  5
95
  8
0
  6
AIGENLINE001
 62
     7
 10
275.14299999999997
 20
248.11799999999999
 30
0.0
 11
270.976
 21
248.11799999999999
 31
0.0
  0
LINE
  5
96
  8
0
  6
AIGENLINE001
 62
     7
 10
270.976
 20
248.11799999999999
 30
0.0
 11
270.976
 21
252.28399999999999
 31
0.0
  0
LINE
  5
97
  8
0
 62
     7
 10
275.14299999999997
 20
248.11799999999999
 30
0.0
 11
270.976
 21
252.28399999999999
 31
0.0
  0
LINE
  5
98
  8
0
 62
     7
 10
270.976
 20
248.11799999999999
 30
0.0
 11
275.14299999999997
 21
252.28399999999999
 31
0.0
  0
LINE
  5
99
  8
0
  6
AIGENLINE001
 62
     7
 10
235.976
 20
252.28399999999999
 30
0.0
 11
231.81
 21
252.28399999999999
 31
0.0
  0
LINE
  5
9A
  8
0
  6
AIGENLINE001
 62
     7
 10
231.81
 20
252.28399999999999
 30
0.0
 11
231.81
 21
248.11799999999999
 31
0.0
  0
LINE
  5
9B
  8
0
  6
AIGENLINE001
 62
     7
 10
231.81
 20
248.11799999999999
 30
0.0
 11
235.976
 21
248.11799999999999
 31
0.0
  0
LINE
  5
9C
  8
0
  6
AIGENLINE001
 62
     7
 10
235.976
 20
248.11799999999999
 30
0.0
 11
235.976
 21
252.28399999999999
 31
0.0
  0
LINE
  5
9D
  8
0
 62
     7
 10
231.81
 20
248.11799999999999
 30
0.0
 11
235.976
 21
252.28399999999999
 31
0.0
  0
LINE
  5
9E
  8
0
 62
     7
 10
235.976
 20
248.11799999999999
 30
0.0
 11
231.81
 21
252.28399999999999
 31
0.0
  0
LINE
  5
9F
  8
0
  6
AIGENLINE001
 62
     7
 10
220.976
 20
252.28399999999999
 30
0.0
 11
216.809
 21
252.28399999999999
 31
0.0
  0
LINE
  5
A0
  8
0
  6
AIGENLINE001
 62
     7
 10
216.809
 20
252.28399999999999
 30
0.0
 11
216.809
 21
248.11799999999999
 31
0.0
  0
LINE
  5
A1
  8
0
  6
AIGENLINE001
 62
     7
 10
216.809
 20
248.11799999999999
 30
0.0
 11
220.976
 21
248.11799999999999
 31
0.0
  0
LINE
  5
A2
  8
0
  6
AIGENLINE001
 62
     7
 10
220.976
 20
248.11799999999999
 30
0.0
 11
220.976
 21
252.28399999999999
 31
0.0
  0
LINE
  5
A3
  8
0
 62
     7
 10
216.809
 20
248.11799999999999
 30
0.0
 11
220.976
 21
252.28399999999999
 31
0.0
  0
LINE
  5
A4
  8
0
 62
     7
 10
220.976
 20
248.11799999999999
 30
0.0
 11
216.809
 21
252.28399999999999
 31
0.0
  0
LINE
  5
A5
  8
0
  6
AIGENLINE001
 62
     7
 10
255.976
 20
204.78399999999999
 30
0.0
 11
260.14299999999997
 21
204.78399999999999
 31
0.0
  0
LINE
  5
A6
  8
0
  6
AIGENLINE001
 62
     7
 10
260.14299999999997
 20
204.78399999999999
 30
0.0
 11
260.14299999999997
 21
208.95099999999999
 31
0.0
  0
LINE
  5
A7
  8
0
  6
AIGENLINE001
 62
     7
 10
260.14299999999997
 20
208.95099999999999
 30
0.0
 11
255.976
 21
208.95099999999999
 31
0.0
  0
LINE
  5
A8
  8
0
  6
AIGENLINE001
 62
     7
 10
255.976
 20
208.95099999999999
 30
0.0
 11
255.976
 21
204.78399999999999
 31
0.0
  0
LINE
  5
A9
  8
0
 62
     7
 10
260.14299999999997
 20
208.95099999999999
 30
0.0
 11
255.976
 21
204.78399999999999
 31
0.0
  0
LINE
  5
AA
  8
0
 62
     7
 10
255.976
 20
208.95099999999999
 30
0.0
 11
260.14299999999997
 21
204.78399999999999
 31
0.0
  0
LINE
  5
AB
  8
0
  6
AIGENLINE001
 62
     7
 10
270.976
 20
204.78399999999999
 30
0.0
 11
275.14299999999997
 21
204.78399999999999
 31
0.0
  0
LINE
  5
AC
  8
0
  6
AIGENLINE001
 62
     7
 10
275.14299999999997
 20
204.78399999999999
 30
0.0
 11
275.14299999999997
 21
208.95099999999999
 31
0.0
  0
LINE
  5
AD
  8
0
  6
AIGENLINE001
 62
     7
 10
275.14299999999997
 20
208.95099999999999
 30
0.0
 11
270.976
 21
208.95099999999999
 31
0.0
  0
LINE
  5
AE
  8
0
  6
AIGENLINE001
 62
     7
 10
270.976
 20
208.95099999999999
 30
0.0
 11
270.976
 21
204.78399999999999
 31
0.0
  0
LINE
  5
AF
  8
0
 62
     7
 10
275.14299999999997
 20
208.95099999999999
 30
0.0
 11
270.976
 21
204.78399999999999
 31
0.0
  0
LINE
  5
B0
  8
0
 62
     7
 10
270.976
 20
208.95099999999999
 30
0.0
 11
275.14299999999997
 21
204.78399999999999
 31
0.0
  0
LINE
  5
B1
  8
0
  6
AIGENLINE001
 62
     7
 10
235.976
 20
204.78399999999999
 30
0.0
 11
231.81
 21
204.78399999999999
 31
0.0
  0
LINE
  5
B2
  8
0
  6
AIGENLINE001
 62
     7
 10
231.81
 20
204.78399999999999
 30
0.0
 11
231.81
 21
208.95099999999999
 31
0.0
  0
LINE
  5
B3
  8
0
  6
AIGENLINE001
 62
     7
 10
231.81
 20
208.95099999999999
 30
0.0
 11
235.976
 21
208.95099999999999
 31
0.0
  0
LINE
  5
B4
  8
0
  6
AIGENLINE001
 62
     7
 10
235.976
 20
208.95099999999999
 30
0.0
 11
235.976
 21
204.78399999999999
 31
0.0
  0
LINE
  5
B5
  8
0
 62
     7
 10
231.81
 20
208.95099999999999
 30
0.0
 11
235.976
 21
204.78399999999999
 31
0.0
  0
LINE
  5
B6
  8
0
 62
     7
 10
235.976
 20
208.95099999999999
 30
0.0
 11
231.81
 21
204.78399999999999
 31
0.0
  0
LINE
  5
B7
  8
0
  6
AIGENLINE001
 62
     7
 10
220.976
 20
204.78399999999999
 30
0.0
 11
216.809
 21
204.78399999999999
 31
0.0
  0
LINE
  5
B8
  8
0
  6
AIGENLINE001
 62
     7
 10
216.809
 20
204.78399999999999
 30
0.0
 11
216.809
 21
208.95099999999999
 31
0.0
  0
LINE
  5
B9
  8
0
  6
AIGENLINE001
 62
     7
 10
216.809
 20
208.95099999999999
 30
0.0
 11
220.976
 21
208.95099999999999
 31
0.0
  0
LINE
  5
BA
  8
0
  6
AIGENLINE001
 62
     7
 10
220.976
 20
208.95099999999999
 30
0.0
 11
220.976
 21
204.78399999999999
 31
0.0
  0
LINE
  5
BB
  8
0
 62
     7
 10
226.32599999999999
 20
216.02600000000001
 30
0.0
 11
220.55000000000001
 21
216.02600000000001
 31
0.0
  0
LINE
  5
BC
  8
0
 62
     7
 10
216.809
 20
208.95099999999999
 30
0.0
 11
220.976
 21
204.78399999999999
 31
0.0
  0
LINE
  5
BD
  8
0
 62
     7
 10
220.976
 20
208.95099999999999
 30
0.0
 11
216.809
 21
204.78399999999999
 31
0.0
  0
LINE
  5
BE
  8
0
 62
     7
 10
217.41300000000001
 20
213.72499999999999
 30
0.0
 11
216.26900000000001
 21
211.744
 31
0.0
  0
LINE
  5
BF
  8
0
 62
     7
 10
216.26900000000001
 20
211.744
 30
0.0
 11
218.251
 21
212.88800000000001
 31
0.0
  0
LINE
  5
C0
  8
0
 62
     7
 10
218.251
 20
212.88800000000001
 30
0.0
 11
217.41300000000001
 21
213.72499999999999
 31
0.0
  0
LINE
  5
C1
  8
0
 62
     7
 10
220.55000000000001
 20
216.02600000000001
 30
0.0
 11
216.26900000000001
 21
211.744
 31
0.0
  0
LINE
  5
C2
  8
0
 62
     7
 10
273.76599999999991
 20
184.92400000000001
 30
0.0
 11
275.976
 21
185.517
 31
0.0
  0
LINE
  5
C3
  8
0
 62
     7
 10
275.976
 20
185.517
 30
0.0
 11
273.76599999999991
 21
186.10900000000001
 31
0.0
  0
LINE
  5
C4
  8
0
 62
     7
 10
273.76599999999991
 20
186.10900000000001
 30
0.0
 11
273.76599999999991
 21
184.92400000000001
 31
0.0
  0
LINE
  5
C5
  8
0
 62
     7
 10
218.18700000000001
 20
186.10900000000001
 30
0.0
 11
215.976
 21
185.517
 31
0.0
  0
LINE
  5
C6
  8
0
 62
     7
 10
215.976
 20
185.517
 30
0.0
 11
218.18700000000001
 21
184.92400000000001
 31
0.0
  0
LINE
  5
C7
  8
0
 62
     7
 10
218.18700000000001
 20
184.92400000000001
 30
0.0
 11
218.18700000000001
 21
186.10900000000001
 31
0.0
  0
LINE
  5
C8
  8
0
 62
     7
 10
275.976
 20
185.517
 30
0.0
 11
215.976
 21
185.517
 31
0.0
  0
LINE
  5
C9
  8
0
 62
     7
 10
275.976
 20
210.672
 30
0.0
 11
275.976
 21
184.81700000000001
 31
0.0
  0
LINE
  5
CA
  8
0
 62
     7
 10
236.10300000000001
 20
193.709
 30
0.0
 11
233.893
 21
193.11699999999999
 31
0.0
  0
LINE
  5
CB
  8
0
 62
     7
 10
233.893
 20
193.11699999999999
 30
0.0
 11
236.10300000000001
 21
192.52500000000001
 31
0.0
  0
LINE
  5
CC
  8
0
 62
     7
 10
236.10300000000001
 20
192.52500000000001
 30
0.0
 11
236.10300000000001
 21
193.709
 31
0.0
  0
LINE
  5
CD
  8
0
 62
     7
 10
255.84999999999999
 20
192.52500000000001
 30
0.0
 11
258.06
 21
193.11699999999999
 31
0.0
  0
LINE
  5
CE
  8
0
 62
     7
 10
258.06
 20
193.11699999999999
 30
0.0
 11
255.84999999999999
 21
193.709
 31
0.0
  0
LINE
  5
CF
  8
0
 62
     7
 10
255.84999999999999
 20
193.709
 30
0.0
 11
255.84999999999999
 21
192.52500000000001
 31
0.0
  0
LINE
  5
D0
  8
0
 62
     7
 10
233.893
 20
193.11699999999999
 30
0.0
 11
258.06
 21
193.11699999999999
 31
0.0
  0
LINE
  5
D1
  8
0
 62
     7
 10
260.26999999999998
 20
193.709
 30
0.0
 11
258.06
 21
193.11699999999999
 31
0.0
  0
LINE
  5
D2
  8
0
 62
     7
 10
258.06
 20
193.11699999999999
 30
0.0
 11
260.26999999999998
 21
192.52500000000001
 31
0.0
  0
LINE
  5
D3
  8
0
 62
     7
 10
260.26999999999998
 20
192.52500000000001
 30
0.0
 11
260.26999999999998
 21
193.709
 31
0.0
  0
LINE
  5
D4
  8
0
 62
     7
 10
270.85000000000002
 20
192.52500000000001
 30
0.0
 11
273.06
 21
193.11699999999999
 31
0.0
  0
LINE
  5
D5
  8
0
 62
     7
 10
273.06
 20
193.11699999999999
 30
0.0
 11
270.85000000000002
 21
193.709
 31
0.0
  0
LINE
  5
D6
  8
0
 62
     7
 10
270.85000000000002
 20
193.709
 30
0.0
 11
270.85000000000002
 21
192.52500000000001
 31
0.0
  0
LINE
  5
D7
  8
0
 62
     7
 10
258.05900000000003
 20
193.11699999999999
 30
0.0
 11
273.06099999999998
 21
193.11699999999999
 31
0.0
  0
LINE
  5
D8
  8
0
 62
     7
 10
221.10300000000001
 20
193.709
 30
0.0
 11
218.893
 21
193.11699999999999
 31
0.0
  0
LINE
  5
D9
  8
0
 62
     7
 10
218.893
 20
193.11699999999999
 30
0.0
 11
221.10300000000001
 21
192.52500000000001
 31
0.0
  0
LINE
  5
DA
  8
0
 62
     7
 10
221.10300000000001
 20
192.52500000000001
 30
0.0
 11
221.10300000000001
 21
193.709
 31
0.0
  0
LINE
  5
DB
  8
0
 62
     7
 10
231.68299999999999
 20
192.52500000000001
 30
0.0
 11
233.893
 21
193.11699999999999
 31
0.0
  0
LINE
  5
DC
  8
0
 62
     7
 10
233.893
 20
193.11699999999999
 30
0.0
 11
231.68299999999999
 21
193.709
 31
0.0
  0
LINE
  5
DD
  8
0
 62
     7
 10
231.68299999999999
 20
193.709
 30
0.0
 11
231.68299999999999
 21
192.52500000000001
 31
0.0
  0
LINE
  5
DE
  8
0
 62
     7
 10
218.892
 20
193.11699999999999
 30
0.0
 11
233.89400000000001
 21
193.11699999999999
 31
0.0
  0
LINE
  5
DF
  8
0
 62
     7
 10
208.41800000000001
 20
206.74100000000001
 30
0.0
 11
207.82599999999999
 21
208.95099999999999
 31
0.0
  0
LINE
  5
E0
  8
0
 62
     7
 10
207.82599999999999
 20
208.95099999999999
 30
0.0
 11
207.23400000000001
 21
206.74100000000001
 31
0.0
  0
LINE
  5
E1
  8
0
 62
     7
 10
207.23400000000001
 20
206.74100000000001
 30
0.0
 11
208.41800000000001
 21
206.74100000000001
 31
0.0
  0
LINE
  5
E2
  8
0
 62
     7
 10
207.23400000000001
 20
213.661
 30
0.0
 11
207.82599999999999
 21
211.45099999999999
 31
0.0
  0
LINE
  5
E3
  8
0
 62
     7
 10
207.82599999999999
 20
211.45099999999999
 30
0.0
 11
208.41800000000001
 21
213.661
 31
0.0
  0
LINE
  5
E4
  8
0
 62
     7
 10
208.41800000000001
 20
213.661
 30
0.0
 11
207.23400000000001
 21
213.661
 31
0.0
  0
LINE
  5
E5
  8
0
 62
     7
 10
207.82599999999999
 20
217.203
 30
0.0
 11
207.82599999999999
 21
204.84100000000001
 31
0.0
  0
LINE
  5
E6
  8
0
  6
AIGENLINE003
 62
     7
 10
273.06
 20
210.06299999999999
 30
0.0
 11
273.06
 21
203.45500000000001
 31
0.0
  0
LINE
  5
E7
  8
0
  6
AIGENLINE003
 62
     7
 10
258.06
 20
210.06299999999999
 30
0.0
 11
258.06
 21
203.45500000000001
 31
0.0
  0
LINE
  5
E8
  8
0
  6
AIGENLINE003
 62
     7
 10
218.893
 20
210.06299999999999
 30
0.0
 11
218.893
 21
203.45500000000001
 31
0.0
  0
LINE
  5
E9
  8
0
  6
AIGENLINE003
 62
     7
 10
233.893
 20
210.06299999999999
 30
0.0
 11
233.893
 21
203.45500000000001
 31
0.0
  0
LINE
  5
EA
  8
0
 62
     7
 10
273.06
 20
202.755
 30
0.0
 11
273.06
 21
192.417
 31
0.0
  0
LINE
  5
EB
  8
0
 62
     7
 10
258.06
 20
202.755
 30
0.0
 11
258.06
 21
192.417
 31
0.0
  0
LINE
  5
EC
  8
0
 62
     7
 10
218.893
 20
202.755
 30
0.0
 11
218.893
 21
192.417
 31
0.0
  0
LINE
  5
ED
  8
0
 62
     7
 10
233.893
 20
202.755
 30
0.0
 11
233.893
 21
192.417
 31
0.0
  0
LINE
  5
EE
  8
0
 62
     7
 10
215.976
 20
211.05099999999999
 30
0.0
 11
215.976
 21
184.81700000000001
 31
0.0
  0
LINE
  5
EF
  8
0
 62
     7
 10
258.74299999999999
 20
243.40799999999999
 30
0.0
 11
258.15100000000001
 21
245.61799999999999
 31
0.0
  0
LINE
  5
F0
  8
0
 62
     7
 10
258.15100000000001
 20
245.61799999999999
 30
0.0
 11
257.55900000000003
 21
243.40799999999999
 31
0.0
  0
LINE
  5
F1
  8
0
 62
     7
 10
257.55900000000003
 20
243.40799999999999
 30
0.0
 11
258.74299999999999
 21
243.40799999999999
 31
0.0
  0
LINE
  5
F2
  8
0
 62
     7
 10
257.55900000000003
 20
239.495
 30
0.0
 11
258.15100000000001
 21
237.285
 31
0.0
  0
LINE
  5
F3
  8
0
 62
     7
 10
258.15100000000001
 20
237.285
 30
0.0
 11
258.74299999999999
 21
239.495
 31
0.0
  0
LINE
  5
F4
  8
0
 62
     7
 10
258.74299999999999
 20
239.495
 30
0.0
 11
257.55900000000003
 21
239.495
 31
0.0
  0
LINE
  5
F5
  8
0
 62
     7
 10
258.15100000000001
 20
245.61799999999999
 30
0.0
 11
258.15100000000001
 21
237.285
 31
0.0
  0
LINE
  5
F6
  8
0
 62
     7
 10
252.67599999999999
 20
237.285
 30
0.0
 11
258.851
 21
237.285
 31
0.0
  0
LINE
  5
F7
  8
0
 62
     7
 10
284.16800000000001
 20
243.40799999999999
 30
0.0
 11
283.57600000000002
 21
245.61799999999999
 31
0.0
  0
LINE
  5
F8
  8
0
 62
     7
 10
283.57600000000002
 20
245.61799999999999
 30
0.0
 11
282.98399999999998
 21
243.40799999999999
 31
0.0
  0
LINE
  5
F9
  8
0
 62
     7
 10
282.98399999999998
 20
243.40799999999999
 30
0.0
 11
284.16800000000001
 21
243.40799999999999
 31
0.0
  0
LINE
  5
FA
  8
0
 62
     7
 10
282.98399999999998
 20
213.661
 30
0.0
 11
283.57600000000002
 21
211.45099999999999
 31
0.0
  0
LINE
  5
FB
  8
0
 62
     7
 10
283.57600000000002
 20
211.45099999999999
 30
0.0
 11
284.16800000000001
 21
213.661
 31
0.0
  0
LINE
  5
FC
  8
0
 62
     7
 10
284.16800000000001
 20
213.661
 30
0.0
 11
282.98399999999998
 21
213.661
 31
0.0
  0
LINE
  5
FD
  8
0
 62
     7
 10
283.57600000000002
 20
245.61799999999999
 30
0.0
 11
283.57600000000002
 21
211.45099999999999
 31
0.0
  0
LINE
  5
FE
  8
0
 62
     7
 10
276.75099999999998
 20
245.61799999999999
 30
0.0
 11
284.27600000000001
 21
245.61799999999999
 31
0.0
  0
LINE
  5
FF
  8
0
 62
     7
 10
207.126
 20
211.45099999999999
 30
0.0
 11
215.57599999999999
 21
211.45099999999999
 31
0.0
  0
LINE
  5
100
  8
0
 62
     7
 10
207.126
 20
208.95099999999999
 30
0.0
 11
216.10900000000001
 21
208.95099999999999
 31
0.0
  0
LINE
  5
101
  8
0
 62
     7
 10
276.75099999999998
 20
211.45099999999999
 30
0.0
 11
284.27600000000001
 21
211.45099999999999
 31
0.0
  0
ARC
  5
102
  8
0
 62
     7
 10
217.01454899999999
 20
244.57946100000001
 30
0.0
 40
1.0391449999999991
 50
92.093641000000005
 51
177.86685600000001
  0
ARC
  5
103
  8
0
 62
     7
 10
274.937861
 20
244.57946100000001
 30
0.0
 40
1.0391449999999991
 50
2.133124
 51
87.906339000000017
  0
ARC
  5
104
  8
0
 62
     7
 10
274.97599600000001
 20
212.45125200000001
 30
0.0
 40
1.000289999999999
 50
269.99015299999991
 51
359.99012299999998
  0
ARC
  5
105
  8
0
 62
     7
 10
216.97624099999999
 20
212.45107999999999
 30
0.0
 40
1.000116999999999
 50
179.99996999999999
 51
270.00002000000001
  0
LINE
  5
106
  8
0
 62
     7
 10
274.976
 20
211.45099999999999
 30
0.0
 11
216.976
 21
211.45099999999999
 31
0.0
  0
LINE
  5
107
  8
0
 62
     7
 10
274.976
 20
245.61799999999999
 30
0.0
 11
216.976
 21
245.61799999999999
 31
0.0
  0
LINE
  5
108
  8
0
 62
     7
 10
275.976
 20
244.61799999999999
 30
0.0
 11
275.976
 21
212.45099999999999
 31
0.0
  0
LINE
  5
109
  8
0
 62
     7
 10
215.976
 20
244.61799999999999
 30
0.0
 11
215.976
 21
212.45099999999999
 31
0.0
  0
LINE
  5
10A
  8
0
 62
     7
 10
208.714
 20
177.44300000000001
 30
0.0
 11
177.31700000000001
 21
177.44300000000001
 31
0.0
  0
LINE
  5
10B
  8
0
 62
     7
 10
132.71100000000001
 20
230.684
 30
0.0
 11
124.416
 21
230.684
 31
0.0
  0
LINE
  5
10C
  8
0
 62
     7
 10
135.90600000000001
 20
232.78899999999999
 30
0.0
 11
137.05099999999999
 21
234.77099999999999
 31
0.0
  0
LINE
  5
10D
  8
0
 62
     7
 10
137.05099999999999
 20
234.77099999999999
 30
0.0
 11
135.06899999999999
 21
233.62700000000001
 31
0.0
  0
LINE
  5
10E
  8
0
 62
     7
 10
135.06899999999999
 20
233.62700000000001
 30
0.0
 11
135.90600000000001
 21
232.78899999999999
 31
0.0
  0
LINE
  5
10F
  8
0
 62
     7
 10
132.71100000000001
 20
230.684
 30
0.0
 11
137.05099999999999
 21
234.77099999999999
 31
0.0
  0
ARC
  5
110
  8
0
 62
     7
 10
216.44758200000001
 20
145.93877800000001
 30
0.0
 40
0.622763
 50
92.044221999999991
 51
177.92284799999999
  0
LINE
  5
111
  8
0
 62
     7
 10
215.82499999999999
 20
145.96100000000001
 30
0.0
 11
215.82499999999999
 21
115.861
 31
0.0
  0
LINE
  5
112
  8
0
 62
     7
 10
216.42500000000001
 20
145.96000000000001
 30
0.0
 11
216.42500000000001
 21
115.861
 31
0.0
  0
LINE
  5
113
  8
0
 62
     7
 10
216.42500000000001
 20
146.56100000000001
 30
0.0
 11
226.423
 21
146.56100000000001
 31
0.0
  0
LINE
  5
114
  8
0
 62
     7
 10
226.423
 20
146.56100000000001
 30
0.0
 11
226.423
 21
145.96000000000001
 31
0.0
  0
LINE
  5
115
  8
0
 62
     7
 10
226.423
 20
145.96000000000001
 30
0.0
 11
216.42500000000001
 21
145.96000000000001
 31
0.0
  0
LINE
  5
116
  8
0
 62
     7
 10
217.898
 20
145.96000000000001
 30
0.0
 11
226.423
 21
145.96000000000001
 31
0.0
  0
ARC
  5
117
  8
0
 62
     7
 10
239.49218500000001
 20
138.092476
 30
0.0
 40
6.6348179999999992
 50
278.41366600000009
 51
282.70390300000003
  0
ARC
  5
118
  8
0
 62
     7
 10
240.27513300000001
 20
134.52436499999999
 30
0.0
 40
2.9819490000000002
 50
283.10531700000001
 51
290.90172699999999
  0
ARC
  5
119
  8
0
 62
     7
 10
240.79368600000001
 20
133.12964600000001
 30
0.0
 40
1.494067
 50
291.40637299999997
 51
301.74832700000002
  0
ARC
  5
11A
  8
0
 62
     7
 10
241.15568300000001
 20
132.53162599999999
 30
0.0
 40
0.7950810000000002
 50
302.241285
 51
317.66304300000002
  0
ARC
  5
11B
  8
0
 62
     7
 10
241.39432300000001
 20
132.303033
 30
0.0
 40
0.464798
 50
318.680635
 51
8.1145329999999998
  0
ARC
  5
11C
  8
0
 62
     7
 10
239.479398
 20
138.13597200000001
 30
0.0
 40
6.6797199999999988
 50
274.20761099999999
 51
278.467578
  0
ARC
  5
11D
  8
0
 62
     7
 10
239.771458
 20
134.45355599999999
 30
0.0
 40
2.9858750000000001
 50
266.01760200000001
 51
273.80287399999997
  0
ARC
  5
11E
  8
0
 62
     7
 10
239.681513
 20
132.966532
 30
0.0
 40
1.4962559999999989
 50
255.17137099999999
 51
265.498873
  0
ARC
  5
11F
  8
0
 62
     7
 10
239.50811100000001
 20
132.285267
 30
0.0
 40
0.7933310000000001
 50
239.22640200000001
 51
254.685395
  0
ARC
  5
120
  8
0
 62
     7
 10
239.347284
 20
131.99906100000001
 30
0.0
 40
0.46521
 50
188.785192
 51
238.20968300000001
  0
LINE
  5
121
  8
0
 62
     7
 10
238.15899999999999
 20
141.58000000000001
 30
0.0
 11
238.70500000000001
 21
143.34899999999999
 31
0.0
  0
LINE
  5
122
  8
0
 62
     7
 10
239.74199999999999
 20
141.815
 30
0.0
 11
238.70500000000001
 21
143.34899999999999
 31
0.0
  0
LINE
  5
123
  8
0
 62
     7
 10
241.29599999999999
 20
134.43000000000001
 30
0.0
 11
238.929
 21
133.3479999999999
 31
0.0
  0
LINE
  5
124
  8
0
 62
     7
 10
241.16999999999999
 20
135.273
 30
0.0
 11
238.803
 21
134.19
 31
0.0
  0
LINE
  5
125
  8
0
 62
     7
 10
241.04499999999999
 20
136.11500000000001
 30
0.0
 11
238.678
 21
135.03299999999999
 31
0.0
  0
LINE
  5
126
  8
0
 62
     7
 10
240.91900000000001
 20
136.95599999999999
 30
0.0
 11
238.553
 21
135.875
 31
0.0
  0
LINE
  5
127
  8
0
 62
     7
 10
240.79400000000001
 20
137.79900000000001
 30
0.0
 11
238.42699999999999
 21
136.71700000000001
 31
0.0
  0
LINE
  5
128
  8
0
 62
     7
 10
240.66900000000001
 20
138.64099999999999
 30
0.0
 11
238.303
 21
137.559
 31
0.0
  0
LINE
  5
129
  8
0
 62
     7
 10
240.54400000000001
 20
139.483
 30
0.0
 11
238.17699999999999
 21
138.40199999999999
 31
0.0
  0
LINE
  5
12A
  8
0
 62
     7
 10
240.41900000000001
 20
140.32499999999999
 30
0.0
 11
238.05199999999999
 21
139.244
 31
0.0
  0
LINE
  5
12B
  8
0
 62
     7
 10
240.29300000000001
 20
141.16800000000001
 30
0.0
 11
237.92699999999999
 21
140.08600000000001
 31
0.0
  0
LINE
  5
12C
  8
0
 62
     7
 10
240.16800000000001
 20
142.00899999999999
 30
0.0
 11
237.80099999999999
 21
140.928
 31
0.0
  0
LINE
  5
12D
  8
0
 62
     7
 10
240.04300000000001
 20
142.852
 30
0.0
 11
237.67599999999999
 21
141.77000000000001
 31
0.0
  0
LINE
  5
12E
  8
0
  6
AIGENLINE001
 62
     7
 10
256.423
 20
146.56100000000001
 30
0.0
 11
231.423
 21
134.56100000000001
 31
0.0
  0
LINE
  5
12F
  8
0
  6
AIGENLINE001
 62
     7
 10
231.423
 20
146.56100000000001
 30
0.0
 11
256.423
 21
134.56100000000001
 31
0.0
  0
LINE
  5
130
  8
0
  6
AIGENLINE001
 62
     7
 10
231.423
 20
134.56100000000001
 30
0.0
 11
256.423
 21
134.56100000000001
 31
0.0
  0
LINE
  5
131
  8
0
  6
AIGENLINE001
 62
     7
 10
217.898
 20
145.96000000000001
 30
0.0
 11
226.423
 21
139.81200000000001
 31
0.0
  0
LINE
  5
132
  8
0
  6
AIGENLINE001
 62
     7
 10
217.898
 20
139.81200000000001
 30
0.0
 11
226.423
 21
145.96000000000001
 31
0.0
  0
LINE
  5
133
  8
0
  6
AIGENLINE001
 62
     7
 10
217.898
 20
145.96000000000001
 30
0.0
 11
217.898
 21
139.81200000000001
 31
0.0
  0
LINE
  5
134
  8
0
  6
AIGENLINE001
 62
     7
 10
256.423
 20
146.56100000000001
 30
0.0
 11
256.423
 21
134.56100000000001
 31
0.0
  0
LINE
  5
135
  8
0
  6
AIGENLINE001
 62
     7
 10
231.423
 20
146.56100000000001
 30
0.0
 11
231.423
 21
134.56100000000001
 31
0.0
  0
LINE
  5
136
  8
0
  6
AIGENLINE001
 62
     7
 10
226.423
 20
145.96000000000001
 30
0.0
 11
226.423
 21
139.81200000000001
 31
0.0
  0
ARC
  5
137
  8
0
  6
AIGENLINE001
 62
     7
 10
218.32534999999999
 20
151.56173200000001
 30
0.0
 40
2.5001220000000002
 50
90.007894999999991
 51
180.00790499999999
  0
LINE
  5
138
  8
0
  6
AIGENLINE001
 62
     7
 10
215.82499999999999
 20
151.56100000000001
 30
0.0
 11
215.82499999999999
 21
146.56100000000001
 31
0.0
  0
LINE
  5
139
  8
0
  6
AIGENLINE001
 62
     7
 10
217.898
 20
139.81200000000001
 30
0.0
 11
226.423
 21
139.81200000000001
 31
0.0
  0
LINE
  5
13A
  8
0
  6
AIGENLINE001
 62
     7
 10
218.32499999999999
 20
154.06200000000001
 30
0.0
 11
266.97000000000003
 21
154.06200000000001
 31
0.0
  0
LINE
  5
13B
  8
0
  6
AIGENLINE001
 62
     7
 10
215.82499999999999
 20
146.56100000000001
 30
0.0
 11
278.416
 21
146.56100000000001
 31
0.0
  0
LINE
  5
13C
  8
0
 62
     7
 10
238.803
 20
132.495
 30
0.0
 11
238.88800000000001
 21
131.928
 31
0.0
  0
LINE
  5
13D
  8
0
 62
     7
 10
241.77000000000001
 20
132.93700000000001
 30
0.0
 11
241.85400000000001
 21
132.369
 31
0.0
  0
LINE
  5
13E
  8
0
 62
     7
 10
238.15899999999999
 20
141.58000000000001
 30
0.0
 11
239.38499999999999
 21
133.34
 31
0.0
  0
LINE
  5
13F
  8
0
 62
     7
 10
239.74199999999999
 20
141.815
 30
0.0
 11
240.96799999999999
 21
133.57499999999999
 31
0.0
  0
LINE
  5
140
  8
0
  6
AIGENLINE003
 62
     7
 10
238.54400000000001
 20
144.43000000000001
 30
0.0
 11
240.55600000000001
 21
130.905
 31
0.0
  0
LINE
  5
141
  8
0
 62
     7
 10
247.70500000000001
 20
133.81999999999999
 30
0.0
 11
230.53800000000001
 21
131.26599999999999
 31
0.0
  0
LINE
  5
142
  8
0
 62
     7
 10
229.608
 20
131.63300000000001
 30
0.0
 11
223.68299999999999
 21
139.09200000000001
 31
0.0
  0
ARC
  5
143
  8
0
 62
     7
 10
230.40029100000001
 20
132.27760699999999
 30
0.0
 40
1.0214579999999991
 50
219.14593099999999
 51
277.764411
  0
LINE
  5
144
  8
0
 62
     7
 10
230.33600000000001
 20
131.994
 30
0.0
 11
224.411
 21
139.453
 31
0.0
  0
LINE
  5
145
  8
0
 62
     7
 10
223.48099999999999
 20
139.81999999999999
 30
0.0
 11
221.57900000000001
 21
139.53800000000001
 31
0.0
  0
ARC
  5
146
  8
0
 62
     7
 10
223.61928700000001
 20
138.80989099999999
 30
0.0
 40
1.0199599999999991
 50
39.101737
 51
97.79406400000002
  0
LINE
  5
147
  8
0
 62
     7
 10
223.68299999999999
 20
139.09200000000001
 30
0.0
 11
221.69
 21
138.79599999999999
 31
0.0
  0
LINE
  5
148
  8
0
 62
     7
 10
221.69
 20
138.79599999999999
 30
0.0
 11
221.57900000000001
 21
139.53800000000001
 31
0.0
  0
LINE
  5
149
  8
0
 62
     7
 10
247.595
 20
134.56100000000001
 30
0.0
 11
230.33600000000001
 21
131.994
 31
0.0
  0
LINE
  5
14A
  8
0
 62
     7
 10
247.70500000000001
 20
133.81999999999999
 30
0.0
 11
247.595
 21
134.56100000000001
 31
0.0
  0
LINE
  5
14B
  8
0
 62
     7
 10
227.22999999999999
 20
154.82499999999999
 30
0.0
 11
225.90799999999999
 21
154.06200000000001
 31
0.0
  0
LINE
  5
14C
  8
0
 62
     7
 10
225.90799999999999
 20
154.06200000000001
 30
0.0
 11
226.67099999999999
 21
155.38399999999999
 31
0.0
  0
LINE
  5
14D
  8
0
 62
     7
 10
226.67099999999999
 20
155.38399999999999
 30
0.0
 11
227.22999999999999
 21
154.82499999999999
 31
0.0
  0
LINE
  5
14E
  8
0
 62
     7
 10
231.41900000000001
 20
159.57300000000001
 30
0.0
 11
225.90799999999999
 21
154.06200000000001
 31
0.0
  0
LINE
  5
14F
  8
0
 62
     7
 10
245.79499999999999
 20
159.57300000000001
 30
0.0
 11
231.41900000000001
 21
159.57300000000001
 31
0.0
  0
LINE
  5
150
  8
0
 62
     7
 10
256.59100000000001
 20
108.258
 30
0.0
 11
214.67599999999999
 21
108.258
 31
0.0
  0
LINE
  5
151
  8
0
 62
     7
 10
-2.67944
 20
259.43599999999998
 30
0.0
 11
-2.67944
 21
258.68599999999998
 31
0.0
  0
ARC
  5
152
  8
0
 62
     7
 10
-3.1069539999999991
 20
258.69381600000003
 30
0.0
 40
0.4275770000000001
 50
292.34888799999999
 51
359.01268399999998
  0
ARC
  5
153
  8
0
 62
     7
 10
-3.1119720000000002
 20
259.42042700000002
 30
0.0
 40
0.432822
 50
2.0988560000000001
 51
87.924814999999995
  0
LINE
  5
154
  8
0
 62
     7
 10
-11.2964
 20
259.43599999999998
 30
0.0
 11
-11.2964
 21
258.68599999999998
 31
0.0
  0
ARC
  5
155
  8
0
 62
     7
 10
-10.868853
 20
258.69381600000003
 30
0.0
 40
0.4275770000000001
 50
180.987336
 51
247.65113199999999
  0
ARC
  5
156
  8
0
 62
     7
 10
-10.863835
 20
259.42042700000002
 30
0.0
 40
0.432822
 50
92.075147999999999
 51
177.90114199999999
  0
ARC
  5
157
  8
0
 62
     7
 10
-3.8084760000000002
 20
259.01115600000003
 30
0.0
 40
0.341593
 50
42.313597999999992
 51
89.468036999999995
  0
ARC
  5
158
  8
0
 62
     7
 10
-10.166987000000001
 20
259.01115600000003
 30
0.0
 40
0.341593
 50
90.531943999999996
 51
137.68638200000001
  0
LINE
  5
159
  8
0
 62
     7
 10
-10.8795
 20
259.85300000000001
 30
0.0
 11
-3.0962999999999989
 21
259.85300000000001
 31
0.0
  0
LINE
  5
15A
  8
0
 62
     7
 10
-10.170199999999999
 20
259.35300000000001
 30
0.0
 11
-3.805299999999999
 21
259.35300000000001
 31
0.0
  0
LINE
  5
15B
  8
0
 62
     7
 10
-3.5558800000000002
 20
259.24099999999999
 30
0.0
 11
-2.9202499999999989
 21
258.27100000000002
 31
0.0
  0
LINE
  5
15C
  8
0
 62
     7
 10
-11.056100000000001
 20
258.26999999999998
 30
0.0
 11
-10.419600000000001
 21
259.24099999999999
 31
0.0
  0
ARC
  5
15D
  8
0
 62
     7
 10
-5.624994
 20
242.21386000000001
 30
0.0
 40
0.172631
 50
254.00688
 51
340.02285699999999
  0
ARC
  5
15E
  8
0
 62
     7
 10
-5.7711319999999988
 20
242.262171
 30
0.0
 40
0.173592
 50
164.21446
 51
249.8137890000001
  0
LINE
  5
15F
  8
0
 62
     7
 10
-5.8310300000000002
 20
242.09899999999999
 30
0.0
 11
-5.6725599999999989
 21
242.048
 31
0.0
  0
ARC
  5
160
  8
0
 62
     7
 10
-5.0629140000000001
 20
243.945626
 30
0.0
 40
0.173424
 50
344.21671300000003
 51
69.849568000000005
  0
ARC
  5
161
  8
0
 62
     7
 10
-5.2089730000000003
 20
243.992999
 30
0.0
 40
0.173519
 50
74.172476000000003
 51
159.78117800000001
  0
LINE
  5
162
  8
0
 62
     7
 10
-5.161649999999999
 20
244.16
 30
0.0
 11
-5.003169999999999
 21
244.108
 31
0.0
  0
LINE
  5
163
  8
0
 62
     7
 10
-4.8960299999999997
 20
243.898
 30
0.0
 11
-5.4627499999999989
 21
242.155
 31
0.0
  0
LINE
  5
164
  8
0
 62
     7
 10
-5.3718000000000004
 20
244.053
 30
0.0
 11
-5.93818
 21
242.309
 31
0.0
  0
ARC
  5
165
  8
0
 62
     7
 10
-4.472836
 20
241.59972400000001
 30
0.0
 40
0.17285
 50
236.02456900000001
 51
322.046899
  0
ARC
  5
166
  8
0
 62
     7
 10
-4.5976109999999988
 20
241.690549
 30
0.0
 40
0.172872
 50
146.04128700000001
 51
231.96058300000001
  0
LINE
  5
167
  8
0
 62
     7
 10
-4.7041399999999989
 20
241.554
 30
0.0
 11
-4.5694299999999997
 21
241.45599999999999
 31
0.0
  0
ARC
  5
168
  8
0
 62
     7
 10
-3.4022959999999989
 20
243.07310699999999
 30
0.0
 40
0.172872
 50
326.04132399999997
 51
51.960546000000001
  0
ARC
  5
169
  8
0
 62
     7
 10
-3.527420999999999
 20
243.16474700000009
 30
0.0
 40
0.172178
 50
55.871234000000001
 51
142.143732
  0
LINE
  5
16A
  8
0
 62
     7
 10
-3.4308199999999989
 20
243.30699999999999
 30
0.0
 11
-3.2957699999999992
 21
243.209
 31
0.0
  0
LINE
  5
16B
  8
0
 62
     7
 10
-3.2589099999999989
 20
242.977
 30
0.0
 11
-4.3365400000000003
 21
241.49299999999999
 31
0.0
  0
LINE
  5
16C
  8
0
 62
     7
 10
-3.6633699999999991
 20
243.27000000000001
 30
0.0
 11
-4.7409999999999997
 21
241.78700000000001
 31
0.0
  0
ARC
  5
16D
  8
0
 62
     7
 10
-3.566621
 20
240.660483
 30
0.0
 40
0.173585
 50
218.226417
 51
303.78483
  0
ARC
  5
16E
  8
0
 62
     7
 10
-3.6575849999999992
 20
240.784539
 30
0.0
 40
0.172764
 50
128.005788
 51
213.99234300000001
  0
LINE
  5
16F
  8
0
 62
     7
 10
-3.8008299999999999
 20
240.68799999999999
 30
0.0
 11
-3.7029800000000002
 21
240.553
 31
0.0
  0
ARC
  5
170
  8
0
 62
     7
 10
-2.0933489999999999
 20
241.729972
 30
0.0
 40
0.172764
 50
308.00582500000002
 51
33.992305999999999
  0
ARC
  5
171
  8
0
 62
     7
 10
-2.1843129999999991
 20
241.854028
 30
0.0
 40
0.173585
 50
38.226398000000003
 51
123.78480999999999
  0
LINE
  5
172
  8
0
 62
     7
 10
-2.0479500000000002
 20
241.96100000000001
 30
0.0
 11
-1.9501099999999989
 21
241.827
 31
0.0
  0
LINE
  5
173
  8
0
 62
     7
 10
-1.9869699999999999
 20
241.59399999999999
 30
0.0
 11
-3.4700899999999999
 21
240.51599999999999
 31
0.0
  0
LINE
  5
174
  8
0
 62
     7
 10
-2.2808399999999991
 20
241.99799999999999
 30
0.0
 11
-3.7639599999999991
 21
240.92099999999999
 31
0.0
  0
ARC
  5
175
  8
0
 62
     7
 10
-2.9949899999999992
 20
239.48643999999999
 30
0.0
 40
0.173761
 50
200.29290700000001
 51
285.75343900000001
  0
ARC
  5
176
  8
0
 62
     7
 10
-3.0439999999999992
 20
239.63272699999999
 30
0.0
 40
0.172148
 50
109.866195
 51
196.21679399999991
  0
LINE
  5
177
  8
0
 62
     7
 10
-3.2092999999999989
 20
239.584
 30
0.0
 11
-3.1579700000000002
 21
239.42599999999999
 31
0.0
  0
ARC
  5
178
  8
0
 62
     7
 10
-1.2627129999999991
 20
240.04760400000001
 30
0.0
 40
0.172089
 50
289.86355500000002
 51
16.181424
  0
ARC
  5
179
  8
0
 62
     7
 10
-1.3117509999999999
 20
240.19394600000001
 30
0.0
 40
0.173761
 50
20.292887
 51
105.75341899999999
  0
LINE
  5
17A
  8
0
 62
     7
 10
-1.1487700000000001
 20
240.25399999999999
 30
0.0
 11
-1.0974399999999991
 21
240.096
 31
0.0
  0
LINE
  5
17B
  8
0
 62
     7
 10
-1.2042399999999991
 20
239.886
 30
0.0
 11
-2.94781
 21
239.31899999999999
 31
0.0
  0
LINE
  5
17C
  8
0
 62
     7
 10
-1.3589299999999991
 20
240.36099999999999
 30
0.0
 11
-3.1025
 21
239.79499999999999
 31
0.0
  0
ARC
  5
17D
  8
0
 62
     7
 10
-2.815976
 20
238.191159
 30
0.0
 40
0.171882
 50
181.7420699999999
 51
268.19867799999997
  0
ARC
  5
17E
  8
0
 62
     7
 10
-2.8144139999999989
 20
238.34589199999999
 30
0.0
 40
0.173496
 50
92.300595999999985
 51
177.758656
  0
LINE
  5
17F
  8
0
 62
     7
 10
-2.988119999999999
 20
238.35300000000001
 30
0.0
 11
-2.987779999999999
 21
238.18600000000001
 31
0.0
  0
ARC
  5
180
  8
0
 62
     7
 10
-0.9948440000000001
 20
238.19307000000001
 30
0.0
 40
0.173847
 50
272.29343
 51
357.64735899999999
  0
ARC
  5
181
  8
0
 62
     7
 10
-0.994856
 20
238.345708
 30
0.0
 40
0.173852
 50
2.2973419999999991
 51
87.702647999999996
  0
LINE
  5
182
  8
0
 62
     7
 10
-0.8211440000000001
 20
238.35300000000001
 30
0.0
 11
-0.8211440000000001
 21
238.18600000000001
 31
0.0
  0
LINE
  5
183
  8
0
 62
     7
 10
-0.987887
 20
238.01900000000001
 30
0.0
 11
-2.8213799999999991
 21
238.01900000000001
 31
0.0
  0
LINE
  5
184
  8
0
 62
     7
 10
-0.987887
 20
238.51900000000001
 30
0.0
 11
-2.8213799999999991
 21
238.51900000000001
 31
0.0
  0
ARC
  5
185
  8
0
 62
     7
 10
-3.0439999999999992
 20
236.90588299999999
 30
0.0
 40
0.172148
 50
163.78320600000001
 51
250.133805
  0
ARC
  5
186
  8
0
 62
     7
 10
-2.9948419999999989
 20
237.05187900000001
 30
0.0
 40
0.174003
 50
74.319917000000004
 51
159.633737
  0
LINE
  5
187
  8
0
 62
     7
 10
-3.1579700000000002
 20
237.11199999999999
 30
0.0
 11
-3.2092999999999989
 21
236.95400000000001
 31
0.0
  0
ARC
  5
188
  8
0
 62
     7
 10
-1.3117509999999999
 20
236.34466499999999
 30
0.0
 40
0.173761
 50
254.24658099999999
 51
339.70711299999999
  0
ARC
  5
189
  8
0
 62
     7
 10
-1.262769
 20
236.49107100000001
 30
0.0
 40
0.172208
 50
343.74795699999999
 51
70.131093000000007
  0
LINE
  5
18A
  8
0
 62
     7
 10
-1.0974399999999991
 20
236.44300000000001
 30
0.0
 11
-1.1487700000000001
 21
236.28399999999999
 31
0.0
  0
LINE
  5
18B
  8
0
 62
     7
 10
-1.3589299999999991
 20
236.17699999999999
 30
0.0
 11
-3.1025
 21
236.744
 31
0.0
  0
LINE
  5
18C
  8
0
 62
     7
 10
-1.2042399999999991
 20
236.65299999999999
 30
0.0
 11
-2.94781
 21
237.21899999999999
 31
0.0
  0
ARC
  5
18D
  8
0
 62
     7
 10
-3.6575849999999992
 20
235.75407200000001
 30
0.0
 40
0.172764
 50
146.00765699999999
 51
231.994212
  0
ARC
  5
18E
  8
0
 62
     7
 10
-3.566621
 20
235.878128
 30
0.0
 40
0.173585
 50
56.215170000000001
 51
141.773583
  0
LINE
  5
18F
  8
0
 62
     7
 10
-3.7029800000000002
 20
235.98599999999999
 30
0.0
 11
-3.8008299999999999
 21
235.851
 31
0.0
  0
ARC
  5
190
  8
0
 62
     7
 10
-2.1843129999999991
 20
234.684583
 30
0.0
 40
0.173585
 50
236.21519000000001
 51
321.77360199999998
  0
ARC
  5
191
  8
0
 62
     7
 10
-2.093024999999999
 20
234.80869000000001
 30
0.0
 40
0.172523
 50
325.93328700000001
 51
52.068582999999997
  0
LINE
  5
192
  8
0
 62
     7
 10
-1.9501099999999989
 20
234.71199999999999
 30
0.0
 11
-2.0479500000000002
 21
234.577
 31
0.0
  0
LINE
  5
193
  8
0
 62
     7
 10
-2.2808399999999991
 20
234.53999999999999
 30
0.0
 11
-3.7639599999999991
 21
235.61799999999999
 31
0.0
  0
LINE
  5
194
  8
0
 62
     7
 10
-1.9869699999999999
 20
234.94499999999999
 30
0.0
 11
-3.4700899999999999
 21
236.02199999999999
 31
0.0
  0
ARC
  5
195
  8
0
 62
     7
 10
-4.5976109999999988
 20
234.848062
 30
0.0
 40
0.172872
 50
128.03941699999999
 51
213.95871299999999
  0
ARC
  5
196
  8
0
 62
     7
 10
-4.472836
 20
234.93888699999999
 30
0.0
 40
0.17285
 50
37.953100999999997
 51
123.975431
  0
LINE
  5
197
  8
0
 62
     7
 10
-4.5694299999999997
 20
235.08199999999999
 30
0.0
 11
-4.7041399999999989
 21
234.98400000000001
 31
0.0
  0
ARC
  5
198
  8
0
 62
     7
 10
-3.5272349999999988
 20
233.37454199999999
 30
0.0
 40
0.172636
 50
217.95095800000001
 51
303.95128399999999
  0
ARC
  5
199
  8
0
 62
     7
 10
-3.4022959999999989
 20
233.46550400000001
 30
0.0
 40
0.172872
 50
308.03945399999998
 51
33.958676000000011
  0
LINE
  5
19A
  8
0
 62
     7
 10
-3.2957699999999992
 20
233.32900000000001
 30
0.0
 11
-3.4308199999999989
 21
233.23099999999999
 31
0.0
  0
LINE
  5
19B
  8
0
 62
     7
 10
-3.6633699999999991
 20
233.268
 30
0.0
 11
-4.7409999999999997
 21
234.751
 31
0.0
  0
LINE
  5
19C
  8
0
 62
     7
 10
-3.2589099999999989
 20
233.56200000000001
 30
0.0
 11
-4.3365400000000003
 21
235.04499999999999
 31
0.0
  0
ARC
  5
19D
  8
0
 62
     7
 10
-5.7722360000000004
 20
234.27687
 30
0.0
 40
0.172647
 50
109.911248
 51
196.022471
  0
ARC
  5
19E
  8
0
 62
     7
 10
-5.625151999999999
 20
234.32470900000001
 30
0.0
 40
0.172794
 50
19.972448
 51
105.923168
  0
LINE
  5
19F
  8
0
 62
     7
 10
-5.6729000000000003
 20
234.49100000000001
 30
0.0
 11
-5.8310300000000002
 21
234.43899999999999
 31
0.0
  0
ARC
  5
1A0
  8
0
 62
     7
 10
-5.209052999999999
 20
232.544836
 30
0.0
 40
0.172794
 50
199.97246799999991
 51
285.92318799999998
  0
ARC
  5
1A1
  8
0
 62
     7
 10
-5.0619690000000004
 20
232.59250299999999
 30
0.0
 40
0.172647
 50
289.91128500000008
 51
16.022434000000001
  0
LINE
  5
1A2
  8
0
 62
     7
 10
-5.003169999999999
 20
232.43000000000001
 30
0.0
 11
-5.161649999999999
 21
232.37899999999999
 31
0.0
  0
LINE
  5
1A3
  8
0
 62
     7
 10
-5.3714500000000003
 20
232.48599999999999
 30
0.0
 11
-5.93818
 21
234.22900000000001
 31
0.0
  0
LINE
  5
1A4
  8
0
 62
     7
 10
-4.8960299999999997
 20
232.63999999999999
 30
0.0
 11
-5.4627499999999989
 21
234.38399999999999
 31
0.0
  0
ARC
  5
1A5
  8
0
 62
     7
 10
-7.0652669999999986
 20
234.09642199999999
 30
0.0
 40
0.172863
 50
91.991851999999994
 51
177.94889699999999
  0
ARC
  5
1A6
  8
0
 62
     7
 10
-6.9112649999999993
 20
234.09605400000001
 30
0.0
 40
0.173257
 50
2.168069
 51
87.772638999999984
  0
LINE
  5
1A7
  8
0
 62
     7
 10
-6.9048800000000004
 20
234.26900000000001
 30
0.0
 11
-7.0712799999999998
 21
234.26900000000001
 31
0.0
  0
ARC
  5
1A8
  8
0
 62
     7
 10
-7.0650929999999992
 20
232.27547100000001
 30
0.0
 40
0.173036
 50
182.04746499999999
 51
267.95256499999999
  0
ARC
  5
1A9
  8
0
 62
     7
 10
-6.9111060000000002
 20
232.27586400000001
 30
0.0
 40
0.173443
 50
272.17236100000002
 51
357.82764900000001
  0
LINE
  5
1AA
  8
0
 62
     7
 10
-6.9048800000000004
 20
232.10300000000001
 30
0.0
 11
-7.0712799999999998
 21
232.10300000000001
 31
0.0
  0
LINE
  5
1AB
  8
0
 62
     7
 10
-7.2380199999999988
 20
232.26900000000001
 30
0.0
 11
-7.2380199999999988
 21
234.10300000000001
 31
0.0
  0
LINE
  5
1AC
  8
0
 62
     7
 10
-6.7377899999999986
 20
232.26900000000001
 30
0.0
 11
-6.7381299999999991
 21
234.10300000000001
 31
0.0
  0
ARC
  5
1AD
  8
0
 62
     7
 10
-8.3505749999999992
 20
234.32376099999999
 30
0.0
 40
0.173519
 50
74.172476000000003
 51
159.78117800000001
  0
ARC
  5
1AE
  8
0
 62
     7
 10
-8.2039990000000014
 20
234.27692400000001
 30
0.0
 40
0.172742
 50
343.96773400000001
 51
69.949276999999995
  0
LINE
  5
1AF
  8
0
 62
     7
 10
-8.1447699999999994
 20
234.43899999999999
 30
0.0
 11
-8.3032500000000002
 21
234.49100000000001
 31
0.0
  0
ARC
  5
1B0
  8
0
 62
     7
 10
-8.9137550000000001
 20
232.59244799999999
 30
0.0
 40
0.172742
 50
163.96769699999999
 51
249.94931399999999
  0
ARC
  5
1B1
  8
0
 62
     7
 10
-8.7665970000000009
 20
232.54462100000001
 30
0.0
 40
0.172631
 50
254.00688
 51
340.02285699999999
  0
LINE
  5
1B2
  8
0
 62
     7
 10
-8.8145000000000007
 20
232.37899999999999
 30
0.0
 11
-8.9729799999999997
 21
232.43000000000001
 31
0.0
  0
LINE
  5
1B3
  8
0
 62
     7
 10
-9.0797799999999995
 20
232.63999999999999
 30
0.0
 11
-8.5134000000000007
 21
234.38399999999999
 31
0.0
  0
LINE
  5
1B4
  8
0
 62
     7
 10
-8.6043500000000002
 20
232.48599999999999
 30
0.0
 11
-8.037980000000001
 21
234.22900000000001
 31
0.0
  0
ARC
  5
1B5
  8
0
 62
     7
 10
-9.5032529999999991
 20
234.939267
 30
0.0
 40
0.1725
 50
55.971218000000007
 51
142.04374799999999
  0
ARC
  5
1B6
  8
0
 62
     7
 10
-9.3783149999999988
 20
234.847972
 30
0.0
 40
0.173017
 50
326.04071499999998
 51
51.948056999999991
  0
LINE
  5
1B7
  8
0
 62
     7
 10
-9.2716700000000003
 20
234.98400000000001
 30
0.0
 11
-9.4063800000000004
 21
235.08199999999999
 31
0.0
  0
ARC
  5
1B8
  8
0
 62
     7
 10
-10.573511
 20
233.46550400000001
 30
0.0
 40
0.172872
 50
146.04128700000001
 51
231.96058300000001
  0
ARC
  5
1B9
  8
0
 62
     7
 10
-10.448619000000001
 20
233.37443500000001
 30
0.0
 40
0.172714
 50
235.947183
 51
322.04160899999999
  0
LINE
  5
1BA
  8
0
 62
     7
 10
-10.545299999999999
 20
233.23099999999999
 30
0.0
 11
-10.68
 21
233.32900000000001
 31
0.0
  0
LINE
  5
1BB
  8
0
 62
     7
 10
-10.716900000000001
 20
233.56200000000001
 30
0.0
 11
-9.6392699999999998
 21
235.04499999999999
 31
0.0
  0
LINE
  5
1BC
  8
0
 62
     7
 10
-10.3124
 20
233.268
 30
0.0
 11
-9.2348100000000013
 21
234.751
 31
0.0
  0
ARC
  5
1BD
  8
0
 62
     7
 10
-10.40935
 20
235.878366
 30
0.0
 40
0.173296
 50
38.201388999999999
 51
123.78360499999999
  0
ARC
  5
1BE
  8
0
 62
     7
 10
-10.318222
 20
235.75407200000001
 30
0.0
 40
0.172764
 50
308.00582500000002
 51
33.992305999999999
  0
LINE
  5
1BF
  8
0
 62
     7
 10
-10.175000000000001
 20
235.851
 30
0.0
 11
-10.273199999999999
 21
235.98599999999999
 31
0.0
  0
ARC
  5
1C0
  8
0
 62
     7
 10
-11.882802999999999
 20
234.808639
 30
0.0
 40
0.172764
 50
128.005788
 51
213.99234300000001
  0
ARC
  5
1C1
  8
0
 62
     7
 10
-11.791674
 20
234.68434400000001
 30
0.0
 40
0.173296
 50
218.20140900000001
 51
303.78362499999997
  0
LINE
  5
1C2
  8
0
 62
     7
 10
-11.927899999999999
 20
234.577
 30
0.0
 11
-12.026
 21
234.71199999999999
 31
0.0
  0
LINE
  5
1C3
  8
0
 62
     7
 10
-11.9892
 20
234.94499999999999
 30
0.0
 11
-10.505699999999999
 21
236.02199999999999
 31
0.0
  0
LINE
  5
1C4
  8
0
 62
     7
 10
-11.6953
 20
234.53999999999999
 30
0.0
 11
-10.2118
 21
235.61799999999999
 31
0.0
  0
ARC
  5
1C5
  8
0
 62
     7
 10
-10.980817
 20
237.05217099999999
 30
0.0
 40
0.173761
 50
20.292887
 51
105.75341899999999
  0
ARC
  5
1C6
  8
0
 62
     7
 10
-10.932079999999999
 20
236.90611899999999
 30
0.0
 40
0.172345
 50
289.81738899999999
 51
16.116330000000001
  0
LINE
  5
1C7
  8
0
 62
     7
 10
-10.766500000000001
 20
236.95400000000001
 30
0.0
 11
-10.8178
 21
237.11199999999999
 31
0.0
  0
ARC
  5
1C8
  8
0
 62
     7
 10
-12.711111000000001
 20
236.489856
 30
0.0
 40
0.174012
 50
110.329576
 51
195.60414299999999
  0
ARC
  5
1C9
  8
0
 62
     7
 10
-12.664296999999999
 20
236.34434500000009
 30
0.0
 40
0.173425
 50
200.22128000000001
 51
285.74902300000002
  0
LINE
  5
1CA
  8
0
 62
     7
 10
-12.827
 20
236.28399999999999
 30
0.0
 11
-12.8787
 21
236.44300000000001
 31
0.0
  0
LINE
  5
1CB
  8
0
 62
     7
 10
-12.771599999999999
 20
236.65299999999999
 30
0.0
 11
-11.028
 21
237.21899999999999
 31
0.0
  0
LINE
  5
1CC
  8
0
 62
     7
 10
-12.6172
 20
236.17699999999999
 30
0.0
 11
-10.873699999999999
 21
236.744
 31
0.0
  0
ARC
  5
1CD
  8
0
 62
     7
 10
-11.16173
 20
238.345541
 30
0.0
 40
0.173847
 50
2.3526410000000002
 51
87.706569999999985
  0
ARC
  5
1CE
  8
0
 62
     7
 10
-11.16173
 20
238.19307000000001
 30
0.0
 40
0.173847
 50
272.29343
 51
357.64735899999999
  0
LINE
  5
1CF
  8
0
 62
     7
 10
-10.988
 20
238.18600000000001
 30
0.0
 11
-10.988
 21
238.35300000000001
 31
0.0
  0
ARC
  5
1D0
  8
0
 62
     7
 10
-12.980976
 20
238.34555399999999
 30
0.0
 40
0.173834
 50
92.289311999999995
 51
177.65143800000001
  0
ARC
  5
1D1
  8
0
 62
     7
 10
-12.980950999999999
 20
238.192903
 30
0.0
 40
0.173852
 50
182.29736199999999
 51
267.70266800000002
  0
LINE
  5
1D2
  8
0
 62
     7
 10
-13.1547
 20
238.18600000000001
 30
0.0
 11
-13.1547
 21
238.35300000000001
 31
0.0
  0
LINE
  5
1D3
  8
0
 62
     7
 10
-12.9879
 20
238.51900000000001
 30
0.0
 11
-11.1548
 21
238.51900000000001
 31
0.0
  0
LINE
  5
1D4
  8
0
 62
     7
 10
-12.9879
 20
238.01900000000001
 30
0.0
 11
-11.1548
 21
238.01900000000001
 31
0.0
  0
ARC
  5
1D5
  8
0
 62
     7
 10
-10.932079999999999
 20
239.63249200000001
 30
0.0
 40
0.172345
 50
343.88367
 51
70.182610999999994
  0
ARC
  5
1D6
  8
0
 62
     7
 10
-10.980817
 20
239.486267
 30
0.0
 40
0.173761
 50
254.24658099999999
 51
339.70711299999999
  0
LINE
  5
1D7
  8
0
 62
     7
 10
-10.8178
 20
239.42599999999999
 30
0.0
 11
-10.766500000000001
 21
239.58500000000001
 31
0.0
  0
ARC
  5
1D8
  8
0
 62
     7
 10
-12.664296999999999
 20
240.194266
 30
0.0
 40
0.173425
 50
74.250977000000006
 51
159.77871999999999
  0
ARC
  5
1D9
  8
0
 62
     7
 10
-12.712982999999999
 20
240.0478
 30
0.0
 40
0.172472
 50
163.92301900000001
 51
250.14326199999999
  0
LINE
  5
1DA
  8
0
 62
     7
 10
-12.8787
 20
240.096
 30
0.0
 11
-12.827
 21
240.25399999999999
 31
0.0
  0
LINE
  5
1DB
  8
0
 62
     7
 10
-12.6172
 20
240.36099999999999
 30
0.0
 11
-10.873699999999999
 21
239.79499999999999
 31
0.0
  0
LINE
  5
1DC
  8
0
 62
     7
 10
-12.771599999999999
 20
239.886
 30
0.0
 11
-11.028
 21
239.31899999999999
 31
0.0
  0
ARC
  5
1DD
  8
0
 62
     7
 10
-10.318222
 20
240.784539
 30
0.0
 40
0.172764
 50
326.00769400000001
 51
51.994174999999998
  0
ARC
  5
1DE
  8
0
 62
     7
 10
-10.40935
 20
240.66024400000001
 30
0.0
 40
0.173296
 50
236.21639500000001
 51
321.79861099999999
  0
LINE
  5
1DF
  8
0
 62
     7
 10
-10.273199999999999
 20
240.553
 30
0.0
 11
-10.175000000000001
 21
240.68799999999999
 31
0.0
  0
ARC
  5
1E0
  8
0
 62
     7
 10
-11.791674
 20
241.85426699999999
 30
0.0
 40
0.173296
 50
56.216374999999999
 51
141.79859099999999
  0
ARC
  5
1E1
  8
0
 62
     7
 10
-11.882802999999999
 20
241.729972
 30
0.0
 40
0.172764
 50
146.00765699999999
 51
231.994212
  0
LINE
  5
1E2
  8
0
 62
     7
 10
-12.026
 20
241.827
 30
0.0
 11
-11.927899999999999
 21
241.96100000000001
 31
0.0
  0
LINE
  5
1E3
  8
0
 62
     7
 10
-11.6953
 20
241.99799999999999
 30
0.0
 11
-10.2118
 21
240.92099999999999
 31
0.0
  0
LINE
  5
1E4
  8
0
 62
     7
 10
-11.9892
 20
241.59399999999999
 30
0.0
 11
-10.505699999999999
 21
240.51599999999999
 31
0.0
  0
ARC
  5
1E5
  8
0
 62
     7
 10
-9.3781960000000009
 20
241.690549
 30
0.0
 40
0.172872
 50
308.03945399999998
 51
33.958676000000011
  0
ARC
  5
1E6
  8
0
 62
     7
 10
-9.5032529999999991
 20
241.599344
 30
0.0
 40
0.1725
 50
217.95625200000001
 51
304.02878199999998
  0
LINE
  5
1E7
  8
0
 62
     7
 10
-9.4063800000000004
 20
241.45599999999999
 30
0.0
 11
-9.2716700000000003
 21
241.554
 31
0.0
  0
ARC
  5
1E8
  8
0
 62
     7
 10
-10.448619000000001
 20
243.164175
 30
0.0
 40
0.172714
 50
37.958390999999999
 51
124.052817
  0
ARC
  5
1E9
  8
0
 62
     7
 10
-10.573511
 20
243.07310699999999
 30
0.0
 40
0.172872
 50
128.03941699999999
 51
213.95871299999999
  0
LINE
  5
1EA
  8
0
 62
     7
 10
-10.68
 20
243.209
 30
0.0
 11
-10.545299999999999
 21
243.30699999999999
 31
0.0
  0
LINE
  5
1EB
  8
0
 62
     7
 10
-10.3124
 20
243.27000000000001
 30
0.0
 11
-9.2348100000000013
 21
241.78700000000001
 31
0.0
  0
LINE
  5
1EC
  8
0
 62
     7
 10
-10.716900000000001
 20
242.977
 30
0.0
 11
-9.6392699999999998
 21
241.49299999999999
 31
0.0
  0
ARC
  5
1ED
  8
0
 62
     7
 10
-8.2039990000000014
 20
242.26151400000001
 30
0.0
 40
0.172742
 50
290.050723
 51
16.032266
  0
ARC
  5
1EE
  8
0
 62
     7
 10
-8.3504159999999992
 20
242.21489399999999
 30
0.0
 40
0.173683
 50
200.214178
 51
285.75759399999998
  0
LINE
  5
1EF
  8
0
 62
     7
 10
-8.3032500000000002
 20
242.048
 30
0.0
 11
-8.1447699999999994
 21
242.09899999999999
 31
0.0
  0
ARC
  5
1F0
  8
0
 62
     7
 10
-8.7670729999999981
 20
243.993055
 30
0.0
 40
0.1734
 50
20.213536999999999
 51
105.756726
  0
ARC
  5
1F1
  8
0
 62
     7
 10
-8.9137550000000001
 20
243.94616300000001
 30
0.0
 40
0.172742
 50
110.050686
 51
196.0323029999999
  0
LINE
  5
1F2
  8
0
 62
     7
 10
-8.9729799999999997
 20
244.108
 30
0.0
 11
-8.8145000000000007
 21
244.16
 31
0.0
  0
LINE
  5
1F3
  8
0
 62
     7
 10
-8.6043500000000002
 20
244.053
 30
0.0
 11
-8.037980000000001
 21
242.309
 31
0.0
  0
LINE
  5
1F4
  8
0
 62
     7
 10
-9.0797799999999995
 20
243.898
 30
0.0
 11
-8.5134000000000007
 21
242.155
 31
0.0
  0
ARC
  5
1F5
  8
0
 62
     7
 10
-6.9114399999999989
 20
242.442553
 30
0.0
 40
0.173431
 50
272.28297500000002
 51
357.8355370000001
  0
ARC
  5
1F6
  8
0
 62
     7
 10
-7.0650929999999992
 20
242.44218499999999
 30
0.0
 40
0.173036
 50
182.04746499999999
 51
267.95256499999999
  0
LINE
  5
1F7
  8
0
 62
     7
 10
-7.0712799999999998
 20
242.26900000000001
 30
0.0
 11
-6.9045300000000003
 21
242.26900000000001
 31
0.0
  0
ARC
  5
1F8
  8
0
 62
     7
 10
-6.9114399999999989
 20
244.26277099999999
 30
0.0
 40
0.173431
 50
2.164463
 51
87.717025000000007
  0
ARC
  5
1F9
  8
0
 62
     7
 10
-7.0650929999999992
 20
244.26313999999999
 30
0.0
 40
0.173036
 50
92.047434999999993
 51
177.95253500000001
  0
LINE
  5
1FA
  8
0
 62
     7
 10
-7.0712799999999998
 20
244.43600000000001
 30
0.0
 11
-6.9045300000000003
 21
244.43600000000001
 31
0.0
  0
LINE
  5
1FB
  8
0
 62
     7
 10
-6.7381299999999991
 20
244.26900000000001
 30
0.0
 11
-6.7381299999999991
 21
242.43600000000001
 31
0.0
  0
LINE
  5
1FC
  8
0
 62
     7
 10
-7.2380199999999988
 20
244.26900000000001
 30
0.0
 11
-7.2380199999999988
 21
242.43600000000001
 31
0.0
  0
LINE
  5
1FD
  8
0
  6
AIGENLINE001
 62
     7
 10
-4.9876699999999987
 20
237.26900000000001
 30
0.0
 11
-7.9876800000000001
 21
237.26900000000001
 31
0.0
  0
LINE
  5
1FE
  8
0
  6
AIGENLINE001
 62
     7
 10
-7.9876800000000001
 20
237.26900000000001
 30
0.0
 11
-7.9876800000000001
 21
238.26900000000001
 31
0.0
  0
LINE
  5
1FF
  8
0
  6
AIGENLINE001
 62
     7
 10
-7.9876800000000001
 20
238.26900000000001
 30
0.0
 11
-4.9876699999999987
 21
238.26900000000001
 31
0.0
  0
LINE
  5
200
  8
0
  6
AIGENLINE001
 62
     7
 10
-4.9876699999999987
 20
238.26900000000001
 30
0.0
 11
-4.9876699999999987
 21
237.26900000000001
 31
0.0
  0
ARC
  5
201
  8
0
 62
     7
 10
-6.9879910000000001
 20
238.269565
 30
0.0
 40
7.0002209999999998
 50
270.00072499999999
 51
0.000695
  0
ARC
  5
202
  8
0
 62
     7
 10
-6.987819
 20
238.26956300000001
 30
0.0
 40
7.0002190000000004
 50
179.99926500000001
 51
269.99931500000002
  0
ARC
  5
203
  8
0
 62
     7
 10
-6.9880750000000003
 20
238.269476
 30
0.0
 40
6.9999630000000002
 50
89.998589999999993
 51
179.99856
  0
ARC
  5
204
  8
0
 62
     7
 10
-6.9877330000000004
 20
238.269476
 30
0.0
 40
6.9999630000000002
 50
0.00142
 51
90.001390000000001
  0
ARC
  5
205
  8
0
 62
     7
 10
-6.987989999999999
 20
238.26939200000001
 30
0.0
 40
3.1668379999999998
 50
270.00157799999999
 51
0.001548
  0
ARC
  5
206
  8
0
 62
     7
 10
-6.9878179999999981
 20
238.26939100000001
 30
0.0
 40
3.1668369999999988
 50
179.998412
 51
269.99846200000002
  0
ARC
  5
207
  8
0
 62
     7
 10
-6.9879889999999989
 20
238.26939100000001
 30
0.0
 40
3.1666660000000002
 50
89.998441999999997
 51
179.998412
  0
ARC
  5
208
  8
0
 62
     7
 10
-6.9878179999999981
 20
238.26939100000001
 30
0.0
 40
3.1666660000000002
 50
0.001568
 51
90.001537999999996
  0
ARC
  5
209
  8
0
  6
AIGENLINE002
 62
     7
 10
139.71940000000001
 20
237.284605
 30
0.0
 40
3.666725
 50
270.00136600000002
 51
0.001336
  0
ARC
  5
20A
  8
0
  6
AIGENLINE002
 62
     7
 10
139.719572
 20
237.284604
 30
0.0
 40
3.666723999999999
 50
179.99862400000001
 51
269.99867399999999
  0
ARC
  5
20B
  8
0
  6
AIGENLINE002
 62
     7
 10
139.719401
 20
237.284604
 30
0.0
 40
3.6665529999999991
 50
89.998654000000002
 51
179.99862400000001
  0
ARC
  5
20C
  8
0
  6
AIGENLINE002
 62
     7
 10
139.719572
 20
237.284604
 30
0.0
 40
3.6665529999999991
 50
0.001356
 51
90.00132600000002
  0
LINE
  5
20D
  8
0
  6
AIGENLINE003
 62
     7
 10
139.71899999999999
 20
209.53399999999999
 30
0.0
 11
139.71899999999999
 21
247.535
 31
0.0
  0
LINE
  5
20E
  8
0
 62
     7
 10
67.579400000000007
 20
134.24799999999999
 30
0.0
 11
58.729599999999991
 21
134.24799999999999
 31
0.0
  0
LINE
  5
20F
  8
0
 62
     7
 10
56.013999999999989
 20
132.37
 30
0.0
 11
54.870199999999997
 21
130.38800000000001
 31
0.0
  0
LINE
  5
210
  8
0
 62
     7
 10
54.870199999999997
 20
130.38800000000001
 30
0.0
 11
56.85179999999999
 21
131.53299999999999
 31
0.0
  0
LINE
  5
211
  8
0
 62
     7
 10
56.85179999999999
 20
131.53299999999999
 30
0.0
 11
56.013999999999989
 21
132.37
 31
0.0
  0
LINE
  5
212
  8
0
 62
     7
 10
58.729599999999991
 20
134.24799999999999
 30
0.0
 11
54.870199999999997
 21
130.38800000000001
 31
0.0
  0
LINE
  5
213
  8
0
  6
AIGENLINE001
 62
     7
 10
-6.9875600000000002
 20
121.221
 30
0.0
 11
-11.154400000000001
 21
121.221
 31
0.0
  0
LINE
  5
214
  8
0
  6
AIGENLINE001
 62
     7
 10
-11.154400000000001
 20
121.221
 30
0.0
 11
-11.1541
 21
121.221
 31
0.0
  0
ARC
  5
215
  8
0
  6
AIGENLINE001
 62
     7
 10
-11.115468
 20
122.26002099999999
 30
0.0
 40
1.0394639999999991
 50
182.14876799999999
 51
267.87100199999998
  0
LINE
  5
216
  8
0
  6
AIGENLINE001
 62
     7
 10
-12.154199999999999
 20
122.221
 30
0.0
 11
-12.154199999999999
 21
124.55500000000001
 31
0.0
  0
ARC
  5
217
  8
0
  6
AIGENLINE001
 62
     7
 10
-11.11618
 20
124.516508
 30
0.0
 40
1.038726
 50
92.091222999999999
 51
177.88900699999999
  0
LINE
  5
218
  8
0
  6
AIGENLINE001
 62
     7
 10
-11.1541
 20
125.55500000000001
 30
0.0
 11
-11.154400000000001
 21
125.55500000000001
 31
0.0
  0
LINE
  5
219
  8
0
  6
AIGENLINE001
 62
     7
 10
-11.154400000000001
 20
125.55500000000001
 30
0.0
 11
-6.9875600000000002
 21
125.55500000000001
 31
0.0
  0
LINE
  5
21A
  8
0
  6
AIGENLINE001
 62
     7
 10
-6.9875600000000002
 20
125.55500000000001
 30
0.0
 11
-2.8206899999999999
 21
125.55500000000001
 31
0.0
  0
ARC
  5
21B
  8
0
  6
AIGENLINE001
 62
     7
 10
-2.859313999999999
 20
124.51614499999999
 30
0.0
 40
1.039115999999999
 50
2.1302140000000001
 51
87.869776000000002
  0
LINE
  5
21C
  8
0
  6
AIGENLINE001
 62
     7
 10
-1.8209200000000001
 20
124.55500000000001
 30
0.0
 11
-1.8209200000000001
 21
122.221
 31
0.0
  0
ARC
  5
21D
  8
0
  6
AIGENLINE001
 62
     7
 10
-2.8589269999999991
 20
122.25928500000001
 30
0.0
 40
1.0387150000000001
 50
272.10968100000002
 51
357.89032900000001
  0
LINE
  5
21E
  8
0
  6
AIGENLINE001
 62
     7
 10
-2.8206899999999999
 20
121.221
 30
0.0
 11
-6.9875600000000002
 21
121.221
 31
0.0
  0
LINE
  5
21F
  8
0
 62
     7
 10
152.48599999999999
 20
243.82499999999999
 30
0.0
 11
151.89400000000001
 21
246.035
 31
0.0
  0
LINE
  5
220
  8
0
 62
     7
 10
151.89400000000001
 20
246.035
 30
0.0
 11
151.30199999999999
 21
243.82499999999999
 31
0.0
  0
LINE
  5
221
  8
0
 62
     7
 10
151.30199999999999
 20
243.82499999999999
 30
0.0
 11
152.48599999999999
 21
243.82499999999999
 31
0.0
  0
LINE
  5
222
  8
0
 62
     7
 10
151.30199999999999
 20
239.495
 30
0.0
 11
151.89400000000001
 21
237.285
 31
0.0
  0
LINE
  5
223
  8
0
 62
     7
 10
151.89400000000001
 20
237.285
 30
0.0
 11
152.48599999999999
 21
239.495
 31
0.0
  0
LINE
  5
224
  8
0
 62
     7
 10
152.48599999999999
 20
239.495
 30
0.0
 11
151.30199999999999
 21
239.495
 31
0.0
  0
LINE
  5
225
  8
0
 62
     7
 10
151.89400000000001
 20
246.035
 30
0.0
 11
151.89400000000001
 21
237.285
 31
0.0
  0
LINE
  5
226
  8
0
 62
     7
 10
146.41999999999999
 20
237.285
 30
0.0
 11
152.59399999999999
 21
237.285
 31
0.0
  0
LINE
  5
227
  8
0
 62
     7
 10
3.7956599999999989
 20
128.35499999999999
 30
0.0
 11
3.7956599999999989
 21
128.28100000000001
 31
0.0
  0
LINE
  5
228
  8
0
 62
     7
 10
3.6716299999999999
 20
128.35499999999999
 30
0.0
 11
3.7956599999999989
 21
128.35499999999999
 31
0.0
  0
LINE
  5
229
  8
0
 62
     7
 10
3.1293700000000002
 20
128.35499999999999
 30
0.0
 11
3.1293700000000002
 21
128.28100000000001
 31
0.0
  0
LINE
  5
22A
  8
0
 62
     7
 10
3.2534000000000001
 20
128.35499999999999
 30
0.0
 11
3.1293700000000002
 21
128.35499999999999
 31
0.0
  0
LINE
  5
22B
  8
0
 62
     7
 10
3.0456599999999989
 20
128.94
 30
0.0
 11
3.0456599999999989
 21
128.86600000000001
 31
0.0
  0
LINE
  5
22C
  8
0
 62
     7
 10
3.8793699999999989
 20
128.94
 30
0.0
 11
3.8793699999999989
 21
128.86600000000001
 31
0.0
  0
LINE
  5
22D
  8
0
 62
     7
 10
3.0456599999999989
 20
128.86600000000001
 30
0.0
 11
3.2534000000000001
 21
128.547
 31
0.0
  0
LINE
  5
22E
  8
0
 62
     7
 10
3.670259999999999
 20
128.547
 30
0.0
 11
3.8793699999999989
 21
128.86600000000001
 31
0.0
  0
LINE
  5
22F
  8
0
 62
     7
 10
3.2375500000000001
 20
127.688
 30
0.0
 11
3.2534000000000001
 21
128.143
 31
0.0
  0
LINE
  5
230
  8
0
 62
     7
 10
3.670259999999999
 20
128.143
 30
0.0
 11
3.6874799999999999
 21
127.688
 31
0.0
  0
LINE
  5
231
  8
0
 62
     7
 10
3.670259999999999
 20
128.547
 30
0.0
 11
3.670259999999999
 21
128.28100000000001
 31
0.0
  0
LINE
  5
232
  8
0
 62
     7
 10
3.2534000000000001
 20
128.547
 30
0.0
 11
3.2534000000000001
 21
128.28100000000001
 31
0.0
  0
LINE
  5
233
  8
0
 62
     7
 10
3.1293700000000002
 20
128.28100000000001
 30
0.0
 11
3.1293700000000002
 21
128.143
 31
0.0
  0
LINE
  5
234
  8
0
 62
     7
 10
3.7956599999999989
 20
128.28100000000001
 30
0.0
 11
3.7956599999999989
 21
128.143
 31
0.0
  0
LINE
  5
235
  8
0
 62
     7
 10
3.7956599999999989
 20
128.143
 30
0.0
 11
3.670259999999999
 21
128.143
 31
0.0
  0
LINE
  5
236
  8
0
 62
     7
 10
3.2534000000000001
 20
128.143
 30
0.0
 11
3.1293700000000002
 21
128.143
 31
0.0
  0
LINE
  5
237
  8
0
 62
     7
 10
3.7956599999999989
 20
128.28100000000001
 30
0.0
 11
3.670259999999999
 21
128.28100000000001
 31
0.0
  0
LINE
  5
238
  8
0
 62
     7
 10
3.2534000000000001
 20
128.28100000000001
 30
0.0
 11
3.1293700000000002
 21
128.28100000000001
 31
0.0
  0
LINE
  5
239
  8
0
 62
     7
 10
3.8793699999999989
 20
128.94
 30
0.0
 11
3.0456599999999989
 21
128.94
 31
0.0
  0
LINE
  5
23A
  8
0
 62
     7
 10
3.8793699999999989
 20
128.86600000000001
 30
0.0
 11
3.0456599999999989
 21
128.86600000000001
 31
0.0
  0
LINE
  5
23B
  8
0
 62
     7
 10
3.6874799999999999
 20
127.688
 30
0.0
 11
3.2375500000000001
 21
127.688
 31
0.0
  0
LINE
  5
23C
  8
0
 62
     7
 10
2.8454899999999999
 20
128.35499999999999
 30
0.0
 11
2.8454899999999999
 21
128.28100000000001
 31
0.0
  0
LINE
  5
23D
  8
0
 62
     7
 10
2.7214700000000001
 20
128.35499999999999
 30
0.0
 11
2.8454899999999999
 21
128.35499999999999
 31
0.0
  0
LINE
  5
23E
  8
0
 62
     7
 10
2.179209999999999
 20
128.35499999999999
 30
0.0
 11
2.179209999999999
 21
128.28100000000001
 31
0.0
  0
LINE
  5
23F
  8
0
 62
     7
 10
2.3032300000000001
 20
128.35499999999999
 30
0.0
 11
2.179209999999999
 21
128.35499999999999
 31
0.0
  0
LINE
  5
240
  8
0
 62
     7
 10
2.0954899999999999
 20
128.94
 30
0.0
 11
2.0954899999999999
 21
128.86600000000001
 31
0.0
  0
LINE
  5
241
  8
0
 62
     7
 10
2.929209999999999
 20
128.94
 30
0.0
 11
2.929209999999999
 21
128.86600000000001
 31
0.0
  0
LINE
  5
242
  8
0
 62
     7
 10
2.0954899999999999
 20
128.86600000000001
 30
0.0
 11
2.3032300000000001
 21
128.547
 31
0.0
  0
LINE
  5
243
  8
0
 62
     7
 10
2.7200899999999999
 20
128.547
 30
0.0
 11
2.929209999999999
 21
128.86600000000001
 31
0.0
  0
LINE
  5
244
  8
0
 62
     7
 10
2.2873899999999998
 20
127.688
 30
0.0
 11
2.3032300000000001
 21
128.143
 31
0.0
  0
LINE
  5
245
  8
0
 62
     7
 10
2.7200899999999999
 20
128.143
 30
0.0
 11
2.7373199999999991
 21
127.688
 31
0.0
  0
LINE
  5
246
  8
0
 62
     7
 10
2.7200899999999999
 20
128.547
 30
0.0
 11
2.7200899999999999
 21
128.28100000000001
 31
0.0
  0
LINE
  5
247
  8
0
 62
     7
 10
2.3032300000000001
 20
128.547
 30
0.0
 11
2.3032300000000001
 21
128.28100000000001
 31
0.0
  0
LINE
  5
248
  8
0
 62
     7
 10
2.179209999999999
 20
128.28100000000001
 30
0.0
 11
2.179209999999999
 21
128.143
 31
0.0
  0
LINE
  5
249
  8
0
 62
     7
 10
2.8454899999999999
 20
128.28100000000001
 30
0.0
 11
2.8454899999999999
 21
128.143
 31
0.0
  0
LINE
  5
24A
  8
0
 62
     7
 10
2.8454899999999999
 20
128.143
 30
0.0
 11
2.7200899999999999
 21
128.143
 31
0.0
  0
LINE
  5
24B
  8
0
 62
     7
 10
2.3032300000000001
 20
128.143
 30
0.0
 11
2.179209999999999
 21
128.143
 31
0.0
  0
LINE
  5
24C
  8
0
 62
     7
 10
2.8454899999999999
 20
128.28100000000001
 30
0.0
 11
2.7200899999999999
 21
128.28100000000001
 31
0.0
  0
LINE
  5
24D
  8
0
 62
     7
 10
2.3032300000000001
 20
128.28100000000001
 30
0.0
 11
2.179209999999999
 21
128.28100000000001
 31
0.0
  0
LINE
  5
24E
  8
0
 62
     7
 10
2.929209999999999
 20
128.94
 30
0.0
 11
2.0954899999999999
 21
128.94
 31
0.0
  0
LINE
  5
24F
  8
0
 62
     7
 10
2.929209999999999
 20
128.86600000000001
 30
0.0
 11
2.0954899999999999
 21
128.86600000000001
 31
0.0
  0
LINE
  5
250
  8
0
 62
     7
 10
2.7373199999999991
 20
127.688
 30
0.0
 11
2.2873899999999998
 21
127.688
 31
0.0
  0
LINE
  5
251
  8
0
 62
     7
 10
1.89568
 20
128.35499999999999
 30
0.0
 11
1.89568
 21
128.28100000000001
 31
0.0
  0
LINE
  5
252
  8
0
 62
     7
 10
1.7716499999999991
 20
128.35499999999999
 30
0.0
 11
1.89568
 21
128.35499999999999
 31
0.0
  0
LINE
  5
253
  8
0
 62
     7
 10
1.2293899999999991
 20
128.35499999999999
 30
0.0
 11
1.2293899999999991
 21
128.28100000000001
 31
0.0
  0
LINE
  5
254
  8
0
 62
     7
 10
1.35341
 20
128.35499999999999
 30
0.0
 11
1.2293899999999991
 21
128.35499999999999
 31
0.0
  0
LINE
  5
255
  8
0
 62
     7
 10
1.1456699999999991
 20
128.94
 30
0.0
 11
1.1456699999999991
 21
128.86600000000001
 31
0.0
  0
LINE
  5
256
  8
0
 62
     7
 10
1.97939
 20
128.94
 30
0.0
 11
1.97939
 21
128.86600000000001
 31
0.0
  0
LINE
  5
257
  8
0
 62
     7
 10
1.1456699999999991
 20
128.86600000000001
 30
0.0
 11
1.35341
 21
128.547
 31
0.0
  0
LINE
  5
258
  8
0
 62
     7
 10
1.77027
 20
128.547
 30
0.0
 11
1.97939
 21
128.86600000000001
 31
0.0
  0
LINE
  5
259
  8
0
 62
     7
 10
1.3375699999999999
 20
127.688
 30
0.0
 11
1.35341
 21
128.143
 31
0.0
  0
LINE
  5
25A
  8
0
 62
     7
 10
1.77027
 20
128.143
 30
0.0
 11
1.7875000000000001
 21
127.688
 31
0.0
  0
LINE
  5
25B
  8
0
 62
     7
 10
1.77027
 20
128.547
 30
0.0
 11
1.77027
 21
128.28100000000001
 31
0.0
  0
LINE
  5
25C
  8
0
 62
     7
 10
1.35341
 20
128.547
 30
0.0
 11
1.35341
 21
128.28100000000001
 31
0.0
  0
LINE
  5
25D
  8
0
 62
     7
 10
1.2293899999999991
 20
128.28100000000001
 30
0.0
 11
1.2293899999999991
 21
128.143
 31
0.0
  0
LINE
  5
25E
  8
0
 62
     7
 10
1.89568
 20
128.28100000000001
 30
0.0
 11
1.89568
 21
128.143
 31
0.0
  0
LINE
  5
25F
  8
0
 62
     7
 10
1.89568
 20
128.143
 30
0.0
 11
1.77027
 21
128.143
 31
0.0
  0
LINE
  5
260
  8
0
 62
     7
 10
1.35341
 20
128.143
 30
0.0
 11
1.2293899999999991
 21
128.143
 31
0.0
  0
LINE
  5
261
  8
0
 62
     7
 10
1.89568
 20
128.28100000000001
 30
0.0
 11
1.77027
 21
128.28100000000001
 31
0.0
  0
LINE
  5
262
  8
0
 62
     7
 10
1.35341
 20
128.28100000000001
 30
0.0
 11
1.2293899999999991
 21
128.28100000000001
 31
0.0
  0
LINE
  5
263
  8
0
 62
     7
 10
1.97939
 20
128.94
 30
0.0
 11
1.1456699999999991
 21
128.94
 31
0.0
  0
LINE
  5
264
  8
0
 62
     7
 10
1.97939
 20
128.86600000000001
 30
0.0
 11
1.1456699999999991
 21
128.86600000000001
 31
0.0
  0
LINE
  5
265
  8
0
 62
     7
 10
1.7875000000000001
 20
127.688
 30
0.0
 11
1.3375699999999999
 21
127.688
 31
0.0
  0
LINE
  5
266
  8
0
 62
     7
 10
0.945857
 20
128.35499999999999
 30
0.0
 11
0.945857
 21
128.28100000000001
 31
0.0
  0
LINE
  5
267
  8
0
 62
     7
 10
0.8218329999999999
 20
128.35499999999999
 30
0.0
 11
0.945857
 21
128.35499999999999
 31
0.0
  0
LINE
  5
268
  8
0
 62
     7
 10
0.279571
 20
128.35499999999999
 30
0.0
 11
0.279571
 21
128.28100000000001
 31
0.0
  0
LINE
  5
269
  8
0
 62
     7
 10
0.403595
 20
128.35499999999999
 30
0.0
 11
0.279571
 21
128.35499999999999
 31
0.0
  0
LINE
  5
26A
  8
0
 62
     7
 10
0.195855
 20
128.94
 30
0.0
 11
0.195855
 21
128.86600000000001
 31
0.0
  0
LINE
  5
26B
  8
0
 62
     7
 10
1.0295700000000001
 20
128.94
 30
0.0
 11
1.0295700000000001
 21
128.86600000000001
 31
0.0
  0
LINE
  5
26C
  8
0
 62
     7
 10
0.195855
 20
128.86600000000001
 30
0.0
 11
0.403595
 21
128.547
 31
0.0
  0
LINE
  5
26D
  8
0
 62
     7
 10
0.8204549999999999
 20
128.547
 30
0.0
 11
1.0295700000000001
 21
128.86600000000001
 31
0.0
  0
LINE
  5
26E
  8
0
 62
     7
 10
0.387748
 20
127.688
 30
0.0
 11
0.403595
 21
128.143
 31
0.0
  0
LINE
  5
26F
  8
0
 62
     7
 10
0.8204549999999999
 20
128.143
 30
0.0
 11
0.8376799999999999
 21
127.688
 31
0.0
  0
LINE
  5
270
  8
0
 62
     7
 10
0.8204549999999999
 20
128.547
 30
0.0
 11
0.8204549999999999
 21
128.28100000000001
 31
0.0
  0
LINE
  5
271
  8
0
 62
     7
 10
0.403595
 20
128.547
 30
0.0
 11
0.403595
 21
128.28100000000001
 31
0.0
  0
LINE
  5
272
  8
0
 62
     7
 10
0.279571
 20
128.28100000000001
 30
0.0
 11
0.279571
 21
128.143
 31
0.0
  0
LINE
  5
273
  8
0
 62
     7
 10
0.945857
 20
128.28100000000001
 30
0.0
 11
0.945857
 21
128.143
 31
0.0
  0
LINE
  5
274
  8
0
 62
     7
 10
0.945857
 20
128.143
 30
0.0
 11
0.8204549999999999
 21
128.143
 31
0.0
  0
LINE
  5
275
  8
0
 62
     7
 10
0.403595
 20
128.143
 30
0.0
 11
0.279571
 21
128.143
 31
0.0
  0
LINE
  5
276
  8
0
 62
     7
 10
0.945857
 20
128.28100000000001
 30
0.0
 11
0.8204549999999999
 21
128.28100000000001
 31
0.0
  0
LINE
  5
277
  8
0
 62
     7
 10
0.403595
 20
128.28100000000001
 30
0.0
 11
0.279571
 21
128.28100000000001
 31
0.0
  0
LINE
  5
278
  8
0
 62
     7
 10
1.0295700000000001
 20
128.94
 30
0.0
 11
0.195855
 21
128.94
 31
0.0
  0
LINE
  5
279
  8
0
 62
     7
 10
1.0295700000000001
 20
128.86600000000001
 30
0.0
 11
0.195855
 21
128.86600000000001
 31
0.0
  0
LINE
  5
27A
  8
0
 62
     7
 10
0.8376799999999999
 20
127.688
 30
0.0
 11
0.387748
 21
127.688
 31
0.0
  0
LINE
  5
27B
  8
0
 62
     7
 10
8.7621399999999987
 20
128.35499999999999
 30
0.0
 11
8.7621399999999987
 21
128.28100000000001
 31
0.0
  0
LINE
  5
27C
  8
0
 62
     7
 10
8.6381100000000011
 20
128.35499999999999
 30
0.0
 11
8.7621399999999987
 21
128.35499999999999
 31
0.0
  0
LINE
  5
27D
  8
0
 62
     7
 10
8.0958500000000004
 20
128.35499999999999
 30
0.0
 11
8.0958500000000004
 21
128.28100000000001
 31
0.0
  0
LINE
  5
27E
  8
0
 62
     7
 10
8.2198799999999999
 20
128.35499999999999
 30
0.0
 11
8.0958500000000004
 21
128.35499999999999
 31
0.0
  0
LINE
  5
27F
  8
0
 62
     7
 10
8.0121399999999987
 20
128.94
 30
0.0
 11
8.0121399999999987
 21
128.86600000000001
 31
0.0
  0
LINE
  5
280
  8
0
 62
     7
 10
8.8458600000000001
 20
128.94
 30
0.0
 11
8.8458600000000001
 21
128.86600000000001
 31
0.0
  0
LINE
  5
281
  8
0
 62
     7
 10
8.0121399999999987
 20
128.86600000000001
 30
0.0
 11
8.2198799999999999
 21
128.547
 31
0.0
  0
LINE
  5
282
  8
0
 62
     7
 10
8.6367399999999996
 20
128.547
 30
0.0
 11
8.8458600000000001
 21
128.86600000000001
 31
0.0
  0
LINE
  5
283
  8
0
 62
     7
 10
8.2040299999999995
 20
127.688
 30
0.0
 11
8.2198799999999999
 21
128.143
 31
0.0
  0
LINE
  5
284
  8
0
 62
     7
 10
8.6367399999999996
 20
128.143
 30
0.0
 11
8.6539600000000014
 21
127.688
 31
0.0
  0
LINE
  5
285
  8
0
 62
     7
 10
8.6367399999999996
 20
128.547
 30
0.0
 11
8.6367399999999996
 21
128.28100000000001
 31
0.0
  0
LINE
  5
286
  8
0
 62
     7
 10
8.2198799999999999
 20
128.547
 30
0.0
 11
8.2198799999999999
 21
128.28100000000001
 31
0.0
  0
LINE
  5
287
  8
0
 62
     7
 10
8.0958500000000004
 20
128.28100000000001
 30
0.0
 11
8.0958500000000004
 21
128.143
 31
0.0
  0
LINE
  5
288
  8
0
 62
     7
 10
8.7621399999999987
 20
128.28100000000001
 30
0.0
 11
8.7621399999999987
 21
128.143
 31
0.0
  0
LINE
  5
289
  8
0
 62
     7
 10
8.7621399999999987
 20
128.143
 30
0.0
 11
8.6367399999999996
 21
128.143
 31
0.0
  0
LINE
  5
28A
  8
0
 62
     7
 10
8.2198799999999999
 20
128.143
 30
0.0
 11
8.0958500000000004
 21
128.143
 31
0.0
  0
LINE
  5
28B
  8
0
 62
     7
 10
8.7621399999999987
 20
128.28100000000001
 30
0.0
 11
8.6367399999999996
 21
128.28100000000001
 31
0.0
  0
LINE
  5
28C
  8
0
 62
     7
 10
8.2198799999999999
 20
128.28100000000001
 30
0.0
 11
8.0958500000000004
 21
128.28100000000001
 31
0.0
  0
LINE
  5
28D
  8
0
 62
     7
 10
8.8458600000000001
 20
128.94
 30
0.0
 11
8.0121399999999987
 21
128.94
 31
0.0
  0
LINE
  5
28E
  8
0
 62
     7
 10
8.8458600000000001
 20
128.86600000000001
 30
0.0
 11
8.0121399999999987
 21
128.86600000000001
 31
0.0
  0
LINE
  5
28F
  8
0
 62
     7
 10
8.6539600000000014
 20
127.688
 30
0.0
 11
8.2040299999999995
 21
127.688
 31
0.0
  0
LINE
  5
290
  8
0
 62
     7
 10
7.8119800000000001
 20
128.35499999999999
 30
0.0
 11
7.8119800000000001
 21
128.28100000000001
 31
0.0
  0
LINE
  5
291
  8
0
 62
     7
 10
7.687949999999999
 20
128.35499999999999
 30
0.0
 11
7.8119800000000001
 21
128.35499999999999
 31
0.0
  0
LINE
  5
292
  8
0
 62
     7
 10
7.1456899999999992
 20
128.35499999999999
 30
0.0
 11
7.1456899999999992
 21
128.28100000000001
 31
0.0
  0
LINE
  5
293
  8
0
 62
     7
 10
7.2697099999999999
 20
128.35499999999999
 30
0.0
 11
7.1456899999999992
 21
128.35499999999999
 31
0.0
  0
LINE
  5
294
  8
0
 62
     7
 10
7.0619699999999987
 20
128.94
 30
0.0
 11
7.0619699999999987
 21
128.86600000000001
 31
0.0
  0
LINE
  5
295
  8
0
 62
     7
 10
7.8956899999999992
 20
128.94
 30
0.0
 11
7.8956899999999992
 21
128.86600000000001
 31
0.0
  0
LINE
  5
296
  8
0
 62
     7
 10
7.0619699999999987
 20
128.86600000000001
 30
0.0
 11
7.2697099999999999
 21
128.547
 31
0.0
  0
LINE
  5
297
  8
0
 62
     7
 10
7.6865699999999988
 20
128.547
 30
0.0
 11
7.8956899999999992
 21
128.86600000000001
 31
0.0
  0
LINE
  5
298
  8
0
 62
     7
 10
7.25387
 20
127.688
 30
0.0
 11
7.2697099999999999
 21
128.143
 31
0.0
  0
LINE
  5
299
  8
0
 62
     7
 10
7.6865699999999988
 20
128.143
 30
0.0
 11
7.7038000000000002
 21
127.688
 31
0.0
  0
LINE
  5
29A
  8
0
 62
     7
 10
7.6865699999999988
 20
128.547
 30
0.0
 11
7.6865699999999988
 21
128.28100000000001
 31
0.0
  0
LINE
  5
29B
  8
0
 62
     7
 10
7.2697099999999999
 20
128.547
 30
0.0
 11
7.2697099999999999
 21
128.28100000000001
 31
0.0
  0
LINE
  5
29C
  8
0
 62
     7
 10
7.1456899999999992
 20
128.28100000000001
 30
0.0
 11
7.1456899999999992
 21
128.143
 31
0.0
  0
LINE
  5
29D
  8
0
 62
     7
 10
7.8119800000000001
 20
128.28100000000001
 30
0.0
 11
7.8119800000000001
 21
128.143
 31
0.0
  0
LINE
  5
29E
  8
0
 62
     7
 10
7.8119800000000001
 20
128.143
 30
0.0
 11
7.6865699999999988
 21
128.143
 31
0.0
  0
LINE
  5
29F
  8
0
 62
     7
 10
7.2697099999999999
 20
128.143
 30
0.0
 11
7.1456899999999992
 21
128.143
 31
0.0
  0
LINE
  5
2A0
  8
0
 62
     7
 10
7.8119800000000001
 20
128.28100000000001
 30
0.0
 11
7.6865699999999988
 21
128.28100000000001
 31
0.0
  0
LINE
  5
2A1
  8
0
 62
     7
 10
7.2697099999999999
 20
128.28100000000001
 30
0.0
 11
7.1456899999999992
 21
128.28100000000001
 31
0.0
  0
LINE
  5
2A2
  8
0
 62
     7
 10
7.8956899999999992
 20
128.94
 30
0.0
 11
7.0619699999999987
 21
128.94
 31
0.0
  0
LINE
  5
2A3
  8
0
 62
     7
 10
7.8956899999999992
 20
128.86600000000001
 30
0.0
 11
7.0619699999999987
 21
128.86600000000001
 31
0.0
  0
LINE
  5
2A4
  8
0
 62
     7
 10
7.7038000000000002
 20
127.688
 30
0.0
 11
7.25387
 21
127.688
 31
0.0
  0
LINE
  5
2A5
  8
0
 62
     7
 10
6.8621600000000003
 20
128.35499999999999
 30
0.0
 11
6.8621600000000003
 21
128.28100000000001
 31
0.0
  0
LINE
  5
2A6
  8
0
 62
     7
 10
6.7381299999999991
 20
128.35499999999999
 30
0.0
 11
6.8621600000000003
 21
128.35499999999999
 31
0.0
  0
LINE
  5
2A7
  8
0
 62
     7
 10
6.1958699999999993
 20
128.35499999999999
 30
0.0
 11
6.1958699999999993
 21
128.28100000000001
 31
0.0
  0
LINE
  5
2A8
  8
0
 62
     7
 10
6.3198999999999987
 20
128.35499999999999
 30
0.0
 11
6.1958699999999993
 21
128.35499999999999
 31
0.0
  0
LINE
  5
2A9
  8
0
 62
     7
 10
6.1121499999999989
 20
128.94
 30
0.0
 11
6.1121499999999989
 21
128.86600000000001
 31
0.0
  0
LINE
  5
2AA
  8
0
 62
     7
 10
6.9458699999999993
 20
128.94
 30
0.0
 11
6.9458699999999993
 21
128.86600000000001
 31
0.0
  0
LINE
  5
2AB
  8
0
 62
     7
 10
6.1121499999999989
 20
128.86600000000001
 30
0.0
 11
6.3198999999999987
 21
128.547
 31
0.0
  0
LINE
  5
2AC
  8
0
 62
     7
 10
6.7367499999999989
 20
128.547
 30
0.0
 11
6.9458699999999993
 21
128.86600000000001
 31
0.0
  0
LINE
  5
2AD
  8
0
 62
     7
 10
6.3040500000000002
 20
127.688
 30
0.0
 11
6.3198999999999987
 21
128.143
 31
0.0
  0
LINE
  5
2AE
  8
0
 62
     7
 10
6.7367499999999989
 20
128.143
 30
0.0
 11
6.7539800000000003
 21
127.688
 31
0.0
  0
LINE
  5
2AF
  8
0
 62
     7
 10
6.7367499999999989
 20
128.547
 30
0.0
 11
6.7367499999999989
 21
128.28100000000001
 31
0.0
  0
LINE
  5
2B0
  8
0
 62
     7
 10
6.3198999999999987
 20
128.547
 30
0.0
 11
6.3198999999999987
 21
128.28100000000001
 31
0.0
  0
LINE
  5
2B1
  8
0
 62
     7
 10
6.1958699999999993
 20
128.28100000000001
 30
0.0
 11
6.1958699999999993
 21
128.143
 31
0.0
  0
LINE
  5
2B2
  8
0
 62
     7
 10
6.8621600000000003
 20
128.28100000000001
 30
0.0
 11
6.8621600000000003
 21
128.143
 31
0.0
  0
LINE
  5
2B3
  8
0
 62
     7
 10
6.8621600000000003
 20
128.143
 30
0.0
 11
6.7367499999999989
 21
128.143
 31
0.0
  0
LINE
  5
2B4
  8
0
 62
     7
 10
6.3198999999999987
 20
128.143
 30
0.0
 11
6.1958699999999993
 21
128.143
 31
0.0
  0
LINE
  5
2B5
  8
0
 62
     7
 10
6.8621600000000003
 20
128.28100000000001
 30
0.0
 11
6.7367499999999989
 21
128.28100000000001
 31
0.0
  0
LINE
  5
2B6
  8
0
 62
     7
 10
6.3198999999999987
 20
128.28100000000001
 30
0.0
 11
6.1958699999999993
 21
128.28100000000001
 31
0.0
  0
LINE
  5
2B7
  8
0
 62
     7
 10
6.9458699999999993
 20
128.94
 30
0.0
 11
6.1121499999999989
 21
128.94
 31
0.0
  0
LINE
  5
2B8
  8
0
 62
     7
 10
6.9458699999999993
 20
128.86600000000001
 30
0.0
 11
6.1121499999999989
 21
128.86600000000001
 31
0.0
  0
LINE
  5
2B9
  8
0
 62
     7
 10
6.7539800000000003
 20
127.688
 30
0.0
 11
6.3040500000000002
 21
127.688
 31
0.0
  0
LINE
  5
2BA
  8
0
 62
     7
 10
5.9123400000000004
 20
128.35499999999999
 30
0.0
 11
5.9123400000000004
 21
128.28100000000001
 31
0.0
  0
LINE
  5
2BB
  8
0
 62
     7
 10
5.7883100000000001
 20
128.35499999999999
 30
0.0
 11
5.9123400000000004
 21
128.35499999999999
 31
0.0
  0
LINE
  5
2BC
  8
0
 62
     7
 10
5.2460500000000003
 20
128.35499999999999
 30
0.0
 11
5.2460500000000003
 21
128.28100000000001
 31
0.0
  0
LINE
  5
2BD
  8
0
 62
     7
 10
5.3700799999999997
 20
128.35499999999999
 30
0.0
 11
5.2460500000000003
 21
128.35499999999999
 31
0.0
  0
LINE
  5
2BE
  8
0
 62
     7
 10
5.1623400000000004
 20
128.94
 30
0.0
 11
5.1623400000000004
 21
128.86600000000001
 31
0.0
  0
LINE
  5
2BF
  8
0
 62
     7
 10
5.9960500000000003
 20
128.94
 30
0.0
 11
5.9960500000000003
 21
128.86600000000001
 31
0.0
  0
LINE
  5
2C0
  8
0
 62
     7
 10
5.1623400000000004
 20
128.86600000000001
 30
0.0
 11
5.3700799999999997
 21
128.547
 31
0.0
  0
LINE
  5
2C1
  8
0
 62
     7
 10
5.7869400000000004
 20
128.547
 30
0.0
 11
5.9960500000000003
 21
128.86600000000001
 31
0.0
  0
LINE
  5
2C2
  8
0
 62
     7
 10
5.3542300000000003
 20
127.688
 30
0.0
 11
5.3700799999999997
 21
128.143
 31
0.0
  0
LINE
  5
2C3
  8
0
 62
     7
 10
5.7869400000000004
 20
128.143
 30
0.0
 11
5.8041599999999987
 21
127.688
 31
0.0
  0
LINE
  5
2C4
  8
0
 62
     7
 10
5.7869400000000004
 20
128.547
 30
0.0
 11
5.7869400000000004
 21
128.28100000000001
 31
0.0
  0
LINE
  5
2C5
  8
0
 62
     7
 10
5.3700799999999997
 20
128.547
 30
0.0
 11
5.3700799999999997
 21
128.28100000000001
 31
0.0
  0
LINE
  5
2C6
  8
0
 62
     7
 10
5.2460500000000003
 20
128.28100000000001
 30
0.0
 11
5.2460500000000003
 21
128.143
 31
0.0
  0
LINE
  5
2C7
  8
0
 62
     7
 10
5.9123400000000004
 20
128.28100000000001
 30
0.0
 11
5.9123400000000004
 21
128.143
 31
0.0
  0
LINE
  5
2C8
  8
0
 62
     7
 10
5.9123400000000004
 20
128.143
 30
0.0
 11
5.7869400000000004
 21
128.143
 31
0.0
  0
LINE
  5
2C9
  8
0
 62
     7
 10
5.3700799999999997
 20
128.143
 30
0.0
 11
5.2460500000000003
 21
128.143
 31
0.0
  0
LINE
  5
2CA
  8
0
 62
     7
 10
5.9123400000000004
 20
128.28100000000001
 30
0.0
 11
5.7869400000000004
 21
128.28100000000001
 31
0.0
  0
LINE
  5
2CB
  8
0
 62
     7
 10
5.3700799999999997
 20
128.28100000000001
 30
0.0
 11
5.2460500000000003
 21
128.28100000000001
 31
0.0
  0
LINE
  5
2CC
  8
0
 62
     7
 10
5.9960500000000003
 20
128.94
 30
0.0
 11
5.1623400000000004
 21
128.94
 31
0.0
  0
LINE
  5
2CD
  8
0
 62
     7
 10
5.9960500000000003
 20
128.86600000000001
 30
0.0
 11
5.1623400000000004
 21
128.86600000000001
 31
0.0
  0
LINE
  5
2CE
  8
0
 62
     7
 10
5.8041599999999987
 20
127.688
 30
0.0
 11
5.3542300000000003
 21
127.688
 31
0.0
  0
LINE
  5
2CF
  8
0
 62
     7
 10
138.06700000000001
 20
128.35499999999999
 30
0.0
 11
138.06700000000001
 21
128.28100000000001
 31
0.0
  0
LINE
  5
2D0
  8
0
 62
     7
 10
137.94300000000001
 20
128.35499999999999
 30
0.0
 11
138.06700000000001
 21
128.35499999999999
 31
0.0
  0
LINE
  5
2D1
  8
0
 62
     7
 10
137.40100000000001
 20
128.35499999999999
 30
0.0
 11
137.40100000000001
 21
128.28100000000001
 31
0.0
  0
LINE
  5
2D2
  8
0
 62
     7
 10
137.52500000000001
 20
128.35499999999999
 30
0.0
 11
137.40100000000001
 21
128.35499999999999
 31
0.0
  0
LINE
  5
2D3
  8
0
 62
     7
 10
137.31700000000001
 20
128.94
 30
0.0
 11
137.31700000000001
 21
128.86600000000001
 31
0.0
  0
LINE
  5
2D4
  8
0
 62
     7
 10
138.15000000000001
 20
128.94
 30
0.0
 11
138.15000000000001
 21
128.86600000000001
 31
0.0
  0
LINE
  5
2D5
  8
0
 62
     7
 10
137.31700000000001
 20
128.86600000000001
 30
0.0
 11
137.52500000000001
 21
128.547
 31
0.0
  0
LINE
  5
2D6
  8
0
 62
     7
 10
137.941
 20
128.547
 30
0.0
 11
138.15000000000001
 21
128.86600000000001
 31
0.0
  0
LINE
  5
2D7
  8
0
 62
     7
 10
137.50899999999999
 20
127.688
 30
0.0
 11
137.52500000000001
 21
128.143
 31
0.0
  0
LINE
  5
2D8
  8
0
 62
     7
 10
137.941
 20
128.143
 30
0.0
 11
137.959
 21
127.688
 31
0.0
  0
LINE
  5
2D9
  8
0
 62
     7
 10
137.941
 20
128.547
 30
0.0
 11
137.941
 21
128.28100000000001
 31
0.0
  0
LINE
  5
2DA
  8
0
 62
     7
 10
137.52500000000001
 20
128.547
 30
0.0
 11
137.52500000000001
 21
128.28100000000001
 31
0.0
  0
LINE
  5
2DB
  8
0
 62
     7
 10
137.40100000000001
 20
128.28100000000001
 30
0.0
 11
137.40100000000001
 21
128.143
 31
0.0
  0
LINE
  5
2DC
  8
0
 62
     7
 10
138.06700000000001
 20
128.28100000000001
 30
0.0
 11
138.06700000000001
 21
128.143
 31
0.0
  0
LINE
  5
2DD
  8
0
 62
     7
 10
138.06700000000001
 20
128.143
 30
0.0
 11
137.941
 21
128.143
 31
0.0
  0
LINE
  5
2DE
  8
0
 62
     7
 10
137.52500000000001
 20
128.143
 30
0.0
 11
137.40100000000001
 21
128.143
 31
0.0
  0
LINE
  5
2DF
  8
0
 62
     7
 10
138.06700000000001
 20
128.28100000000001
 30
0.0
 11
137.941
 21
128.28100000000001
 31
0.0
  0
LINE
  5
2E0
  8
0
 62
     7
 10
137.52500000000001
 20
128.28100000000001
 30
0.0
 11
137.40100000000001
 21
128.28100000000001
 31
0.0
  0
LINE
  5
2E1
  8
0
 62
     7
 10
138.15000000000001
 20
128.94
 30
0.0
 11
137.31700000000001
 21
128.94
 31
0.0
  0
LINE
  5
2E2
  8
0
 62
     7
 10
138.15000000000001
 20
128.86600000000001
 30
0.0
 11
137.31700000000001
 21
128.86600000000001
 31
0.0
  0
LINE
  5
2E3
  8
0
 62
     7
 10
137.959
 20
127.688
 30
0.0
 11
137.50899999999999
 21
127.688
 31
0.0
  0
LINE
  5
2E4
  8
0
 62
     7
 10
137.11699999999999
 20
128.35499999999999
 30
0.0
 11
137.11699999999999
 21
128.28100000000001
 31
0.0
  0
LINE
  5
2E5
  8
0
 62
     7
 10
136.99299999999999
 20
128.35499999999999
 30
0.0
 11
137.11699999999999
 21
128.35499999999999
 31
0.0
  0
LINE
  5
2E6
  8
0
 62
     7
 10
136.44999999999999
 20
128.35499999999999
 30
0.0
 11
136.44999999999999
 21
128.28100000000001
 31
0.0
  0
LINE
  5
2E7
  8
0
 62
     7
 10
136.57400000000001
 20
128.35499999999999
 30
0.0
 11
136.44999999999999
 21
128.35499999999999
 31
0.0
  0
LINE
  5
2E8
  8
0
 62
     7
 10
136.36699999999999
 20
128.94
 30
0.0
 11
136.36699999999999
 21
128.86600000000001
 31
0.0
  0
LINE
  5
2E9
  8
0
 62
     7
 10
137.20099999999999
 20
128.94
 30
0.0
 11
137.20099999999999
 21
128.86600000000001
 31
0.0
  0
LINE
  5
2EA
  8
0
 62
     7
 10
136.36699999999999
 20
128.86600000000001
 30
0.0
 11
136.57400000000001
 21
128.547
 31
0.0
  0
LINE
  5
2EB
  8
0
 62
     7
 10
136.99100000000001
 20
128.547
 30
0.0
 11
137.20099999999999
 21
128.86600000000001
 31
0.0
  0
LINE
  5
2EC
  8
0
 62
     7
 10
136.559
 20
127.688
 30
0.0
 11
136.57400000000001
 21
128.143
 31
0.0
  0
LINE
  5
2ED
  8
0
 62
     7
 10
136.99100000000001
 20
128.143
 30
0.0
 11
137.00899999999999
 21
127.688
 31
0.0
  0
LINE
  5
2EE
  8
0
 62
     7
 10
136.99100000000001
 20
128.547
 30
0.0
 11
136.99100000000001
 21
128.28100000000001
 31
0.0
  0
LINE
  5
2EF
  8
0
 62
     7
 10
136.57400000000001
 20
128.547
 30
0.0
 11
136.57400000000001
 21
128.28100000000001
 31
0.0
  0
LINE
  5
2F0
  8
0
 62
     7
 10
136.44999999999999
 20
128.28100000000001
 30
0.0
 11
136.44999999999999
 21
128.143
 31
0.0
  0
LINE
  5
2F1
  8
0
 62
     7
 10
137.11699999999999
 20
128.28100000000001
 30
0.0
 11
137.11699999999999
 21
128.143
 31
0.0
  0
LINE
  5
2F2
  8
0
 62
     7
 10
137.11699999999999
 20
128.143
 30
0.0
 11
136.99100000000001
 21
128.143
 31
0.0
  0
LINE
  5
2F3
  8
0
 62
     7
 10
136.57400000000001
 20
128.143
 30
0.0
 11
136.44999999999999
 21
128.143
 31
0.0
  0
LINE
  5
2F4
  8
0
 62
     7
 10
137.11699999999999
 20
128.28100000000001
 30
0.0
 11
136.99100000000001
 21
128.28100000000001
 31
0.0
  0
LINE
  5
2F5
  8
0
 62
     7
 10
136.57400000000001
 20
128.28100000000001
 30
0.0
 11
136.44999999999999
 21
128.28100000000001
 31
0.0
  0
LINE
  5
2F6
  8
0
 62
     7
 10
137.20099999999999
 20
128.94
 30
0.0
 11
136.36699999999999
 21
128.94
 31
0.0
  0
LINE
  5
2F7
  8
0
 62
     7
 10
137.20099999999999
 20
128.86600000000001
 30
0.0
 11
136.36699999999999
 21
128.86600000000001
 31
0.0
  0
LINE
  5
2F8
  8
0
 62
     7
 10
137.00899999999999
 20
127.688
 30
0.0
 11
136.559
 21
127.688
 31
0.0
  0
LINE
  5
2F9
  8
0
 62
     7
 10
136.167
 20
128.35499999999999
 30
0.0
 11
136.167
 21
128.28100000000001
 31
0.0
  0
LINE
  5
2FA
  8
0
 62
     7
 10
136.04300000000001
 20
128.35499999999999
 30
0.0
 11
136.167
 21
128.35499999999999
 31
0.0
  0
LINE
  5
2FB
  8
0
 62
     7
 10
135.501
 20
128.35499999999999
 30
0.0
 11
135.501
 21
128.28100000000001
 31
0.0
  0
LINE
  5
2FC
  8
0
 62
     7
 10
135.625
 20
128.35499999999999
 30
0.0
 11
135.501
 21
128.35499999999999
 31
0.0
  0
LINE
  5
2FD
  8
0
 62
     7
 10
135.417
 20
128.94
 30
0.0
 11
135.417
 21
128.86600000000001
 31
0.0
  0
LINE
  5
2FE
  8
0
 62
     7
 10
136.251
 20
128.94
 30
0.0
 11
136.251
 21
128.86600000000001
 31
0.0
  0
LINE
  5
2FF
  8
0
 62
     7
 10
135.417
 20
128.86600000000001
 30
0.0
 11
135.625
 21
128.547
 31
0.0
  0
LINE
  5
300
  8
0
 62
     7
 10
136.042
 20
128.547
 30
0.0
 11
136.251
 21
128.86600000000001
 31
0.0
  0
LINE
  5
301
  8
0
 62
     7
 10
135.60900000000001
 20
127.688
 30
0.0
 11
135.625
 21
128.143
 31
0.0
  0
LINE
  5
302
  8
0
 62
     7
 10
136.042
 20
128.143
 30
0.0
 11
136.059
 21
127.688
 31
0.0
  0
LINE
  5
303
  8
0
 62
     7
 10
136.042
 20
128.547
 30
0.0
 11
136.042
 21
128.28100000000001
 31
0.0
  0
LINE
  5
304
  8
0
 62
     7
 10
135.625
 20
128.547
 30
0.0
 11
135.625
 21
128.28100000000001
 31
0.0
  0
LINE
  5
305
  8
0
 62
     7
 10
135.501
 20
128.28100000000001
 30
0.0
 11
135.501
 21
128.143
 31
0.0
  0
LINE
  5
306
  8
0
 62
     7
 10
136.167
 20
128.28100000000001
 30
0.0
 11
136.167
 21
128.143
 31
0.0
  0
LINE
  5
307
  8
0
 62
     7
 10
136.167
 20
128.143
 30
0.0
 11
136.042
 21
128.143
 31
0.0
  0
LINE
  5
308
  8
0
 62
     7
 10
135.625
 20
128.143
 30
0.0
 11
135.501
 21
128.143
 31
0.0
  0
LINE
  5
309
  8
0
 62
     7
 10
136.167
 20
128.28100000000001
 30
0.0
 11
136.042
 21
128.28100000000001
 31
0.0
  0
LINE
  5
30A
  8
0
 62
     7
 10
135.625
 20
128.28100000000001
 30
0.0
 11
135.501
 21
128.28100000000001
 31
0.0
  0
LINE
  5
30B
  8
0
 62
     7
 10
136.251
 20
128.94
 30
0.0
 11
135.417
 21
128.94
 31
0.0
  0
LINE
  5
30C
  8
0
 62
     7
 10
136.251
 20
128.86600000000001
 30
0.0
 11
135.417
 21
128.86600000000001
 31
0.0
  0
LINE
  5
30D
  8
0
 62
     7
 10
136.059
 20
127.688
 30
0.0
 11
135.60900000000001
 21
127.688
 31
0.0
  0
LINE
  5
30E
  8
0
 62
     7
 10
135.21700000000001
 20
128.35499999999999
 30
0.0
 11
135.21700000000001
 21
128.28100000000001
 31
0.0
  0
LINE
  5
30F
  8
0
 62
     7
 10
135.09299999999999
 20
128.35499999999999
 30
0.0
 11
135.21700000000001
 21
128.35499999999999
 31
0.0
  0
LINE
  5
310
  8
0
 62
     7
 10
134.55099999999999
 20
128.35499999999999
 30
0.0
 11
134.55099999999999
 21
128.28100000000001
 31
0.0
  0
LINE
  5
311
  8
0
 62
     7
 10
134.67500000000001
 20
128.35499999999999
 30
0.0
 11
134.55099999999999
 21
128.35499999999999
 31
0.0
  0
LINE
  5
312
  8
0
 62
     7
 10
134.46700000000001
 20
128.94
 30
0.0
 11
134.46700000000001
 21
128.86600000000001
 31
0.0
  0
LINE
  5
313
  8
0
 62
     7
 10
135.30000000000001
 20
128.94
 30
0.0
 11
135.30000000000001
 21
128.86600000000001
 31
0.0
  0
LINE
  5
314
  8
0
 62
     7
 10
134.46700000000001
 20
128.86600000000001
 30
0.0
 11
134.67500000000001
 21
128.547
 31
0.0
  0
LINE
  5
315
  8
0
 62
     7
 10
135.09200000000001
 20
128.547
 30
0.0
 11
135.30000000000001
 21
128.86600000000001
 31
0.0
  0
LINE
  5
316
  8
0
 62
     7
 10
134.65899999999999
 20
127.688
 30
0.0
 11
134.67500000000001
 21
128.143
 31
0.0
  0
LINE
  5
317
  8
0
 62
     7
 10
135.09200000000001
 20
128.143
 30
0.0
 11
135.10900000000001
 21
127.688
 31
0.0
  0
LINE
  5
318
  8
0
 62
     7
 10
135.09200000000001
 20
128.547
 30
0.0
 11
135.09200000000001
 21
128.28100000000001
 31
0.0
  0
LINE
  5
319
  8
0
 62
     7
 10
134.67500000000001
 20
128.547
 30
0.0
 11
134.67500000000001
 21
128.28100000000001
 31
0.0
  0
LINE
  5
31A
  8
0
 62
     7
 10
134.55099999999999
 20
128.28100000000001
 30
0.0
 11
134.55099999999999
 21
128.143
 31
0.0
  0
LINE
  5
31B
  8
0
 62
     7
 10
135.21700000000001
 20
128.28100000000001
 30
0.0
 11
135.21700000000001
 21
128.143
 31
0.0
  0
LINE
  5
31C
  8
0
 62
     7
 10
135.21700000000001
 20
128.143
 30
0.0
 11
135.09200000000001
 21
128.143
 31
0.0
  0
LINE
  5
31D
  8
0
 62
     7
 10
134.67500000000001
 20
128.143
 30
0.0
 11
134.55099999999999
 21
128.143
 31
0.0
  0
LINE
  5
31E
  8
0
 62
     7
 10
135.21700000000001
 20
128.28100000000001
 30
0.0
 11
135.09200000000001
 21
128.28100000000001
 31
0.0
  0
LINE
  5
31F
  8
0
 62
     7
 10
134.67500000000001
 20
128.28100000000001
 30
0.0
 11
134.55099999999999
 21
128.28100000000001
 31
0.0
  0
LINE
  5
320
  8
0
 62
     7
 10
135.30000000000001
 20
128.94
 30
0.0
 11
134.46700000000001
 21
128.94
 31
0.0
  0
LINE
  5
321
  8
0
 62
     7
 10
135.30000000000001
 20
128.86600000000001
 30
0.0
 11
134.46700000000001
 21
128.86600000000001
 31
0.0
  0
LINE
  5
322
  8
0
 62
     7
 10
135.10900000000001
 20
127.688
 30
0.0
 11
134.65899999999999
 21
127.688
 31
0.0
  0
LINE
  5
323
  8
0
 62
     7
 10
143.03299999999999
 20
128.35499999999999
 30
0.0
 11
143.03299999999999
 21
128.28100000000001
 31
0.0
  0
LINE
  5
324
  8
0
 62
     7
 10
142.90899999999999
 20
128.35499999999999
 30
0.0
 11
143.03299999999999
 21
128.35499999999999
 31
0.0
  0
LINE
  5
325
  8
0
 62
     7
 10
142.36699999999999
 20
128.35499999999999
 30
0.0
 11
142.36699999999999
 21
128.28100000000001
 31
0.0
  0
LINE
  5
326
  8
0
 62
     7
 10
142.49100000000001
 20
128.35499999999999
 30
0.0
 11
142.36699999999999
 21
128.35499999999999
 31
0.0
  0
LINE
  5
327
  8
0
 62
     7
 10
142.28299999999999
 20
128.94
 30
0.0
 11
142.28299999999999
 21
128.86600000000001
 31
0.0
  0
LINE
  5
328
  8
0
 62
     7
 10
143.11699999999999
 20
128.94
 30
0.0
 11
143.11699999999999
 21
128.86600000000001
 31
0.0
  0
LINE
  5
329
  8
0
 62
     7
 10
142.28299999999999
 20
128.86600000000001
 30
0.0
 11
142.49100000000001
 21
128.547
 31
0.0
  0
LINE
  5
32A
  8
0
 62
     7
 10
142.90799999999999
 20
128.547
 30
0.0
 11
143.11699999999999
 21
128.86600000000001
 31
0.0
  0
LINE
  5
32B
  8
0
 62
     7
 10
142.47499999999999
 20
127.688
 30
0.0
 11
142.49100000000001
 21
128.143
 31
0.0
  0
LINE
  5
32C
  8
0
 62
     7
 10
142.90799999999999
 20
128.143
 30
0.0
 11
142.92500000000001
 21
127.688
 31
0.0
  0
LINE
  5
32D
  8
0
 62
     7
 10
142.90799999999999
 20
128.547
 30
0.0
 11
142.90799999999999
 21
128.28100000000001
 31
0.0
  0
LINE
  5
32E
  8
0
 62
     7
 10
142.49100000000001
 20
128.547
 30
0.0
 11
142.49100000000001
 21
128.28100000000001
 31
0.0
  0
LINE
  5
32F
  8
0
 62
     7
 10
142.36699999999999
 20
128.28100000000001
 30
0.0
 11
142.36699999999999
 21
128.143
 31
0.0
  0
LINE
  5
330
  8
0
 62
     7
 10
143.03299999999999
 20
128.28100000000001
 30
0.0
 11
143.03299999999999
 21
128.143
 31
0.0
  0
LINE
  5
331
  8
0
 62
     7
 10
143.03299999999999
 20
128.143
 30
0.0
 11
142.90799999999999
 21
128.143
 31
0.0
  0
LINE
  5
332
  8
0
 62
     7
 10
142.49100000000001
 20
128.143
 30
0.0
 11
142.36699999999999
 21
128.143
 31
0.0
  0
LINE
  5
333
  8
0
 62
     7
 10
143.03299999999999
 20
128.28100000000001
 30
0.0
 11
142.90799999999999
 21
128.28100000000001
 31
0.0
  0
LINE
  5
334
  8
0
 62
     7
 10
142.49100000000001
 20
128.28100000000001
 30
0.0
 11
142.36699999999999
 21
128.28100000000001
 31
0.0
  0
LINE
  5
335
  8
0
 62
     7
 10
143.11699999999999
 20
128.94
 30
0.0
 11
142.28299999999999
 21
128.94
 31
0.0
  0
LINE
  5
336
  8
0
 62
     7
 10
143.11699999999999
 20
128.86600000000001
 30
0.0
 11
142.28299999999999
 21
128.86600000000001
 31
0.0
  0
LINE
  5
337
  8
0
 62
     7
 10
142.92500000000001
 20
127.688
 30
0.0
 11
142.47499999999999
 21
127.688
 31
0.0
  0
LINE
  5
338
  8
0
 62
     7
 10
142.083
 20
128.35499999999999
 30
0.0
 11
142.083
 21
128.28100000000001
 31
0.0
  0
LINE
  5
339
  8
0
 62
     7
 10
141.959
 20
128.35499999999999
 30
0.0
 11
142.083
 21
128.35499999999999
 31
0.0
  0
LINE
  5
33A
  8
0
 62
     7
 10
141.417
 20
128.35499999999999
 30
0.0
 11
141.417
 21
128.28100000000001
 31
0.0
  0
LINE
  5
33B
  8
0
 62
     7
 10
141.541
 20
128.35499999999999
 30
0.0
 11
141.417
 21
128.35499999999999
 31
0.0
  0
LINE
  5
33C
  8
0
 62
     7
 10
141.334
 20
128.94
 30
0.0
 11
141.334
 21
128.86600000000001
 31
0.0
  0
LINE
  5
33D
  8
0
 62
     7
 10
142.167
 20
128.94
 30
0.0
 11
142.167
 21
128.86600000000001
 31
0.0
  0
LINE
  5
33E
  8
0
 62
     7
 10
141.334
 20
128.86600000000001
 30
0.0
 11
141.541
 21
128.547
 31
0.0
  0
LINE
  5
33F
  8
0
 62
     7
 10
141.958
 20
128.547
 30
0.0
 11
142.167
 21
128.86600000000001
 31
0.0
  0
LINE
  5
340
  8
0
 62
     7
 10
141.52500000000001
 20
127.688
 30
0.0
 11
141.541
 21
128.143
 31
0.0
  0
LINE
  5
341
  8
0
 62
     7
 10
141.958
 20
128.143
 30
0.0
 11
141.97499999999999
 21
127.688
 31
0.0
  0
LINE
  5
342
  8
0
 62
     7
 10
141.958
 20
128.547
 30
0.0
 11
141.958
 21
128.28100000000001
 31
0.0
  0
LINE
  5
343
  8
0
 62
     7
 10
141.541
 20
128.547
 30
0.0
 11
141.541
 21
128.28100000000001
 31
0.0
  0
LINE
  5
344
  8
0
 62
     7
 10
141.417
 20
128.28100000000001
 30
0.0
 11
141.417
 21
128.143
 31
0.0
  0
LINE
  5
345
  8
0
 62
     7
 10
142.083
 20
128.28100000000001
 30
0.0
 11
142.083
 21
128.143
 31
0.0
  0
LINE
  5
346
  8
0
 62
     7
 10
142.083
 20
128.143
 30
0.0
 11
141.958
 21
128.143
 31
0.0
  0
LINE
  5
347
  8
0
 62
     7
 10
141.541
 20
128.143
 30
0.0
 11
141.417
 21
128.143
 31
0.0
  0
LINE
  5
348
  8
0
 62
     7
 10
142.083
 20
128.28100000000001
 30
0.0
 11
141.958
 21
128.28100000000001
 31
0.0
  0
LINE
  5
349
  8
0
 62
     7
 10
141.541
 20
128.28100000000001
 30
0.0
 11
141.417
 21
128.28100000000001
 31
0.0
  0
LINE
  5
34A
  8
0
 62
     7
 10
142.167
 20
128.94
 30
0.0
 11
141.334
 21
128.94
 31
0.0
  0
LINE
  5
34B
  8
0
 62
     7
 10
142.167
 20
128.86600000000001
 30
0.0
 11
141.334
 21
128.86600000000001
 31
0.0
  0
LINE
  5
34C
  8
0
 62
     7
 10
141.97499999999999
 20
127.688
 30
0.0
 11
141.52500000000001
 21
127.688
 31
0.0
  0
LINE
  5
34D
  8
0
 62
     7
 10
141.13399999999999
 20
128.35499999999999
 30
0.0
 11
141.13399999999999
 21
128.28100000000001
 31
0.0
  0
LINE
  5
34E
  8
0
 62
     7
 10
141.00999999999999
 20
128.35499999999999
 30
0.0
 11
141.13399999999999
 21
128.35499999999999
 31
0.0
  0
LINE
  5
34F
  8
0
 62
     7
 10
140.46700000000001
 20
128.35499999999999
 30
0.0
 11
140.46700000000001
 21
128.28100000000001
 31
0.0
  0
LINE
  5
350
  8
0
 62
     7
 10
140.59100000000001
 20
128.35499999999999
 30
0.0
 11
140.46700000000001
 21
128.35499999999999
 31
0.0
  0
LINE
  5
351
  8
0
 62
     7
 10
140.38300000000001
 20
128.94
 30
0.0
 11
140.38300000000001
 21
128.86600000000001
 31
0.0
  0
LINE
  5
352
  8
0
 62
     7
 10
141.21700000000001
 20
128.94
 30
0.0
 11
141.21700000000001
 21
128.86600000000001
 31
0.0
  0
LINE
  5
353
  8
0
 62
     7
 10
140.38300000000001
 20
128.86600000000001
 30
0.0
 11
140.59100000000001
 21
128.547
 31
0.0
  0
LINE
  5
354
  8
0
 62
     7
 10
141.0079999999999
 20
128.547
 30
0.0
 11
141.21700000000001
 21
128.86600000000001
 31
0.0
  0
LINE
  5
355
  8
0
 62
     7
 10
140.57599999999999
 20
127.688
 30
0.0
 11
140.59100000000001
 21
128.143
 31
0.0
  0
LINE
  5
356
  8
0
 62
     7
 10
141.0079999999999
 20
128.143
 30
0.0
 11
141.02600000000001
 21
127.688
 31
0.0
  0
LINE
  5
357
  8
0
 62
     7
 10
141.0079999999999
 20
128.547
 30
0.0
 11
141.0079999999999
 21
128.28100000000001
 31
0.0
  0
LINE
  5
358
  8
0
 62
     7
 10
140.59100000000001
 20
128.547
 30
0.0
 11
140.59100000000001
 21
128.28100000000001
 31
0.0
  0
LINE
  5
359
  8
0
 62
     7
 10
140.46700000000001
 20
128.28100000000001
 30
0.0
 11
140.46700000000001
 21
128.143
 31
0.0
  0
LINE
  5
35A
  8
0
 62
     7
 10
141.13399999999999
 20
128.28100000000001
 30
0.0
 11
141.13399999999999
 21
128.143
 31
0.0
  0
LINE
  5
35B
  8
0
 62
     7
 10
141.13399999999999
 20
128.143
 30
0.0
 11
141.0079999999999
 21
128.143
 31
0.0
  0
LINE
  5
35C
  8
0
 62
     7
 10
140.59100000000001
 20
128.143
 30
0.0
 11
140.46700000000001
 21
128.143
 31
0.0
  0
LINE
  5
35D
  8
0
 62
     7
 10
141.13399999999999
 20
128.28100000000001
 30
0.0
 11
141.0079999999999
 21
128.28100000000001
 31
0.0
  0
LINE
  5
35E
  8
0
 62
     7
 10
140.59100000000001
 20
128.28100000000001
 30
0.0
 11
140.46700000000001
 21
128.28100000000001
 31
0.0
  0
LINE
  5
35F
  8
0
 62
     7
 10
141.21700000000001
 20
128.94
 30
0.0
 11
140.38300000000001
 21
128.94
 31
0.0
  0
LINE
  5
360
  8
0
 62
     7
 10
141.21700000000001
 20
128.86600000000001
 30
0.0
 11
140.38300000000001
 21
128.86600000000001
 31
0.0
  0
LINE
  5
361
  8
0
 62
     7
 10
141.02600000000001
 20
127.688
 30
0.0
 11
140.57599999999999
 21
127.688
 31
0.0
  0
LINE
  5
362
  8
0
 62
     7
 10
140.184
 20
128.35499999999999
 30
0.0
 11
140.184
 21
128.28100000000001
 31
0.0
  0
LINE
  5
363
  8
0
 62
     7
 10
140.06
 20
128.35499999999999
 30
0.0
 11
140.184
 21
128.35499999999999
 31
0.0
  0
LINE
  5
364
  8
0
 62
     7
 10
139.517
 20
128.35499999999999
 30
0.0
 11
139.517
 21
128.28100000000001
 31
0.0
  0
LINE
  5
365
  8
0
 62
     7
 10
139.64099999999999
 20
128.35499999999999
 30
0.0
 11
139.517
 21
128.35499999999999
 31
0.0
  0
LINE
  5
366
  8
0
 62
     7
 10
139.43299999999999
 20
128.94
 30
0.0
 11
139.43299999999999
 21
128.86600000000001
 31
0.0
  0
LINE
  5
367
  8
0
 62
     7
 10
140.267
 20
128.94
 30
0.0
 11
140.267
 21
128.86600000000001
 31
0.0
  0
LINE
  5
368
  8
0
 62
     7
 10
139.43299999999999
 20
128.86600000000001
 30
0.0
 11
139.64099999999999
 21
128.547
 31
0.0
  0
LINE
  5
369
  8
0
 62
     7
 10
140.05799999999999
 20
128.547
 30
0.0
 11
140.267
 21
128.86600000000001
 31
0.0
  0
LINE
  5
36A
  8
0
 62
     7
 10
139.625
 20
127.688
 30
0.0
 11
139.64099999999999
 21
128.143
 31
0.0
  0
LINE
  5
36B
  8
0
 62
     7
 10
140.05799999999999
 20
128.143
 30
0.0
 11
140.07499999999999
 21
127.688
 31
0.0
  0
LINE
  5
36C
  8
0
 62
     7
 10
140.05799999999999
 20
128.547
 30
0.0
 11
140.05799999999999
 21
128.28100000000001
 31
0.0
  0
LINE
  5
36D
  8
0
 62
     7
 10
139.64099999999999
 20
128.547
 30
0.0
 11
139.64099999999999
 21
128.28100000000001
 31
0.0
  0
LINE
  5
36E
  8
0
 62
     7
 10
139.517
 20
128.28100000000001
 30
0.0
 11
139.517
 21
128.143
 31
0.0
  0
LINE
  5
36F
  8
0
 62
     7
 10
140.184
 20
128.28100000000001
 30
0.0
 11
140.184
 21
128.143
 31
0.0
  0
LINE
  5
370
  8
0
 62
     7
 10
140.184
 20
128.143
 30
0.0
 11
140.05799999999999
 21
128.143
 31
0.0
  0
LINE
  5
371
  8
0
 62
     7
 10
139.64099999999999
 20
128.143
 30
0.0
 11
139.517
 21
128.143
 31
0.0
  0
LINE
  5
372
  8
0
 62
     7
 10
140.184
 20
128.28100000000001
 30
0.0
 11
140.05799999999999
 21
128.28100000000001
 31
0.0
  0
LINE
  5
373
  8
0
 62
     7
 10
139.64099999999999
 20
128.28100000000001
 30
0.0
 11
139.517
 21
128.28100000000001
 31
0.0
  0
LINE
  5
374
  8
0
 62
     7
 10
140.267
 20
128.94
 30
0.0
 11
139.43299999999999
 21
128.94
 31
0.0
  0
LINE
  5
375
  8
0
 62
     7
 10
140.267
 20
128.86600000000001
 30
0.0
 11
139.43299999999999
 21
128.86600000000001
 31
0.0
  0
LINE
  5
376
  8
0
 62
     7
 10
140.07499999999999
 20
127.688
 30
0.0
 11
139.625
 21
127.688
 31
0.0
  0
LINE
  5
377
  8
0
 62
     7
 10
101.399
 20
128.35499999999999
 30
0.0
 11
101.399
 21
128.28100000000001
 31
0.0
  0
LINE
  5
378
  8
0
 62
     7
 10
101.27500000000001
 20
128.35499999999999
 30
0.0
 11
101.399
 21
128.35499999999999
 31
0.0
  0
LINE
  5
379
  8
0
 62
     7
 10
100.733
 20
128.35499999999999
 30
0.0
 11
100.733
 21
128.28100000000001
 31
0.0
  0
LINE
  5
37A
  8
0
 62
     7
 10
100.857
 20
128.35499999999999
 30
0.0
 11
100.733
 21
128.35499999999999
 31
0.0
  0
LINE
  5
37B
  8
0
 62
     7
 10
100.649
 20
128.94
 30
0.0
 11
100.649
 21
128.86600000000001
 31
0.0
  0
LINE
  5
37C
  8
0
 62
     7
 10
101.482
 20
128.94
 30
0.0
 11
101.482
 21
128.86600000000001
 31
0.0
  0
LINE
  5
37D
  8
0
 62
     7
 10
100.649
 20
128.86600000000001
 30
0.0
 11
100.857
 21
128.547
 31
0.0
  0
LINE
  5
37E
  8
0
 62
     7
 10
101.274
 20
128.547
 30
0.0
 11
101.482
 21
128.86600000000001
 31
0.0
  0
LINE
  5
37F
  8
0
 62
     7
 10
100.84099999999999
 20
127.688
 30
0.0
 11
100.857
 21
128.143
 31
0.0
  0
LINE
  5
380
  8
0
 62
     7
 10
101.274
 20
128.143
 30
0.0
 11
101.291
 21
127.688
 31
0.0
  0
LINE
  5
381
  8
0
 62
     7
 10
101.274
 20
128.547
 30
0.0
 11
101.274
 21
128.28100000000001
 31
0.0
  0
LINE
  5
382
  8
0
 62
     7
 10
100.857
 20
128.547
 30
0.0
 11
100.857
 21
128.28100000000001
 31
0.0
  0
LINE
  5
383
  8
0
 62
     7
 10
100.733
 20
128.28100000000001
 30
0.0
 11
100.733
 21
128.143
 31
0.0
  0
LINE
  5
384
  8
0
 62
     7
 10
101.399
 20
128.28100000000001
 30
0.0
 11
101.399
 21
128.143
 31
0.0
  0
LINE
  5
385
  8
0
 62
     7
 10
101.399
 20
128.143
 30
0.0
 11
101.274
 21
128.143
 31
0.0
  0
LINE
  5
386
  8
0
 62
     7
 10
100.857
 20
128.143
 30
0.0
 11
100.733
 21
128.143
 31
0.0
  0
LINE
  5
387
  8
0
 62
     7
 10
101.399
 20
128.28100000000001
 30
0.0
 11
101.274
 21
128.28100000000001
 31
0.0
  0
LINE
  5
388
  8
0
 62
     7
 10
100.857
 20
128.28100000000001
 30
0.0
 11
100.733
 21
128.28100000000001
 31
0.0
  0
LINE
  5
389
  8
0
 62
     7
 10
101.482
 20
128.94
 30
0.0
 11
100.649
 21
128.94
 31
0.0
  0
LINE
  5
38A
  8
0
 62
     7
 10
101.482
 20
128.86600000000001
 30
0.0
 11
100.649
 21
128.86600000000001
 31
0.0
  0
LINE
  5
38B
  8
0
 62
     7
 10
101.291
 20
127.688
 30
0.0
 11
100.84099999999999
 21
127.688
 31
0.0
  0
LINE
  5
38C
  8
0
 62
     7
 10
100.449
 20
128.35499999999999
 30
0.0
 11
100.449
 21
128.28100000000001
 31
0.0
  0
LINE
  5
38D
  8
0
 62
     7
 10
100.325
 20
128.35499999999999
 30
0.0
 11
100.449
 21
128.35499999999999
 31
0.0
  0
LINE
  5
38E
  8
0
 62
     7
 10
99.782700000000006
 20
128.35499999999999
 30
0.0
 11
99.782700000000006
 21
128.28100000000001
 31
0.0
  0
LINE
  5
38F
  8
0
 62
     7
 10
99.906700000000015
 20
128.35499999999999
 30
0.0
 11
99.782700000000006
 21
128.35499999999999
 31
0.0
  0
LINE
  5
390
  8
0
 62
     7
 10
99.699299999999994
 20
128.94
 30
0.0
 11
99.699299999999994
 21
128.86600000000001
 31
0.0
  0
LINE
  5
391
  8
0
 62
     7
 10
100.533
 20
128.94
 30
0.0
 11
100.533
 21
128.86600000000001
 31
0.0
  0
LINE
  5
392
  8
0
 62
     7
 10
99.699299999999994
 20
128.86600000000001
 30
0.0
 11
99.906700000000015
 21
128.547
 31
0.0
  0
LINE
  5
393
  8
0
 62
     7
 10
100.324
 20
128.547
 30
0.0
 11
100.533
 21
128.86600000000001
 31
0.0
  0
LINE
  5
394
  8
0
 62
     7
 10
99.890800000000013
 20
127.688
 30
0.0
 11
99.906700000000015
 21
128.143
 31
0.0
  0
LINE
  5
395
  8
0
 62
     7
 10
100.324
 20
128.143
 30
0.0
 11
100.34099999999999
 21
127.688
 31
0.0
  0
LINE
  5
396
  8
0
 62
     7
 10
100.324
 20
128.547
 30
0.0
 11
100.324
 21
128.28100000000001
 31
0.0
  0
LINE
  5
397
  8
0
 62
     7
 10
99.906700000000015
 20
128.547
 30
0.0
 11
99.906700000000015
 21
128.28100000000001
 31
0.0
  0
LINE
  5
398
  8
0
 62
     7
 10
99.782700000000006
 20
128.28100000000001
 30
0.0
 11
99.782700000000006
 21
128.143
 31
0.0
  0
LINE
  5
399
  8
0
 62
     7
 10
100.449
 20
128.28100000000001
 30
0.0
 11
100.449
 21
128.143
 31
0.0
  0
LINE
  5
39A
  8
0
 62
     7
 10
100.449
 20
128.143
 30
0.0
 11
100.324
 21
128.143
 31
0.0
  0
LINE
  5
39B
  8
0
 62
     7
 10
99.906700000000015
 20
128.143
 30
0.0
 11
99.782700000000006
 21
128.143
 31
0.0
  0
LINE
  5
39C
  8
0
 62
     7
 10
100.449
 20
128.28100000000001
 30
0.0
 11
100.324
 21
128.28100000000001
 31
0.0
  0
LINE
  5
39D
  8
0
 62
     7
 10
99.906700000000015
 20
128.28100000000001
 30
0.0
 11
99.782700000000006
 21
128.28100000000001
 31
0.0
  0
LINE
  5
39E
  8
0
 62
     7
 10
100.533
 20
128.94
 30
0.0
 11
99.699299999999994
 21
128.94
 31
0.0
  0
LINE
  5
39F
  8
0
 62
     7
 10
100.533
 20
128.86600000000001
 30
0.0
 11
99.699299999999994
 21
128.86600000000001
 31
0.0
  0
LINE
  5
3A0
  8
0
 62
     7
 10
100.34099999999999
 20
127.688
 30
0.0
 11
99.890800000000013
 21
127.688
 31
0.0
  0
LINE
  5
3A1
  8
0
 62
     7
 10
99.499500000000012
 20
128.35499999999999
 30
0.0
 11
99.499500000000012
 21
128.28100000000001
 31
0.0
  0
LINE
  5
3A2
  8
0
 62
     7
 10
99.375399999999999
 20
128.35499999999999
 30
0.0
 11
99.499500000000012
 21
128.35499999999999
 31
0.0
  0
LINE
  5
3A3
  8
0
 62
     7
 10
98.833200000000005
 20
128.35499999999999
 30
0.0
 11
98.833200000000005
 21
128.28100000000001
 31
0.0
  0
LINE
  5
3A4
  8
0
 62
     7
 10
98.9572
 20
128.35499999999999
 30
0.0
 11
98.833200000000005
 21
128.35499999999999
 31
0.0
  0
LINE
  5
3A5
  8
0
 62
     7
 10
98.749099999999984
 20
128.94
 30
0.0
 11
98.749099999999984
 21
128.86600000000001
 31
0.0
  0
LINE
  5
3A6
  8
0
 62
     7
 10
99.58280000000002
 20
128.94
 30
0.0
 11
99.58280000000002
 21
128.86600000000001
 31
0.0
  0
LINE
  5
3A7
  8
0
 62
     7
 10
98.749099999999984
 20
128.86600000000001
 30
0.0
 11
98.9572
 21
128.547
 31
0.0
  0
LINE
  5
3A8
  8
0
 62
     7
 10
99.374099999999984
 20
128.547
 30
0.0
 11
99.58280000000002
 21
128.86600000000001
 31
0.0
  0
LINE
  5
3A9
  8
0
 62
     7
 10
98.941400000000002
 20
127.688
 30
0.0
 11
98.9572
 21
128.143
 31
0.0
  0
LINE
  5
3AA
  8
0
 62
     7
 10
99.374099999999984
 20
128.143
 30
0.0
 11
99.391300000000001
 21
127.688
 31
0.0
  0
LINE
  5
3AB
  8
0
 62
     7
 10
99.374099999999984
 20
128.547
 30
0.0
 11
99.374099999999984
 21
128.28100000000001
 31
0.0
  0
LINE
  5
3AC
  8
0
 62
     7
 10
98.9572
 20
128.547
 30
0.0
 11
98.9572
 21
128.28100000000001
 31
0.0
  0
LINE
  5
3AD
  8
0
 62
     7
 10
98.833200000000005
 20
128.28100000000001
 30
0.0
 11
98.833200000000005
 21
128.143
 31
0.0
  0
LINE
  5
3AE
  8
0
 62
     7
 10
99.499500000000012
 20
128.28100000000001
 30
0.0
 11
99.499500000000012
 21
128.143
 31
0.0
  0
LINE
  5
3AF
  8
0
 62
     7
 10
99.499500000000012
 20
128.143
 30
0.0
 11
99.374099999999984
 21
128.143
 31
0.0
  0
LINE
  5
3B0
  8
0
 62
     7
 10
98.9572
 20
128.143
 30
0.0
 11
98.833200000000005
 21
128.143
 31
0.0
  0
LINE
  5
3B1
  8
0
 62
     7
 10
99.499500000000012
 20
128.28100000000001
 30
0.0
 11
99.374099999999984
 21
128.28100000000001
 31
0.0
  0
LINE
  5
3B2
  8
0
 62
     7
 10
98.9572
 20
128.28100000000001
 30
0.0
 11
98.833200000000005
 21
128.28100000000001
 31
0.0
  0
LINE
  5
3B3
  8
0
 62
     7
 10
99.58280000000002
 20
128.94
 30
0.0
 11
98.749099999999984
 21
128.94
 31
0.0
  0
LINE
  5
3B4
  8
0
 62
     7
 10
99.58280000000002
 20
128.86600000000001
 30
0.0
 11
98.749099999999984
 21
128.86600000000001
 31
0.0
  0
LINE
  5
3B5
  8
0
 62
     7
 10
99.391300000000001
 20
127.688
 30
0.0
 11
98.941400000000002
 21
127.688
 31
0.0
  0
LINE
  5
3B6
  8
0
 62
     7
 10
98.549300000000017
 20
128.35499999999999
 30
0.0
 11
98.549300000000017
 21
128.28100000000001
 31
0.0
  0
LINE
  5
3B7
  8
0
 62
     7
 10
98.425299999999993
 20
128.35499999999999
 30
0.0
 11
98.549300000000017
 21
128.35499999999999
 31
0.0
  0
LINE
  5
3B8
  8
0
 62
     7
 10
97.882999999999996
 20
128.35499999999999
 30
0.0
 11
97.882999999999996
 21
128.28100000000001
 31
0.0
  0
LINE
  5
3B9
  8
0
 62
     7
 10
98.007000000000005
 20
128.35499999999999
 30
0.0
 11
97.882999999999996
 21
128.35499999999999
 31
0.0
  0
LINE
  5
3BA
  8
0
 62
     7
 10
97.798999999999992
 20
128.94
 30
0.0
 11
97.798999999999992
 21
128.86600000000001
 31
0.0
  0
LINE
  5
3BB
  8
0
 62
     7
 10
98.632699999999986
 20
128.94
 30
0.0
 11
98.632699999999986
 21
128.86600000000001
 31
0.0
  0
LINE
  5
3BC
  8
0
 62
     7
 10
97.798999999999992
 20
128.86600000000001
 30
0.0
 11
98.007000000000005
 21
128.547
 31
0.0
  0
LINE
  5
3BD
  8
0
 62
     7
 10
98.423900000000003
 20
128.547
 30
0.0
 11
98.632699999999986
 21
128.86600000000001
 31
0.0
  0
LINE
  5
3BE
  8
0
 62
     7
 10
97.991200000000021
 20
127.688
 30
0.0
 11
98.007000000000005
 21
128.143
 31
0.0
  0
LINE
  5
3BF
  8
0
 62
     7
 10
98.423900000000003
 20
128.143
 30
0.0
 11
98.441100000000006
 21
127.688
 31
0.0
  0
LINE
  5
3C0
  8
0
 62
     7
 10
98.423900000000003
 20
128.547
 30
0.0
 11
98.423900000000003
 21
128.28100000000001
 31
0.0
  0
LINE
  5
3C1
  8
0
 62
     7
 10
98.007000000000005
 20
128.547
 30
0.0
 11
98.007000000000005
 21
128.28100000000001
 31
0.0
  0
LINE
  5
3C2
  8
0
 62
     7
 10
97.882999999999996
 20
128.28100000000001
 30
0.0
 11
97.882999999999996
 21
128.143
 31
0.0
  0
LINE
  5
3C3
  8
0
 62
     7
 10
98.549300000000017
 20
128.28100000000001
 30
0.0
 11
98.549300000000017
 21
128.143
 31
0.0
  0
LINE
  5
3C4
  8
0
 62
     7
 10
98.549300000000017
 20
128.143
 30
0.0
 11
98.423900000000003
 21
128.143
 31
0.0
  0
LINE
  5
3C5
  8
0
 62
     7
 10
98.007000000000005
 20
128.143
 30
0.0
 11
97.882999999999996
 21
128.143
 31
0.0
  0
LINE
  5
3C6
  8
0
 62
     7
 10
98.549300000000017
 20
128.28100000000001
 30
0.0
 11
98.423900000000003
 21
128.28100000000001
 31
0.0
  0
LINE
  5
3C7
  8
0
 62
     7
 10
98.007000000000005
 20
128.28100000000001
 30
0.0
 11
97.882999999999996
 21
128.28100000000001
 31
0.0
  0
LINE
  5
3C8
  8
0
 62
     7
 10
98.632699999999986
 20
128.94
 30
0.0
 11
97.798999999999992
 21
128.94
 31
0.0
  0
LINE
  5
3C9
  8
0
 62
     7
 10
98.632699999999986
 20
128.86600000000001
 30
0.0
 11
97.798999999999992
 21
128.86600000000001
 31
0.0
  0
LINE
  5
3CA
  8
0
 62
     7
 10
98.441100000000006
 20
127.688
 30
0.0
 11
97.991200000000021
 21
127.688
 31
0.0
  0
LINE
  5
3CB
  8
0
 62
     7
 10
106.366
 20
128.35499999999999
 30
0.0
 11
106.366
 21
128.28100000000001
 31
0.0
  0
LINE
  5
3CC
  8
0
 62
     7
 10
106.242
 20
128.35499999999999
 30
0.0
 11
106.366
 21
128.35499999999999
 31
0.0
  0
LINE
  5
3CD
  8
0
 62
     7
 10
105.699
 20
128.35499999999999
 30
0.0
 11
105.699
 21
128.28100000000001
 31
0.0
  0
LINE
  5
3CE
  8
0
 62
     7
 10
105.82299999999999
 20
128.35499999999999
 30
0.0
 11
105.699
 21
128.35499999999999
 31
0.0
  0
LINE
  5
3CF
  8
0
 62
     7
 10
105.61499999999999
 20
128.94
 30
0.0
 11
105.61499999999999
 21
128.86600000000001
 31
0.0
  0
LINE
  5
3D0
  8
0
 62
     7
 10
106.449
 20
128.94
 30
0.0
 11
106.449
 21
128.86600000000001
 31
0.0
  0
LINE
  5
3D1
  8
0
 62
     7
 10
105.61499999999999
 20
128.86600000000001
 30
0.0
 11
105.82299999999999
 21
128.547
 31
0.0
  0
LINE
  5
3D2
  8
0
 62
     7
 10
106.23999999999999
 20
128.547
 30
0.0
 11
106.449
 21
128.86600000000001
 31
0.0
  0
LINE
  5
3D3
  8
0
 62
     7
 10
105.807
 20
127.688
 30
0.0
 11
105.82299999999999
 21
128.143
 31
0.0
  0
LINE
  5
3D4
  8
0
 62
     7
 10
106.23999999999999
 20
128.143
 30
0.0
 11
106.25700000000001
 21
127.688
 31
0.0
  0
LINE
  5
3D5
  8
0
 62
     7
 10
106.23999999999999
 20
128.547
 30
0.0
 11
106.23999999999999
 21
128.28100000000001
 31
0.0
  0
LINE
  5
3D6
  8
0
 62
     7
 10
105.82299999999999
 20
128.547
 30
0.0
 11
105.82299999999999
 21
128.28100000000001
 31
0.0
  0
LINE
  5
3D7
  8
0
 62
     7
 10
105.699
 20
128.28100000000001
 30
0.0
 11
105.699
 21
128.143
 31
0.0
  0
LINE
  5
3D8
  8
0
 62
     7
 10
106.366
 20
128.28100000000001
 30
0.0
 11
106.366
 21
128.143
 31
0.0
  0
LINE
  5
3D9
  8
0
 62
     7
 10
106.366
 20
128.143
 30
0.0
 11
106.23999999999999
 21
128.143
 31
0.0
  0
LINE
  5
3DA
  8
0
 62
     7
 10
105.82299999999999
 20
128.143
 30
0.0
 11
105.699
 21
128.143
 31
0.0
  0
LINE
  5
3DB
  8
0
 62
     7
 10
106.366
 20
128.28100000000001
 30
0.0
 11
106.23999999999999
 21
128.28100000000001
 31
0.0
  0
LINE
  5
3DC
  8
0
 62
     7
 10
105.82299999999999
 20
128.28100000000001
 30
0.0
 11
105.699
 21
128.28100000000001
 31
0.0
  0
LINE
  5
3DD
  8
0
 62
     7
 10
106.449
 20
128.94
 30
0.0
 11
105.61499999999999
 21
128.94
 31
0.0
  0
LINE
  5
3DE
  8
0
 62
     7
 10
106.449
 20
128.86600000000001
 30
0.0
 11
105.61499999999999
 21
128.86600000000001
 31
0.0
  0
LINE
  5
3DF
  8
0
 62
     7
 10
106.25700000000001
 20
127.688
 30
0.0
 11
105.807
 21
127.688
 31
0.0
  0
LINE
  5
3E0
  8
0
 62
     7
 10
105.41500000000001
 20
128.35499999999999
 30
0.0
 11
105.41500000000001
 21
128.28100000000001
 31
0.0
  0
LINE
  5
3E1
  8
0
 62
     7
 10
105.291
 20
128.35499999999999
 30
0.0
 11
105.41500000000001
 21
128.35499999999999
 31
0.0
  0
LINE
  5
3E2
  8
0
 62
     7
 10
104.749
 20
128.35499999999999
 30
0.0
 11
104.749
 21
128.28100000000001
 31
0.0
  0
LINE
  5
3E3
  8
0
 62
     7
 10
104.873
 20
128.35499999999999
 30
0.0
 11
104.749
 21
128.35499999999999
 31
0.0
  0
LINE
  5
3E4
  8
0
 62
     7
 10
104.666
 20
128.94
 30
0.0
 11
104.666
 21
128.86600000000001
 31
0.0
  0
LINE
  5
3E5
  8
0
 62
     7
 10
105.499
 20
128.94
 30
0.0
 11
105.499
 21
128.86600000000001
 31
0.0
  0
LINE
  5
3E6
  8
0
 62
     7
 10
104.666
 20
128.86600000000001
 30
0.0
 11
104.873
 21
128.547
 31
0.0
  0
LINE
  5
3E7
  8
0
 62
     7
 10
105.29000000000001
 20
128.547
 30
0.0
 11
105.499
 21
128.86600000000001
 31
0.0
  0
LINE
  5
3E8
  8
0
 62
     7
 10
104.857
 20
127.688
 30
0.0
 11
104.873
 21
128.143
 31
0.0
  0
LINE
  5
3E9
  8
0
 62
     7
 10
105.29000000000001
 20
128.143
 30
0.0
 11
105.307
 21
127.688
 31
0.0
  0
LINE
  5
3EA
  8
0
 62
     7
 10
105.29000000000001
 20
128.547
 30
0.0
 11
105.29000000000001
 21
128.28100000000001
 31
0.0
  0
LINE
  5
3EB
  8
0
 62
     7
 10
104.873
 20
128.547
 30
0.0
 11
104.873
 21
128.28100000000001
 31
0.0
  0
LINE
  5
3EC
  8
0
 62
     7
 10
104.749
 20
128.28100000000001
 30
0.0
 11
104.749
 21
128.143
 31
0.0
  0
LINE
  5
3ED
  8
0
 62
     7
 10
105.41500000000001
 20
128.28100000000001
 30
0.0
 11
105.41500000000001
 21
128.143
 31
0.0
  0
LINE
  5
3EE
  8
0
 62
     7
 10
105.41500000000001
 20
128.143
 30
0.0
 11
105.29000000000001
 21
128.143
 31
0.0
  0
LINE
  5
3EF
  8
0
 62
     7
 10
104.873
 20
128.143
 30
0.0
 11
104.749
 21
128.143
 31
0.0
  0
LINE
  5
3F0
  8
0
 62
     7
 10
105.41500000000001
 20
128.28100000000001
 30
0.0
 11
105.29000000000001
 21
128.28100000000001
 31
0.0
  0
LINE
  5
3F1
  8
0
 62
     7
 10
104.873
 20
128.28100000000001
 30
0.0
 11
104.749
 21
128.28100000000001
 31
0.0
  0
LINE
  5
3F2
  8
0
 62
     7
 10
105.499
 20
128.94
 30
0.0
 11
104.666
 21
128.94
 31
0.0
  0
LINE
  5
3F3
  8
0
 62
     7
 10
105.499
 20
128.86600000000001
 30
0.0
 11
104.666
 21
128.86600000000001
 31
0.0
  0
LINE
  5
3F4
  8
0
 62
     7
 10
105.307
 20
127.688
 30
0.0
 11
104.857
 21
127.688
 31
0.0
  0
LINE
  5
3F5
  8
0
 62
     7
 10
104.46599999999999
 20
128.35499999999999
 30
0.0
 11
104.46599999999999
 21
128.28100000000001
 31
0.0
  0
LINE
  5
3F6
  8
0
 62
     7
 10
104.342
 20
128.35499999999999
 30
0.0
 11
104.46599999999999
 21
128.35499999999999
 31
0.0
  0
LINE
  5
3F7
  8
0
 62
     7
 10
103.8
 20
128.35499999999999
 30
0.0
 11
103.8
 21
128.28100000000001
 31
0.0
  0
LINE
  5
3F8
  8
0
 62
     7
 10
103.92400000000001
 20
128.35499999999999
 30
0.0
 11
103.8
 21
128.35499999999999
 31
0.0
  0
LINE
  5
3F9
  8
0
 62
     7
 10
103.71599999999999
 20
128.94
 30
0.0
 11
103.71599999999999
 21
128.86600000000001
 31
0.0
  0
LINE
  5
3FA
  8
0
 62
     7
 10
104.54900000000001
 20
128.94
 30
0.0
 11
104.54900000000001
 21
128.86600000000001
 31
0.0
  0
LINE
  5
3FB
  8
0
 62
     7
 10
103.71599999999999
 20
128.86600000000001
 30
0.0
 11
103.92400000000001
 21
128.547
 31
0.0
  0
LINE
  5
3FC
  8
0
 62
     7
 10
104.34099999999999
 20
128.547
 30
0.0
 11
104.54900000000001
 21
128.86600000000001
 31
0.0
  0
LINE
  5
3FD
  8
0
 62
     7
 10
103.908
 20
127.688
 30
0.0
 11
103.92400000000001
 21
128.143
 31
0.0
  0
LINE
  5
3FE
  8
0
 62
     7
 10
104.34099999999999
 20
128.143
 30
0.0
 11
104.358
 21
127.688
 31
0.0
  0
LINE
  5
3FF
  8
0
 62
     7
 10
104.34099999999999
 20
128.547
 30
0.0
 11
104.34099999999999
 21
128.28100000000001
 31
0.0
  0
LINE
  5
400
  8
0
 62
     7
 10
103.92400000000001
 20
128.547
 30
0.0
 11
103.92400000000001
 21
128.28100000000001
 31
0.0
  0
LINE
  5
401
  8
0
 62
     7
 10
103.8
 20
128.28100000000001
 30
0.0
 11
103.8
 21
128.143
 31
0.0
  0
LINE
  5
402
  8
0
 62
     7
 10
104.46599999999999
 20
128.28100000000001
 30
0.0
 11
104.46599999999999
 21
128.143
 31
0.0
  0
LINE
  5
403
  8
0
 62
     7
 10
104.46599999999999
 20
128.143
 30
0.0
 11
104.34099999999999
 21
128.143
 31
0.0
  0
LINE
  5
404
  8
0
 62
     7
 10
103.92400000000001
 20
128.143
 30
0.0
 11
103.8
 21
128.143
 31
0.0
  0
LINE
  5
405
  8
0
 62
     7
 10
104.46599999999999
 20
128.28100000000001
 30
0.0
 11
104.34099999999999
 21
128.28100000000001
 31
0.0
  0
LINE
  5
406
  8
0
 62
     7
 10
103.92400000000001
 20
128.28100000000001
 30
0.0
 11
103.8
 21
128.28100000000001
 31
0.0
  0
LINE
  5
407
  8
0
 62
     7
 10
104.54900000000001
 20
128.94
 30
0.0
 11
103.71599999999999
 21
128.94
 31
0.0
  0
LINE
  5
408
  8
0
 62
     7
 10
104.54900000000001
 20
128.86600000000001
 30
0.0
 11
103.71599999999999
 21
128.86600000000001
 31
0.0
  0
LINE
  5
409
  8
0
 62
     7
 10
104.358
 20
127.688
 30
0.0
 11
103.908
 21
127.688
 31
0.0
  0
LINE
  5
40A
  8
0
 62
     7
 10
103.51600000000001
 20
128.35499999999999
 30
0.0
 11
103.51600000000001
 21
128.28100000000001
 31
0.0
  0
LINE
  5
40B
  8
0
 62
     7
 10
103.392
 20
128.35499999999999
 30
0.0
 11
103.51600000000001
 21
128.35499999999999
 31
0.0
  0
LINE
  5
40C
  8
0
 62
     7
 10
102.849
 20
128.35499999999999
 30
0.0
 11
102.849
 21
128.28100000000001
 31
0.0
  0
LINE
  5
40D
  8
0
 62
     7
 10
102.974
 20
128.35499999999999
 30
0.0
 11
102.849
 21
128.35499999999999
 31
0.0
  0
LINE
  5
40E
  8
0
 62
     7
 10
102.765
 20
128.94
 30
0.0
 11
102.765
 21
128.86600000000001
 31
0.0
  0
LINE
  5
40F
  8
0
 62
     7
 10
103.599
 20
128.94
 30
0.0
 11
103.599
 21
128.86600000000001
 31
0.0
  0
LINE
  5
410
  8
0
 62
     7
 10
102.765
 20
128.86600000000001
 30
0.0
 11
102.974
 21
128.547
 31
0.0
  0
LINE
  5
411
  8
0
 62
     7
 10
103.39
 20
128.547
 30
0.0
 11
103.599
 21
128.86600000000001
 31
0.0
  0
LINE
  5
412
  8
0
 62
     7
 10
102.958
 20
127.688
 30
0.0
 11
102.974
 21
128.143
 31
0.0
  0
LINE
  5
413
  8
0
 62
     7
 10
103.39
 20
128.143
 30
0.0
 11
103.408
 21
127.688
 31
0.0
  0
LINE
  5
414
  8
0
 62
     7
 10
103.39
 20
128.547
 30
0.0
 11
103.39
 21
128.28100000000001
 31
0.0
  0
LINE
  5
415
  8
0
 62
     7
 10
102.974
 20
128.547
 30
0.0
 11
102.974
 21
128.28100000000001
 31
0.0
  0
LINE
  5
416
  8
0
 62
     7
 10
102.849
 20
128.28100000000001
 30
0.0
 11
102.849
 21
128.143
 31
0.0
  0
LINE
  5
417
  8
0
 62
     7
 10
103.51600000000001
 20
128.28100000000001
 30
0.0
 11
103.51600000000001
 21
128.143
 31
0.0
  0
LINE
  5
418
  8
0
 62
     7
 10
103.51600000000001
 20
128.143
 30
0.0
 11
103.39
 21
128.143
 31
0.0
  0
LINE
  5
419
  8
0
 62
     7
 10
102.974
 20
128.143
 30
0.0
 11
102.849
 21
128.143
 31
0.0
  0
LINE
  5
41A
  8
0
 62
     7
 10
103.51600000000001
 20
128.28100000000001
 30
0.0
 11
103.39
 21
128.28100000000001
 31
0.0
  0
LINE
  5
41B
  8
0
 62
     7
 10
102.974
 20
128.28100000000001
 30
0.0
 11
102.849
 21
128.28100000000001
 31
0.0
  0
LINE
  5
41C
  8
0
 62
     7
 10
103.599
 20
128.94
 30
0.0
 11
102.765
 21
128.94
 31
0.0
  0
LINE
  5
41D
  8
0
 62
     7
 10
103.599
 20
128.86600000000001
 30
0.0
 11
102.765
 21
128.86600000000001
 31
0.0
  0
LINE
  5
41E
  8
0
 62
     7
 10
103.408
 20
127.688
 30
0.0
 11
102.958
 21
127.688
 31
0.0
  0
LINE
  5
41F
  8
0
 62
     7
 10
34.628799999999998
 20
128.35499999999999
 30
0.0
 11
34.628799999999998
 21
128.28100000000001
 31
0.0
  0
LINE
  5
420
  8
0
 62
     7
 10
34.5047
 20
128.35499999999999
 30
0.0
 11
34.628799999999998
 21
128.35499999999999
 31
0.0
  0
LINE
  5
421
  8
0
 62
     7
 10
33.962499999999999
 20
128.35499999999999
 30
0.0
 11
33.962499999999999
 21
128.28100000000001
 31
0.0
  0
LINE
  5
422
  8
0
 62
     7
 10
34.086500000000001
 20
128.35499999999999
 30
0.0
 11
33.962499999999999
 21
128.35499999999999
 31
0.0
  0
LINE
  5
423
  8
0
 62
     7
 10
33.878799999999998
 20
128.94
 30
0.0
 11
33.878799999999998
 21
128.86600000000001
 31
0.0
  0
LINE
  5
424
  8
0
 62
     7
 10
34.712499999999999
 20
128.94
 30
0.0
 11
34.712499999999999
 21
128.86600000000001
 31
0.0
  0
LINE
  5
425
  8
0
 62
     7
 10
33.878799999999998
 20
128.86600000000001
 30
0.0
 11
34.086500000000001
 21
128.547
 31
0.0
  0
LINE
  5
426
  8
0
 62
     7
 10
34.503399999999999
 20
128.547
 30
0.0
 11
34.712499999999999
 21
128.86600000000001
 31
0.0
  0
LINE
  5
427
  8
0
 62
     7
 10
34.070700000000002
 20
127.688
 30
0.0
 11
34.086500000000001
 21
128.143
 31
0.0
  0
LINE
  5
428
  8
0
 62
     7
 10
34.503399999999999
 20
128.143
 30
0.0
 11
34.520600000000002
 21
127.688
 31
0.0
  0
LINE
  5
429
  8
0
 62
     7
 10
34.503399999999999
 20
128.547
 30
0.0
 11
34.503399999999999
 21
128.28100000000001
 31
0.0
  0
LINE
  5
42A
  8
0
 62
     7
 10
34.086500000000001
 20
128.547
 30
0.0
 11
34.086500000000001
 21
128.28100000000001
 31
0.0
  0
LINE
  5
42B
  8
0
 62
     7
 10
33.962499999999999
 20
128.28100000000001
 30
0.0
 11
33.962499999999999
 21
128.143
 31
0.0
  0
LINE
  5
42C
  8
0
 62
     7
 10
34.628799999999998
 20
128.28100000000001
 30
0.0
 11
34.628799999999998
 21
128.143
 31
0.0
  0
LINE
  5
42D
  8
0
 62
     7
 10
34.628799999999998
 20
128.143
 30
0.0
 11
34.503399999999999
 21
128.143
 31
0.0
  0
LINE
  5
42E
  8
0
 62
     7
 10
34.086500000000001
 20
128.143
 30
0.0
 11
33.962499999999999
 21
128.143
 31
0.0
  0
LINE
  5
42F
  8
0
 62
     7
 10
34.628799999999998
 20
128.28100000000001
 30
0.0
 11
34.503399999999999
 21
128.28100000000001
 31
0.0
  0
LINE
  5
430
  8
0
 62
     7
 10
34.086500000000001
 20
128.28100000000001
 30
0.0
 11
33.962499999999999
 21
128.28100000000001
 31
0.0
  0
LINE
  5
431
  8
0
 62
     7
 10
34.712499999999999
 20
128.94
 30
0.0
 11
33.878799999999998
 21
128.94
 31
0.0
  0
LINE
  5
432
  8
0
 62
     7
 10
34.712499999999999
 20
128.86600000000001
 30
0.0
 11
33.878799999999998
 21
128.86600000000001
 31
0.0
  0
LINE
  5
433
  8
0
 62
     7
 10
34.520600000000002
 20
127.688
 30
0.0
 11
34.070700000000002
 21
127.688
 31
0.0
  0
LINE
  5
434
  8
0
 62
     7
 10
33.678899999999999
 20
128.35499999999999
 30
0.0
 11
33.678899999999999
 21
128.28100000000001
 31
0.0
  0
LINE
  5
435
  8
0
 62
     7
 10
33.554900000000004
 20
128.35499999999999
 30
0.0
 11
33.678899999999999
 21
128.35499999999999
 31
0.0
  0
LINE
  5
436
  8
0
 62
     7
 10
33.012700000000009
 20
128.35499999999999
 30
0.0
 11
33.012700000000009
 21
128.28100000000001
 31
0.0
  0
LINE
  5
437
  8
0
 62
     7
 10
33.136699999999998
 20
128.35499999999999
 30
0.0
 11
33.012700000000009
 21
128.35499999999999
 31
0.0
  0
LINE
  5
438
  8
0
 62
     7
 10
32.928899999999999
 20
128.94
 30
0.0
 11
32.928899999999999
 21
128.86600000000001
 31
0.0
  0
LINE
  5
439
  8
0
 62
     7
 10
33.762700000000002
 20
128.94
 30
0.0
 11
33.762700000000002
 21
128.86600000000001
 31
0.0
  0
LINE
  5
43A
  8
0
 62
     7
 10
32.928899999999999
 20
128.86600000000001
 30
0.0
 11
33.136699999999998
 21
128.547
 31
0.0
  0
LINE
  5
43B
  8
0
 62
     7
 10
33.5535
 20
128.547
 30
0.0
 11
33.762700000000002
 21
128.86600000000001
 31
0.0
  0
LINE
  5
43C
  8
0
 62
     7
 10
33.120800000000003
 20
127.688
 30
0.0
 11
33.136699999999998
 21
128.143
 31
0.0
  0
LINE
  5
43D
  8
0
 62
     7
 10
33.5535
 20
128.143
 30
0.0
 11
33.570799999999998
 21
127.688
 31
0.0
  0
LINE
  5
43E
  8
0
 62
     7
 10
33.5535
 20
128.547
 30
0.0
 11
33.5535
 21
128.28100000000001
 31
0.0
  0
LINE
  5
43F
  8
0
 62
     7
 10
33.136699999999998
 20
128.547
 30
0.0
 11
33.136699999999998
 21
128.28100000000001
 31
0.0
  0
LINE
  5
440
  8
0
 62
     7
 10
33.012700000000009
 20
128.28100000000001
 30
0.0
 11
33.012700000000009
 21
128.143
 31
0.0
  0
LINE
  5
441
  8
0
 62
     7
 10
33.678899999999999
 20
128.28100000000001
 30
0.0
 11
33.678899999999999
 21
128.143
 31
0.0
  0
LINE
  5
442
  8
0
 62
     7
 10
33.678899999999999
 20
128.143
 30
0.0
 11
33.5535
 21
128.143
 31
0.0
  0
LINE
  5
443
  8
0
 62
     7
 10
33.136699999999998
 20
128.143
 30
0.0
 11
33.012700000000009
 21
128.143
 31
0.0
  0
LINE
  5
444
  8
0
 62
     7
 10
33.678899999999999
 20
128.28100000000001
 30
0.0
 11
33.5535
 21
128.28100000000001
 31
0.0
  0
LINE
  5
445
  8
0
 62
     7
 10
33.136699999999998
 20
128.28100000000001
 30
0.0
 11
33.012700000000009
 21
128.28100000000001
 31
0.0
  0
LINE
  5
446
  8
0
 62
     7
 10
33.762700000000002
 20
128.94
 30
0.0
 11
32.928899999999999
 21
128.94
 31
0.0
  0
LINE
  5
447
  8
0
 62
     7
 10
33.762700000000002
 20
128.86600000000001
 30
0.0
 11
32.928899999999999
 21
128.86600000000001
 31
0.0
  0
LINE
  5
448
  8
0
 62
     7
 10
33.570799999999998
 20
127.688
 30
0.0
 11
33.120800000000003
 21
127.688
 31
0.0
  0
LINE
  5
449
  8
0
 62
     7
 10
32.729100000000003
 20
128.35499999999999
 30
0.0
 11
32.729100000000003
 21
128.28100000000001
 31
0.0
  0
LINE
  5
44A
  8
0
 62
     7
 10
32.6051
 20
128.35499999999999
 30
0.0
 11
32.729100000000003
 21
128.35499999999999
 31
0.0
  0
LINE
  5
44B
  8
0
 62
     7
 10
32.062800000000003
 20
128.35499999999999
 30
0.0
 11
32.062800000000003
 21
128.28100000000001
 31
0.0
  0
LINE
  5
44C
  8
0
 62
     7
 10
32.186900000000001
 20
128.35499999999999
 30
0.0
 11
32.062800000000003
 21
128.35499999999999
 31
0.0
  0
LINE
  5
44D
  8
0
 62
     7
 10
31.979099999999999
 20
128.94
 30
0.0
 11
31.979099999999999
 21
128.86600000000001
 31
0.0
  0
LINE
  5
44E
  8
0
 62
     7
 10
32.81280000000001
 20
128.94
 30
0.0
 11
32.81280000000001
 21
128.86600000000001
 31
0.0
  0
LINE
  5
44F
  8
0
 62
     7
 10
31.979099999999999
 20
128.86600000000001
 30
0.0
 11
32.186900000000001
 21
128.547
 31
0.0
  0
LINE
  5
450
  8
0
 62
     7
 10
32.603700000000003
 20
128.547
 30
0.0
 11
32.81280000000001
 21
128.86600000000001
 31
0.0
  0
LINE
  5
451
  8
0
 62
     7
 10
32.170999999999999
 20
127.688
 30
0.0
 11
32.186900000000001
 21
128.143
 31
0.0
  0
LINE
  5
452
  8
0
 62
     7
 10
32.603700000000003
 20
128.143
 30
0.0
 11
32.621000000000002
 21
127.688
 31
0.0
  0
LINE
  5
453
  8
0
 62
     7
 10
32.603700000000003
 20
128.547
 30
0.0
 11
32.603700000000003
 21
128.28100000000001
 31
0.0
  0
LINE
  5
454
  8
0
 62
     7
 10
32.186900000000001
 20
128.547
 30
0.0
 11
32.186900000000001
 21
128.28100000000001
 31
0.0
  0
LINE
  5
455
  8
0
 62
     7
 10
32.062800000000003
 20
128.28100000000001
 30
0.0
 11
32.062800000000003
 21
128.143
 31
0.0
  0
LINE
  5
456
  8
0
 62
     7
 10
32.729100000000003
 20
128.28100000000001
 30
0.0
 11
32.729100000000003
 21
128.143
 31
0.0
  0
LINE
  5
457
  8
0
 62
     7
 10
32.729100000000003
 20
128.143
 30
0.0
 11
32.603700000000003
 21
128.143
 31
0.0
  0
LINE
  5
458
  8
0
 62
     7
 10
32.186900000000001
 20
128.143
 30
0.0
 11
32.062800000000003
 21
128.143
 31
0.0
  0
LINE
  5
459
  8
0
 62
     7
 10
32.729100000000003
 20
128.28100000000001
 30
0.0
 11
32.603700000000003
 21
128.28100000000001
 31
0.0
  0
LINE
  5
45A
  8
0
 62
     7
 10
32.186900000000001
 20
128.28100000000001
 30
0.0
 11
32.062800000000003
 21
128.28100000000001
 31
0.0
  0
LINE
  5
45B
  8
0
 62
     7
 10
32.81280000000001
 20
128.94
 30
0.0
 11
31.979099999999999
 21
128.94
 31
0.0
  0
LINE
  5
45C
  8
0
 62
     7
 10
32.81280000000001
 20
128.86600000000001
 30
0.0
 11
31.979099999999999
 21
128.86600000000001
 31
0.0
  0
LINE
  5
45D
  8
0
 62
     7
 10
32.621000000000002
 20
127.688
 30
0.0
 11
32.170999999999999
 21
127.688
 31
0.0
  0
LINE
  5
45E
  8
0
 62
     7
 10
31.779
 20
128.35499999999999
 30
0.0
 11
31.779
 21
128.28100000000001
 31
0.0
  0
LINE
  5
45F
  8
0
 62
     7
 10
31.654900000000001
 20
128.35499999999999
 30
0.0
 11
31.779
 21
128.35499999999999
 31
0.0
  0
LINE
  5
460
  8
0
 62
     7
 10
31.1127
 20
128.35499999999999
 30
0.0
 11
31.1127
 21
128.28100000000001
 31
0.0
  0
LINE
  5
461
  8
0
 62
     7
 10
31.236699999999999
 20
128.35499999999999
 30
0.0
 11
31.1127
 21
128.35499999999999
 31
0.0
  0
LINE
  5
462
  8
0
 62
     7
 10
31.029
 20
128.94
 30
0.0
 11
31.029
 21
128.86600000000001
 31
0.0
  0
LINE
  5
463
  8
0
 62
     7
 10
31.8627
 20
128.94
 30
0.0
 11
31.8627
 21
128.86600000000001
 31
0.0
  0
LINE
  5
464
  8
0
 62
     7
 10
31.029
 20
128.86600000000001
 30
0.0
 11
31.236699999999999
 21
128.547
 31
0.0
  0
LINE
  5
465
  8
0
 62
     7
 10
31.653600000000001
 20
128.547
 30
0.0
 11
31.8627
 21
128.86600000000001
 31
0.0
  0
LINE
  5
466
  8
0
 62
     7
 10
31.2209
 20
127.688
 30
0.0
 11
31.236699999999999
 21
128.143
 31
0.0
  0
LINE
  5
467
  8
0
 62
     7
 10
31.653600000000001
 20
128.143
 30
0.0
 11
31.6708
 21
127.688
 31
0.0
  0
LINE
  5
468
  8
0
 62
     7
 10
31.653600000000001
 20
128.547
 30
0.0
 11
31.653600000000001
 21
128.28100000000001
 31
0.0
  0
LINE
  5
469
  8
0
 62
     7
 10
31.236699999999999
 20
128.547
 30
0.0
 11
31.236699999999999
 21
128.28100000000001
 31
0.0
  0
LINE
  5
46A
  8
0
 62
     7
 10
31.1127
 20
128.28100000000001
 30
0.0
 11
31.1127
 21
128.143
 31
0.0
  0
LINE
  5
46B
  8
0
 62
     7
 10
31.779
 20
128.28100000000001
 30
0.0
 11
31.779
 21
128.143
 31
0.0
  0
LINE
  5
46C
  8
0
 62
     7
 10
31.779
 20
128.143
 30
0.0
 11
31.653600000000001
 21
128.143
 31
0.0
  0
LINE
  5
46D
  8
0
 62
     7
 10
31.236699999999999
 20
128.143
 30
0.0
 11
31.1127
 21
128.143
 31
0.0
  0
LINE
  5
46E
  8
0
 62
     7
 10
31.779
 20
128.28100000000001
 30
0.0
 11
31.653600000000001
 21
128.28100000000001
 31
0.0
  0
LINE
  5
46F
  8
0
 62
     7
 10
31.236699999999999
 20
128.28100000000001
 30
0.0
 11
31.1127
 21
128.28100000000001
 31
0.0
  0
LINE
  5
470
  8
0
 62
     7
 10
31.8627
 20
128.94
 30
0.0
 11
31.029
 21
128.94
 31
0.0
  0
LINE
  5
471
  8
0
 62
     7
 10
31.8627
 20
128.86600000000001
 30
0.0
 11
31.029
 21
128.86600000000001
 31
0.0
  0
LINE
  5
472
  8
0
 62
     7
 10
31.6708
 20
127.688
 30
0.0
 11
31.2209
 21
127.688
 31
0.0
  0
LINE
  5
473
  8
0
 62
     7
 10
39.595199999999998
 20
128.35499999999999
 30
0.0
 11
39.595199999999998
 21
128.28100000000001
 31
0.0
  0
LINE
  5
474
  8
0
 62
     7
 10
39.471200000000003
 20
128.35499999999999
 30
0.0
 11
39.595199999999998
 21
128.35499999999999
 31
0.0
  0
LINE
  5
475
  8
0
 62
     7
 10
38.929000000000002
 20
128.35499999999999
 30
0.0
 11
38.929000000000002
 21
128.28100000000001
 31
0.0
  0
LINE
  5
476
  8
0
 62
     7
 10
39.052999999999997
 20
128.35499999999999
 30
0.0
 11
38.929000000000002
 21
128.35499999999999
 31
0.0
  0
LINE
  5
477
  8
0
 62
     7
 10
38.845199999999998
 20
128.94
 30
0.0
 11
38.845199999999998
 21
128.86600000000001
 31
0.0
  0
LINE
  5
478
  8
0
 62
     7
 10
39.679000000000002
 20
128.94
 30
0.0
 11
39.679000000000002
 21
128.86600000000001
 31
0.0
  0
LINE
  5
479
  8
0
 62
     7
 10
38.845199999999998
 20
128.86600000000001
 30
0.0
 11
39.052999999999997
 21
128.547
 31
0.0
  0
LINE
  5
47A
  8
0
 62
     7
 10
39.469799999999999
 20
128.547
 30
0.0
 11
39.679000000000002
 21
128.86600000000001
 31
0.0
  0
LINE
  5
47B
  8
0
 62
     7
 10
39.037100000000002
 20
127.688
 30
0.0
 11
39.052999999999997
 21
128.143
 31
0.0
  0
LINE
  5
47C
  8
0
 62
     7
 10
39.469799999999999
 20
128.143
 30
0.0
 11
39.487099999999998
 21
127.688
 31
0.0
  0
LINE
  5
47D
  8
0
 62
     7
 10
39.469799999999999
 20
128.547
 30
0.0
 11
39.469799999999999
 21
128.28100000000001
 31
0.0
  0
LINE
  5
47E
  8
0
 62
     7
 10
39.052999999999997
 20
128.547
 30
0.0
 11
39.052999999999997
 21
128.28100000000001
 31
0.0
  0
LINE
  5
47F
  8
0
 62
     7
 10
38.929000000000002
 20
128.28100000000001
 30
0.0
 11
38.929000000000002
 21
128.143
 31
0.0
  0
LINE
  5
480
  8
0
 62
     7
 10
39.595199999999998
 20
128.28100000000001
 30
0.0
 11
39.595199999999998
 21
128.143
 31
0.0
  0
LINE
  5
481
  8
0
 62
     7
 10
39.595199999999998
 20
128.143
 30
0.0
 11
39.469799999999999
 21
128.143
 31
0.0
  0
LINE
  5
482
  8
0
 62
     7
 10
39.052999999999997
 20
128.143
 30
0.0
 11
38.929000000000002
 21
128.143
 31
0.0
  0
LINE
  5
483
  8
0
 62
     7
 10
39.595199999999998
 20
128.28100000000001
 30
0.0
 11
39.469799999999999
 21
128.28100000000001
 31
0.0
  0
LINE
  5
484
  8
0
 62
     7
 10
39.052999999999997
 20
128.28100000000001
 30
0.0
 11
38.929000000000002
 21
128.28100000000001
 31
0.0
  0
LINE
  5
485
  8
0
 62
     7
 10
39.679000000000002
 20
128.94
 30
0.0
 11
38.845199999999998
 21
128.94
 31
0.0
  0
LINE
  5
486
  8
0
 62
     7
 10
39.679000000000002
 20
128.86600000000001
 30
0.0
 11
38.845199999999998
 21
128.86600000000001
 31
0.0
  0
LINE
  5
487
  8
0
 62
     7
 10
39.487099999999998
 20
127.688
 30
0.0
 11
39.037100000000002
 21
127.688
 31
0.0
  0
LINE
  5
488
  8
0
 62
     7
 10
38.645400000000002
 20
128.35499999999999
 30
0.0
 11
38.645400000000002
 21
128.28100000000001
 31
0.0
  0
LINE
  5
489
  8
0
 62
     7
 10
38.5214
 20
128.35499999999999
 30
0.0
 11
38.645400000000002
 21
128.35499999999999
 31
0.0
  0
LINE
  5
48A
  8
0
 62
     7
 10
37.979100000000003
 20
128.35499999999999
 30
0.0
 11
37.979100000000003
 21
128.28100000000001
 31
0.0
  0
LINE
  5
48B
  8
0
 62
     7
 10
38.103200000000001
 20
128.35499999999999
 30
0.0
 11
37.979100000000003
 21
128.35499999999999
 31
0.0
  0
LINE
  5
48C
  8
0
 62
     7
 10
37.895400000000009
 20
128.94
 30
0.0
 11
37.895400000000009
 21
128.86600000000001
 31
0.0
  0
LINE
  5
48D
  8
0
 62
     7
 10
38.729100000000003
 20
128.94
 30
0.0
 11
38.729100000000003
 21
128.86600000000001
 31
0.0
  0
LINE
  5
48E
  8
0
 62
     7
 10
37.895400000000009
 20
128.86600000000001
 30
0.0
 11
38.103200000000001
 21
128.547
 31
0.0
  0
LINE
  5
48F
  8
0
 62
     7
 10
38.520000000000003
 20
128.547
 30
0.0
 11
38.729100000000003
 21
128.86600000000001
 31
0.0
  0
LINE
  5
490
  8
0
 62
     7
 10
38.087299999999999
 20
127.688
 30
0.0
 11
38.103200000000001
 21
128.143
 31
0.0
  0
LINE
  5
491
  8
0
 62
     7
 10
38.520000000000003
 20
128.143
 30
0.0
 11
38.537300000000002
 21
127.688
 31
0.0
  0
LINE
  5
492
  8
0
 62
     7
 10
38.520000000000003
 20
128.547
 30
0.0
 11
38.520000000000003
 21
128.28100000000001
 31
0.0
  0
LINE
  5
493
  8
0
 62
     7
 10
38.103200000000001
 20
128.547
 30
0.0
 11
38.103200000000001
 21
128.28100000000001
 31
0.0
  0
LINE
  5
494
  8
0
 62
     7
 10
37.979100000000003
 20
128.28100000000001
 30
0.0
 11
37.979100000000003
 21
128.143
 31
0.0
  0
LINE
  5
495
  8
0
 62
     7
 10
38.645400000000002
 20
128.28100000000001
 30
0.0
 11
38.645400000000002
 21
128.143
 31
0.0
  0
LINE
  5
496
  8
0
 62
     7
 10
38.645400000000002
 20
128.143
 30
0.0
 11
38.520000000000003
 21
128.143
 31
0.0
  0
LINE
  5
497
  8
0
 62
     7
 10
38.103200000000001
 20
128.143
 30
0.0
 11
37.979100000000003
 21
128.143
 31
0.0
  0
LINE
  5
498
  8
0
 62
     7
 10
38.645400000000002
 20
128.28100000000001
 30
0.0
 11
38.520000000000003
 21
128.28100000000001
 31
0.0
  0
LINE
  5
499
  8
0
 62
     7
 10
38.103200000000001
 20
128.28100000000001
 30
0.0
 11
37.979100000000003
 21
128.28100000000001
 31
0.0
  0
LINE
  5
49A
  8
0
 62
     7
 10
38.729100000000003
 20
128.94
 30
0.0
 11
37.895400000000009
 21
128.94
 31
0.0
  0
LINE
  5
49B
  8
0
 62
     7
 10
38.729100000000003
 20
128.86600000000001
 30
0.0
 11
37.895400000000009
 21
128.86600000000001
 31
0.0
  0
LINE
  5
49C
  8
0
 62
     7
 10
38.537300000000002
 20
127.688
 30
0.0
 11
38.087299999999999
 21
127.688
 31
0.0
  0
LINE
  5
49D
  8
0
 62
     7
 10
37.695599999999999
 20
128.35499999999999
 30
0.0
 11
37.695599999999999
 21
128.28100000000001
 31
0.0
  0
LINE
  5
49E
  8
0
 62
     7
 10
37.571599999999997
 20
128.35499999999999
 30
0.0
 11
37.695599999999999
 21
128.35499999999999
 31
0.0
  0
LINE
  5
49F
  8
0
 62
     7
 10
37.029299999999999
 20
128.35499999999999
 30
0.0
 11
37.029299999999999
 21
128.28100000000001
 31
0.0
  0
LINE
  5
4A0
  8
0
 62
     7
 10
37.153399999999998
 20
128.35499999999999
 30
0.0
 11
37.029299999999999
 21
128.35499999999999
 31
0.0
  0
LINE
  5
4A1
  8
0
 62
     7
 10
36.945599999999999
 20
128.94
 30
0.0
 11
36.945599999999999
 21
128.86600000000001
 31
0.0
  0
LINE
  5
4A2
  8
0
 62
     7
 10
37.779299999999999
 20
128.94
 30
0.0
 11
37.779299999999999
 21
128.86600000000001
 31
0.0
  0
LINE
  5
4A3
  8
0
 62
     7
 10
36.945599999999999
 20
128.86600000000001
 30
0.0
 11
37.153399999999998
 21
128.547
 31
0.0
  0
LINE
  5
4A4
  8
0
 62
     7
 10
37.5702
 20
128.547
 30
0.0
 11
37.779299999999999
 21
128.86600000000001
 31
0.0
  0
LINE
  5
4A5
  8
0
 62
     7
 10
37.137500000000003
 20
127.688
 30
0.0
 11
37.153399999999998
 21
128.143
 31
0.0
  0
LINE
  5
4A6
  8
0
 62
     7
 10
37.5702
 20
128.143
 30
0.0
 11
37.587400000000002
 21
127.688
 31
0.0
  0
LINE
  5
4A7
  8
0
 62
     7
 10
37.5702
 20
128.547
 30
0.0
 11
37.5702
 21
128.28100000000001
 31
0.0
  0
LINE
  5
4A8
  8
0
 62
     7
 10
37.153399999999998
 20
128.547
 30
0.0
 11
37.153399999999998
 21
128.28100000000001
 31
0.0
  0
LINE
  5
4A9
  8
0
 62
     7
 10
37.029299999999999
 20
128.28100000000001
 30
0.0
 11
37.029299999999999
 21
128.143
 31
0.0
  0
LINE
  5
4AA
  8
0
 62
     7
 10
37.695599999999999
 20
128.28100000000001
 30
0.0
 11
37.695599999999999
 21
128.143
 31
0.0
  0
LINE
  5
4AB
  8
0
 62
     7
 10
37.695599999999999
 20
128.143
 30
0.0
 11
37.5702
 21
128.143
 31
0.0
  0
LINE
  5
4AC
  8
0
 62
     7
 10
37.153399999999998
 20
128.143
 30
0.0
 11
37.029299999999999
 21
128.143
 31
0.0
  0
LINE
  5
4AD
  8
0
 62
     7
 10
37.695599999999999
 20
128.28100000000001
 30
0.0
 11
37.5702
 21
128.28100000000001
 31
0.0
  0
LINE
  5
4AE
  8
0
 62
     7
 10
37.153399999999998
 20
128.28100000000001
 30
0.0
 11
37.029299999999999
 21
128.28100000000001
 31
0.0
  0
LINE
  5
4AF
  8
0
 62
     7
 10
37.779299999999999
 20
128.94
 30
0.0
 11
36.945599999999999
 21
128.94
 31
0.0
  0
LINE
  5
4B0
  8
0
 62
     7
 10
37.779299999999999
 20
128.86600000000001
 30
0.0
 11
36.945599999999999
 21
128.86600000000001
 31
0.0
  0
LINE
  5
4B1
  8
0
 62
     7
 10
37.587400000000002
 20
127.688
 30
0.0
 11
37.137500000000003
 21
127.688
 31
0.0
  0
LINE
  5
4B2
  8
0
 62
     7
 10
36.745399999999997
 20
128.35499999999999
 30
0.0
 11
36.745399999999997
 21
128.28100000000001
 31
0.0
  0
LINE
  5
4B3
  8
0
 62
     7
 10
36.621400000000001
 20
128.35499999999999
 30
0.0
 11
36.745399999999997
 21
128.35499999999999
 31
0.0
  0
LINE
  5
4B4
  8
0
 62
     7
 10
36.0792
 20
128.35499999999999
 30
0.0
 11
36.0792
 21
128.28100000000001
 31
0.0
  0
LINE
  5
4B5
  8
0
 62
     7
 10
36.203200000000002
 20
128.35499999999999
 30
0.0
 11
36.0792
 21
128.35499999999999
 31
0.0
  0
LINE
  5
4B6
  8
0
 62
     7
 10
35.995399999999997
 20
128.94
 30
0.0
 11
35.995399999999997
 21
128.86600000000001
 31
0.0
  0
LINE
  5
4B7
  8
0
 62
     7
 10
36.8292
 20
128.94
 30
0.0
 11
36.8292
 21
128.86600000000001
 31
0.0
  0
LINE
  5
4B8
  8
0
 62
     7
 10
35.995399999999997
 20
128.86600000000001
 30
0.0
 11
36.203200000000002
 21
128.547
 31
0.0
  0
LINE
  5
4B9
  8
0
 62
     7
 10
36.619999999999997
 20
128.547
 30
0.0
 11
36.8292
 21
128.86600000000001
 31
0.0
  0
LINE
  5
4BA
  8
0
 62
     7
 10
36.1873
 20
127.688
 30
0.0
 11
36.203200000000002
 21
128.143
 31
0.0
  0
LINE
  5
4BB
  8
0
 62
     7
 10
36.619999999999997
 20
128.143
 30
0.0
 11
36.63730000000001
 21
127.688
 31
0.0
  0
LINE
  5
4BC
  8
0
 62
     7
 10
36.619999999999997
 20
128.547
 30
0.0
 11
36.619999999999997
 21
128.28100000000001
 31
0.0
  0
LINE
  5
4BD
  8
0
 62
     7
 10
36.203200000000002
 20
128.547
 30
0.0
 11
36.203200000000002
 21
128.28100000000001
 31
0.0
  0
LINE
  5
4BE
  8
0
 62
     7
 10
36.0792
 20
128.28100000000001
 30
0.0
 11
36.0792
 21
128.143
 31
0.0
  0
LINE
  5
4BF
  8
0
 62
     7
 10
36.745399999999997
 20
128.28100000000001
 30
0.0
 11
36.745399999999997
 21
128.143
 31
0.0
  0
LINE
  5
4C0
  8
0
 62
     7
 10
36.745399999999997
 20
128.143
 30
0.0
 11
36.619999999999997
 21
128.143
 31
0.0
  0
LINE
  5
4C1
  8
0
 62
     7
 10
36.203200000000002
 20
128.143
 30
0.0
 11
36.0792
 21
128.143
 31
0.0
  0
LINE
  5
4C2
  8
0
 62
     7
 10
36.745399999999997
 20
128.28100000000001
 30
0.0
 11
36.619999999999997
 21
128.28100000000001
 31
0.0
  0
LINE
  5
4C3
  8
0
 62
     7
 10
36.203200000000002
 20
128.28100000000001
 30
0.0
 11
36.0792
 21
128.28100000000001
 31
0.0
  0
LINE
  5
4C4
  8
0
 62
     7
 10
36.8292
 20
128.94
 30
0.0
 11
35.995399999999997
 21
128.94
 31
0.0
  0
LINE
  5
4C5
  8
0
 62
     7
 10
36.8292
 20
128.86600000000001
 30
0.0
 11
35.995399999999997
 21
128.86600000000001
 31
0.0
  0
LINE
  5
4C6
  8
0
 62
     7
 10
36.63730000000001
 20
127.688
 30
0.0
 11
36.1873
 21
127.688
 31
0.0
  0
LINE
  5
4C7
  8
0
 62
     7
 10
-17.771100000000001
 20
128.35499999999999
 30
0.0
 11
-17.771100000000001
 21
128.28100000000001
 31
0.0
  0
LINE
  5
4C8
  8
0
 62
     7
 10
-17.647099999999998
 20
128.35499999999999
 30
0.0
 11
-17.771100000000001
 21
128.35499999999999
 31
0.0
  0
LINE
  5
4C9
  8
0
 62
     7
 10
-17.104800000000001
 20
128.35499999999999
 30
0.0
 11
-17.104800000000001
 21
128.28100000000001
 31
0.0
  0
LINE
  5
4CA
  8
0
 62
     7
 10
-17.228899999999999
 20
128.35499999999999
 30
0.0
 11
-17.104800000000001
 21
128.35499999999999
 31
0.0
  0
LINE
  5
4CB
  8
0
 62
     7
 10
-17.021100000000001
 20
128.94
 30
0.0
 11
-17.021100000000001
 21
128.86600000000001
 31
0.0
  0
LINE
  5
4CC
  8
0
 62
     7
 10
-17.854800000000001
 20
128.94
 30
0.0
 11
-17.854800000000001
 21
128.86600000000001
 31
0.0
  0
LINE
  5
4CD
  8
0
 62
     7
 10
-17.021100000000001
 20
128.86600000000001
 30
0.0
 11
-17.228899999999999
 21
128.547
 31
0.0
  0
LINE
  5
4CE
  8
0
 62
     7
 10
-17.645700000000001
 20
128.547
 30
0.0
 11
-17.854800000000001
 21
128.86600000000001
 31
0.0
  0
LINE
  5
4CF
  8
0
 62
     7
 10
-17.213000000000001
 20
127.688
 30
0.0
 11
-17.228899999999999
 21
128.143
 31
0.0
  0
LINE
  5
4D0
  8
0
 62
     7
 10
-17.645700000000001
 20
128.143
 30
0.0
 11
-17.6629
 21
127.688
 31
0.0
  0
LINE
  5
4D1
  8
0
 62
     7
 10
-17.645700000000001
 20
128.547
 30
0.0
 11
-17.645700000000001
 21
128.28100000000001
 31
0.0
  0
LINE
  5
4D2
  8
0
 62
     7
 10
-17.228899999999999
 20
128.547
 30
0.0
 11
-17.228899999999999
 21
128.28100000000001
 31
0.0
  0
LINE
  5
4D3
  8
0
 62
     7
 10
-17.104800000000001
 20
128.28100000000001
 30
0.0
 11
-17.104800000000001
 21
128.143
 31
0.0
  0
LINE
  5
4D4
  8
0
 62
     7
 10
-17.771100000000001
 20
128.28100000000001
 30
0.0
 11
-17.771100000000001
 21
128.143
 31
0.0
  0
LINE
  5
4D5
  8
0
 62
     7
 10
-17.771100000000001
 20
128.143
 30
0.0
 11
-17.645700000000001
 21
128.143
 31
0.0
  0
LINE
  5
4D6
  8
0
 62
     7
 10
-17.228899999999999
 20
128.143
 30
0.0
 11
-17.104800000000001
 21
128.143
 31
0.0
  0
LINE
  5
4D7
  8
0
 62
     7
 10
-17.771100000000001
 20
128.28100000000001
 30
0.0
 11
-17.645700000000001
 21
128.28100000000001
 31
0.0
  0
LINE
  5
4D8
  8
0
 62
     7
 10
-17.228899999999999
 20
128.28100000000001
 30
0.0
 11
-17.104800000000001
 21
128.28100000000001
 31
0.0
  0
LINE
  5
4D9
  8
0
 62
     7
 10
-17.854800000000001
 20
128.94
 30
0.0
 11
-17.021100000000001
 21
128.94
 31
0.0
  0
LINE
  5
4DA
  8
0
 62
     7
 10
-17.854800000000001
 20
128.86600000000001
 30
0.0
 11
-17.021100000000001
 21
128.86600000000001
 31
0.0
  0
LINE
  5
4DB
  8
0
 62
     7
 10
-17.6629
 20
127.688
 30
0.0
 11
-17.213000000000001
 21
127.688
 31
0.0
  0
LINE
  5
4DC
  8
0
 62
     7
 10
-16.821300000000001
 20
128.35499999999999
 30
0.0
 11
-16.821300000000001
 21
128.28100000000001
 31
0.0
  0
LINE
  5
4DD
  8
0
 62
     7
 10
-16.697299999999998
 20
128.35499999999999
 30
0.0
 11
-16.821300000000001
 21
128.35499999999999
 31
0.0
  0
LINE
  5
4DE
  8
0
 62
     7
 10
-16.155000000000001
 20
128.35499999999999
 30
0.0
 11
-16.155000000000001
 21
128.28100000000001
 31
0.0
  0
LINE
  5
4DF
  8
0
 62
     7
 10
-16.279
 20
128.35499999999999
 30
0.0
 11
-16.155000000000001
 21
128.35499999999999
 31
0.0
  0
LINE
  5
4E0
  8
0
 62
     7
 10
-16.071300000000001
 20
128.94
 30
0.0
 11
-16.071300000000001
 21
128.86600000000001
 31
0.0
  0
LINE
  5
4E1
  8
0
 62
     7
 10
-16.905000000000001
 20
128.94
 30
0.0
 11
-16.905000000000001
 21
128.86600000000001
 31
0.0
  0
LINE
  5
4E2
  8
0
 62
     7
 10
-16.071300000000001
 20
128.86600000000001
 30
0.0
 11
-16.279
 21
128.547
 31
0.0
  0
LINE
  5
4E3
  8
0
 62
     7
 10
-16.695900000000002
 20
128.547
 30
0.0
 11
-16.905000000000001
 21
128.86600000000001
 31
0.0
  0
LINE
  5
4E4
  8
0
 62
     7
 10
-16.263200000000001
 20
127.688
 30
0.0
 11
-16.279
 21
128.143
 31
0.0
  0
LINE
  5
4E5
  8
0
 62
     7
 10
-16.695900000000002
 20
128.143
 30
0.0
 11
-16.713100000000001
 21
127.688
 31
0.0
  0
LINE
  5
4E6
  8
0
 62
     7
 10
-16.695900000000002
 20
128.547
 30
0.0
 11
-16.695900000000002
 21
128.28100000000001
 31
0.0
  0
LINE
  5
4E7
  8
0
 62
     7
 10
-16.279
 20
128.547
 30
0.0
 11
-16.279
 21
128.28100000000001
 31
0.0
  0
LINE
  5
4E8
  8
0
 62
     7
 10
-16.155000000000001
 20
128.28100000000001
 30
0.0
 11
-16.155000000000001
 21
128.143
 31
0.0
  0
LINE
  5
4E9
  8
0
 62
     7
 10
-16.821300000000001
 20
128.28100000000001
 30
0.0
 11
-16.821300000000001
 21
128.143
 31
0.0
  0
LINE
  5
4EA
  8
0
 62
     7
 10
-16.821300000000001
 20
128.143
 30
0.0
 11
-16.695900000000002
 21
128.143
 31
0.0
  0
LINE
  5
4EB
  8
0
 62
     7
 10
-16.279
 20
128.143
 30
0.0
 11
-16.155000000000001
 21
128.143
 31
0.0
  0
LINE
  5
4EC
  8
0
 62
     7
 10
-16.821300000000001
 20
128.28100000000001
 30
0.0
 11
-16.695900000000002
 21
128.28100000000001
 31
0.0
  0
LINE
  5
4ED
  8
0
 62
     7
 10
-16.279
 20
128.28100000000001
 30
0.0
 11
-16.155000000000001
 21
128.28100000000001
 31
0.0
  0
LINE
  5
4EE
  8
0
 62
     7
 10
-16.905000000000001
 20
128.94
 30
0.0
 11
-16.071300000000001
 21
128.94
 31
0.0
  0
LINE
  5
4EF
  8
0
 62
     7
 10
-16.905000000000001
 20
128.86600000000001
 30
0.0
 11
-16.071300000000001
 21
128.86600000000001
 31
0.0
  0
LINE
  5
4F0
  8
0
 62
     7
 10
-16.713100000000001
 20
127.688
 30
0.0
 11
-16.263200000000001
 21
127.688
 31
0.0
  0
LINE
  5
4F1
  8
0
 62
     7
 10
-15.871499999999999
 20
128.35499999999999
 30
0.0
 11
-15.871499999999999
 21
128.28100000000001
 31
0.0
  0
LINE
  5
4F2
  8
0
 62
     7
 10
-15.7475
 20
128.35499999999999
 30
0.0
 11
-15.871499999999999
 21
128.35499999999999
 31
0.0
  0
LINE
  5
4F3
  8
0
 62
     7
 10
-15.2052
 20
128.35499999999999
 30
0.0
 11
-15.2052
 21
128.28100000000001
 31
0.0
  0
LINE
  5
4F4
  8
0
 62
     7
 10
-15.3292
 20
128.35499999999999
 30
0.0
 11
-15.2052
 21
128.35499999999999
 31
0.0
  0
LINE
  5
4F5
  8
0
 62
     7
 10
-15.121499999999999
 20
128.94
 30
0.0
 11
-15.121499999999999
 21
128.86600000000001
 31
0.0
  0
LINE
  5
4F6
  8
0
 62
     7
 10
-15.9552
 20
128.94
 30
0.0
 11
-15.9552
 21
128.86600000000001
 31
0.0
  0
LINE
  5
4F7
  8
0
 62
     7
 10
-15.121499999999999
 20
128.86600000000001
 30
0.0
 11
-15.3292
 21
128.547
 31
0.0
  0
LINE
  5
4F8
  8
0
 62
     7
 10
-15.7461
 20
128.547
 30
0.0
 11
-15.9552
 21
128.86600000000001
 31
0.0
  0
LINE
  5
4F9
  8
0
 62
     7
 10
-15.3134
 20
127.688
 30
0.0
 11
-15.3292
 21
128.143
 31
0.0
  0
LINE
  5
4FA
  8
0
 62
     7
 10
-15.7461
 20
128.143
 30
0.0
 11
-15.763299999999999
 21
127.688
 31
0.0
  0
LINE
  5
4FB
  8
0
 62
     7
 10
-15.7461
 20
128.547
 30
0.0
 11
-15.7461
 21
128.28100000000001
 31
0.0
  0
LINE
  5
4FC
  8
0
 62
     7
 10
-15.3292
 20
128.547
 30
0.0
 11
-15.3292
 21
128.28100000000001
 31
0.0
  0
LINE
  5
4FD
  8
0
 62
     7
 10
-15.2052
 20
128.28100000000001
 30
0.0
 11
-15.2052
 21
128.143
 31
0.0
  0
LINE
  5
4FE
  8
0
 62
     7
 10
-15.871499999999999
 20
128.28100000000001
 30
0.0
 11
-15.871499999999999
 21
128.143
 31
0.0
  0
LINE
  5
4FF
  8
0
 62
     7
 10
-15.871499999999999
 20
128.143
 30
0.0
 11
-15.7461
 21
128.143
 31
0.0
  0
LINE
  5
500
  8
0
 62
     7
 10
-15.3292
 20
128.143
 30
0.0
 11
-15.2052
 21
128.143
 31
0.0
  0
LINE
  5
501
  8
0
 62
     7
 10
-15.871499999999999
 20
128.28100000000001
 30
0.0
 11
-15.7461
 21
128.28100000000001
 31
0.0
  0
LINE
  5
502
  8
0
 62
     7
 10
-15.3292
 20
128.28100000000001
 30
0.0
 11
-15.2052
 21
128.28100000000001
 31
0.0
  0
LINE
  5
503
  8
0
 62
     7
 10
-15.9552
 20
128.94
 30
0.0
 11
-15.121499999999999
 21
128.94
 31
0.0
  0
LINE
  5
504
  8
0
 62
     7
 10
-15.9552
 20
128.86600000000001
 30
0.0
 11
-15.121499999999999
 21
128.86600000000001
 31
0.0
  0
LINE
  5
505
  8
0
 62
     7
 10
-15.763299999999999
 20
127.688
 30
0.0
 11
-15.3134
 21
127.688
 31
0.0
  0
LINE
  5
506
  8
0
 62
     7
 10
-14.9213
 20
128.35499999999999
 30
0.0
 11
-14.9213
 21
128.28100000000001
 31
0.0
  0
LINE
  5
507
  8
0
 62
     7
 10
-14.7973
 20
128.35499999999999
 30
0.0
 11
-14.9213
 21
128.35499999999999
 31
0.0
  0
LINE
  5
508
  8
0
 62
     7
 10
-14.255000000000001
 20
128.35499999999999
 30
0.0
 11
-14.255000000000001
 21
128.28100000000001
 31
0.0
  0
LINE
  5
509
  8
0
 62
     7
 10
-14.379099999999999
 20
128.35499999999999
 30
0.0
 11
-14.255000000000001
 21
128.35499999999999
 31
0.0
  0
LINE
  5
50A
  8
0
 62
     7
 10
-14.1713
 20
128.94
 30
0.0
 11
-14.1713
 21
128.86600000000001
 31
0.0
  0
LINE
  5
50B
  8
0
 62
     7
 10
-15.005000000000001
 20
128.94
 30
0.0
 11
-15.005000000000001
 21
128.86600000000001
 31
0.0
  0
LINE
  5
50C
  8
0
 62
     7
 10
-14.1713
 20
128.86600000000001
 30
0.0
 11
-14.379099999999999
 21
128.547
 31
0.0
  0
LINE
  5
50D
  8
0
 62
     7
 10
-14.7959
 20
128.547
 30
0.0
 11
-15.005000000000001
 21
128.86600000000001
 31
0.0
  0
LINE
  5
50E
  8
0
 62
     7
 10
-14.363200000000001
 20
127.688
 30
0.0
 11
-14.379099999999999
 21
128.143
 31
0.0
  0
LINE
  5
50F
  8
0
 62
     7
 10
-14.7959
 20
128.143
 30
0.0
 11
-14.8131
 21
127.688
 31
0.0
  0
LINE
  5
510
  8
0
 62
     7
 10
-14.7959
 20
128.547
 30
0.0
 11
-14.7959
 21
128.28100000000001
 31
0.0
  0
LINE
  5
511
  8
0
 62
     7
 10
-14.379099999999999
 20
128.547
 30
0.0
 11
-14.379099999999999
 21
128.28100000000001
 31
0.0
  0
LINE
  5
512
  8
0
 62
     7
 10
-14.255000000000001
 20
128.28100000000001
 30
0.0
 11
-14.255000000000001
 21
128.143
 31
0.0
  0
LINE
  5
513
  8
0
 62
     7
 10
-14.9213
 20
128.28100000000001
 30
0.0
 11
-14.9213
 21
128.143
 31
0.0
  0
LINE
  5
514
  8
0
 62
     7
 10
-14.9213
 20
128.143
 30
0.0
 11
-14.7959
 21
128.143
 31
0.0
  0
LINE
  5
515
  8
0
 62
     7
 10
-14.379099999999999
 20
128.143
 30
0.0
 11
-14.255000000000001
 21
128.143
 31
0.0
  0
LINE
  5
516
  8
0
 62
     7
 10
-14.9213
 20
128.28100000000001
 30
0.0
 11
-14.7959
 21
128.28100000000001
 31
0.0
  0
LINE
  5
517
  8
0
 62
     7
 10
-14.379099999999999
 20
128.28100000000001
 30
0.0
 11
-14.255000000000001
 21
128.28100000000001
 31
0.0
  0
LINE
  5
518
  8
0
 62
     7
 10
-15.005000000000001
 20
128.94
 30
0.0
 11
-14.1713
 21
128.94
 31
0.0
  0
LINE
  5
519
  8
0
 62
     7
 10
-15.005000000000001
 20
128.86600000000001
 30
0.0
 11
-14.1713
 21
128.86600000000001
 31
0.0
  0
LINE
  5
51A
  8
0
 62
     7
 10
-14.8131
 20
127.688
 30
0.0
 11
-14.363200000000001
 21
127.688
 31
0.0
  0
LINE
  5
51B
  8
0
 62
     7
 10
-22.7376
 20
128.35499999999999
 30
0.0
 11
-22.7376
 21
128.28100000000001
 31
0.0
  0
LINE
  5
51C
  8
0
 62
     7
 10
-22.613600000000002
 20
128.35499999999999
 30
0.0
 11
-22.7376
 21
128.35499999999999
 31
0.0
  0
LINE
  5
51D
  8
0
 62
     7
 10
-22.071300000000001
 20
128.35499999999999
 30
0.0
 11
-22.071300000000001
 21
128.28100000000001
 31
0.0
  0
LINE
  5
51E
  8
0
 62
     7
 10
-22.1953
 20
128.35499999999999
 30
0.0
 11
-22.071300000000001
 21
128.35499999999999
 31
0.0
  0
LINE
  5
51F
  8
0
 62
     7
 10
-21.9876
 20
128.94
 30
0.0
 11
-21.9876
 21
128.86600000000001
 31
0.0
  0
LINE
  5
520
  8
0
 62
     7
 10
-22.821300000000001
 20
128.94
 30
0.0
 11
-22.821300000000001
 21
128.86600000000001
 31
0.0
  0
LINE
  5
521
  8
0
 62
     7
 10
-21.9876
 20
128.86600000000001
 30
0.0
 11
-22.1953
 21
128.547
 31
0.0
  0
LINE
  5
522
  8
0
 62
     7
 10
-22.612200000000001
 20
128.547
 30
0.0
 11
-22.821300000000001
 21
128.86600000000001
 31
0.0
  0
LINE
  5
523
  8
0
 62
     7
 10
-22.179500000000001
 20
127.688
 30
0.0
 11
-22.1953
 21
128.143
 31
0.0
  0
LINE
  5
524
  8
0
 62
     7
 10
-22.612200000000001
 20
128.143
 30
0.0
 11
-22.6294
 21
127.688
 31
0.0
  0
LINE
  5
525
  8
0
 62
     7
 10
-22.612200000000001
 20
128.547
 30
0.0
 11
-22.612200000000001
 21
128.28100000000001
 31
0.0
  0
LINE
  5
526
  8
0
 62
     7
 10
-22.1953
 20
128.547
 30
0.0
 11
-22.1953
 21
128.28100000000001
 31
0.0
  0
LINE
  5
527
  8
0
 62
     7
 10
-22.071300000000001
 20
128.28100000000001
 30
0.0
 11
-22.071300000000001
 21
128.143
 31
0.0
  0
LINE
  5
528
  8
0
 62
     7
 10
-22.7376
 20
128.28100000000001
 30
0.0
 11
-22.7376
 21
128.143
 31
0.0
  0
LINE
  5
529
  8
0
 62
     7
 10
-22.7376
 20
128.143
 30
0.0
 11
-22.612200000000001
 21
128.143
 31
0.0
  0
LINE
  5
52A
  8
0
 62
     7
 10
-22.1953
 20
128.143
 30
0.0
 11
-22.071300000000001
 21
128.143
 31
0.0
  0
LINE
  5
52B
  8
0
 62
     7
 10
-22.7376
 20
128.28100000000001
 30
0.0
 11
-22.612200000000001
 21
128.28100000000001
 31
0.0
  0
LINE
  5
52C
  8
0
 62
     7
 10
-22.1953
 20
128.28100000000001
 30
0.0
 11
-22.071300000000001
 21
128.28100000000001
 31
0.0
  0
LINE
  5
52D
  8
0
 62
     7
 10
-22.821300000000001
 20
128.94
 30
0.0
 11
-21.9876
 21
128.94
 31
0.0
  0
LINE
  5
52E
  8
0
 62
     7
 10
-22.821300000000001
 20
128.86600000000001
 30
0.0
 11
-21.9876
 21
128.86600000000001
 31
0.0
  0
LINE
  5
52F
  8
0
 62
     7
 10
-22.6294
 20
127.688
 30
0.0
 11
-22.179500000000001
 21
127.688
 31
0.0
  0
LINE
  5
530
  8
0
 62
     7
 10
-21.787800000000001
 20
128.35499999999999
 30
0.0
 11
-21.787800000000001
 21
128.28100000000001
 31
0.0
  0
LINE
  5
531
  8
0
 62
     7
 10
-21.663799999999998
 20
128.35499999999999
 30
0.0
 11
-21.787800000000001
 21
128.35499999999999
 31
0.0
  0
LINE
  5
532
  8
0
 62
     7
 10
-21.121500000000001
 20
128.35499999999999
 30
0.0
 11
-21.121500000000001
 21
128.28100000000001
 31
0.0
  0
LINE
  5
533
  8
0
 62
     7
 10
-21.2455
 20
128.35499999999999
 30
0.0
 11
-21.121500000000001
 21
128.35499999999999
 31
0.0
  0
LINE
  5
534
  8
0
 62
     7
 10
-21.037800000000001
 20
128.94
 30
0.0
 11
-21.037800000000001
 21
128.86600000000001
 31
0.0
  0
LINE
  5
535
  8
0
 62
     7
 10
-21.871500000000001
 20
128.94
 30
0.0
 11
-21.871500000000001
 21
128.86600000000001
 31
0.0
  0
LINE
  5
536
  8
0
 62
     7
 10
-21.037800000000001
 20
128.86600000000001
 30
0.0
 11
-21.2455
 21
128.547
 31
0.0
  0
LINE
  5
537
  8
0
 62
     7
 10
-21.662400000000002
 20
128.547
 30
0.0
 11
-21.871500000000001
 21
128.86600000000001
 31
0.0
  0
LINE
  5
538
  8
0
 62
     7
 10
-21.229700000000001
 20
127.688
 30
0.0
 11
-21.2455
 21
128.143
 31
0.0
  0
LINE
  5
539
  8
0
 62
     7
 10
-21.662400000000002
 20
128.143
 30
0.0
 11
-21.679600000000001
 21
127.688
 31
0.0
  0
LINE
  5
53A
  8
0
 62
     7
 10
-21.662400000000002
 20
128.547
 30
0.0
 11
-21.662400000000002
 21
128.28100000000001
 31
0.0
  0
LINE
  5
53B
  8
0
 62
     7
 10
-21.2455
 20
128.547
 30
0.0
 11
-21.2455
 21
128.28100000000001
 31
0.0
  0
LINE
  5
53C
  8
0
 62
     7
 10
-21.121500000000001
 20
128.28100000000001
 30
0.0
 11
-21.121500000000001
 21
128.143
 31
0.0
  0
LINE
  5
53D
  8
0
 62
     7
 10
-21.787800000000001
 20
128.28100000000001
 30
0.0
 11
-21.787800000000001
 21
128.143
 31
0.0
  0
LINE
  5
53E
  8
0
 62
     7
 10
-21.787800000000001
 20
128.143
 30
0.0
 11
-21.662400000000002
 21
128.143
 31
0.0
  0
LINE
  5
53F
  8
0
 62
     7
 10
-21.2455
 20
128.143
 30
0.0
 11
-21.121500000000001
 21
128.143
 31
0.0
  0
LINE
  5
540
  8
0
 62
     7
 10
-21.787800000000001
 20
128.28100000000001
 30
0.0
 11
-21.662400000000002
 21
128.28100000000001
 31
0.0
  0
LINE
  5
541
  8
0
 62
     7
 10
-21.2455
 20
128.28100000000001
 30
0.0
 11
-21.121500000000001
 21
128.28100000000001
 31
0.0
  0
LINE
  5
542
  8
0
 62
     7
 10
-21.871500000000001
 20
128.94
 30
0.0
 11
-21.037800000000001
 21
128.94
 31
0.0
  0
LINE
  5
543
  8
0
 62
     7
 10
-21.871500000000001
 20
128.86600000000001
 30
0.0
 11
-21.037800000000001
 21
128.86600000000001
 31
0.0
  0
LINE
  5
544
  8
0
 62
     7
 10
-21.679600000000001
 20
127.688
 30
0.0
 11
-21.229700000000001
 21
127.688
 31
0.0
  0
LINE
  5
545
  8
0
 62
     7
 10
-20.837599999999998
 20
128.35499999999999
 30
0.0
 11
-20.837599999999998
 21
128.28100000000001
 31
0.0
  0
LINE
  5
546
  8
0
 62
     7
 10
-20.7136
 20
128.35499999999999
 30
0.0
 11
-20.837599999999998
 21
128.35499999999999
 31
0.0
  0
LINE
  5
547
  8
0
 62
     7
 10
-20.171299999999999
 20
128.35499999999999
 30
0.0
 11
-20.171299999999999
 21
128.28100000000001
 31
0.0
  0
LINE
  5
548
  8
0
 62
     7
 10
-20.295400000000001
 20
128.35499999999999
 30
0.0
 11
-20.171299999999999
 21
128.35499999999999
 31
0.0
  0
LINE
  5
549
  8
0
 62
     7
 10
-20.087599999999998
 20
128.94
 30
0.0
 11
-20.087599999999998
 21
128.86600000000001
 31
0.0
  0
LINE
  5
54A
  8
0
 62
     7
 10
-20.921299999999999
 20
128.94
 30
0.0
 11
-20.921299999999999
 21
128.86600000000001
 31
0.0
  0
LINE
  5
54B
  8
0
 62
     7
 10
-20.087599999999998
 20
128.86600000000001
 30
0.0
 11
-20.295400000000001
 21
128.547
 31
0.0
  0
LINE
  5
54C
  8
0
 62
     7
 10
-20.712199999999999
 20
128.547
 30
0.0
 11
-20.921299999999999
 21
128.86600000000001
 31
0.0
  0
LINE
  5
54D
  8
0
 62
     7
 10
-20.279499999999999
 20
127.688
 30
0.0
 11
-20.295400000000001
 21
128.143
 31
0.0
  0
LINE
  5
54E
  8
0
 62
     7
 10
-20.712199999999999
 20
128.143
 30
0.0
 11
-20.729399999999998
 21
127.688
 31
0.0
  0
LINE
  5
54F
  8
0
 62
     7
 10
-20.712199999999999
 20
128.547
 30
0.0
 11
-20.712199999999999
 21
128.28100000000001
 31
0.0
  0
LINE
  5
550
  8
0
 62
     7
 10
-20.295400000000001
 20
128.547
 30
0.0
 11
-20.295400000000001
 21
128.28100000000001
 31
0.0
  0
LINE
  5
551
  8
0
 62
     7
 10
-20.171299999999999
 20
128.28100000000001
 30
0.0
 11
-20.171299999999999
 21
128.143
 31
0.0
  0
LINE
  5
552
  8
0
 62
     7
 10
-20.837599999999998
 20
128.28100000000001
 30
0.0
 11
-20.837599999999998
 21
128.143
 31
0.0
  0
LINE
  5
553
  8
0
 62
     7
 10
-20.837599999999998
 20
128.143
 30
0.0
 11
-20.712199999999999
 21
128.143
 31
0.0
  0
LINE
  5
554
  8
0
 62
     7
 10
-20.295400000000001
 20
128.143
 30
0.0
 11
-20.171299999999999
 21
128.143
 31
0.0
  0
LINE
  5
555
  8
0
 62
     7
 10
-20.837599999999998
 20
128.28100000000001
 30
0.0
 11
-20.712199999999999
 21
128.28100000000001
 31
0.0
  0
LINE
  5
556
  8
0
 62
     7
 10
-20.295400000000001
 20
128.28100000000001
 30
0.0
 11
-20.171299999999999
 21
128.28100000000001
 31
0.0
  0
LINE
  5
557
  8
0
 62
     7
 10
-20.921299999999999
 20
128.94
 30
0.0
 11
-20.087599999999998
 21
128.94
 31
0.0
  0
LINE
  5
558
  8
0
 62
     7
 10
-20.921299999999999
 20
128.86600000000001
 30
0.0
 11
-20.087599999999998
 21
128.86600000000001
 31
0.0
  0
LINE
  5
559
  8
0
 62
     7
 10
-20.729399999999998
 20
127.688
 30
0.0
 11
-20.279499999999999
 21
127.688
 31
0.0
  0
LINE
  5
55A
  8
0
 62
     7
 10
-19.887799999999999
 20
128.35499999999999
 30
0.0
 11
-19.887799999999999
 21
128.28100000000001
 31
0.0
  0
LINE
  5
55B
  8
0
 62
     7
 10
-19.7638
 20
128.35499999999999
 30
0.0
 11
-19.887799999999999
 21
128.35499999999999
 31
0.0
  0
LINE
  5
55C
  8
0
 62
     7
 10
-19.221499999999999
 20
128.35499999999999
 30
0.0
 11
-19.221499999999999
 21
128.28100000000001
 31
0.0
  0
LINE
  5
55D
  8
0
 62
     7
 10
-19.345500000000001
 20
128.35499999999999
 30
0.0
 11
-19.221499999999999
 21
128.35499999999999
 31
0.0
  0
LINE
  5
55E
  8
0
 62
     7
 10
-19.137799999999999
 20
128.94
 30
0.0
 11
-19.137799999999999
 21
128.86600000000001
 31
0.0
  0
LINE
  5
55F
  8
0
 62
     7
 10
-19.971499999999999
 20
128.94
 30
0.0
 11
-19.971499999999999
 21
128.86600000000001
 31
0.0
  0
LINE
  5
560
  8
0
 62
     7
 10
-19.137799999999999
 20
128.86600000000001
 30
0.0
 11
-19.345500000000001
 21
128.547
 31
0.0
  0
LINE
  5
561
  8
0
 62
     7
 10
-19.7624
 20
128.547
 30
0.0
 11
-19.971499999999999
 21
128.86600000000001
 31
0.0
  0
LINE
  5
562
  8
0
 62
     7
 10
-19.329699999999999
 20
127.688
 30
0.0
 11
-19.345500000000001
 21
128.143
 31
0.0
  0
LINE
  5
563
  8
0
 62
     7
 10
-19.7624
 20
128.143
 30
0.0
 11
-19.779599999999999
 21
127.688
 31
0.0
  0
LINE
  5
564
  8
0
 62
     7
 10
-19.7624
 20
128.547
 30
0.0
 11
-19.7624
 21
128.28100000000001
 31
0.0
  0
LINE
  5
565
  8
0
 62
     7
 10
-19.345500000000001
 20
128.547
 30
0.0
 11
-19.345500000000001
 21
128.28100000000001
 31
0.0
  0
LINE
  5
566
  8
0
 62
     7
 10
-19.221499999999999
 20
128.28100000000001
 30
0.0
 11
-19.221499999999999
 21
128.143
 31
0.0
  0
LINE
  5
567
  8
0
 62
     7
 10
-19.887799999999999
 20
128.28100000000001
 30
0.0
 11
-19.887799999999999
 21
128.143
 31
0.0
  0
LINE
  5
568
  8
0
 62
     7
 10
-19.887799999999999
 20
128.143
 30
0.0
 11
-19.7624
 21
128.143
 31
0.0
  0
LINE
  5
569
  8
0
 62
     7
 10
-19.345500000000001
 20
128.143
 30
0.0
 11
-19.221499999999999
 21
128.143
 31
0.0
  0
LINE
  5
56A
  8
0
 62
     7
 10
-19.887799999999999
 20
128.28100000000001
 30
0.0
 11
-19.7624
 21
128.28100000000001
 31
0.0
  0
LINE
  5
56B
  8
0
 62
     7
 10
-19.345500000000001
 20
128.28100000000001
 30
0.0
 11
-19.221499999999999
 21
128.28100000000001
 31
0.0
  0
LINE
  5
56C
  8
0
 62
     7
 10
-19.971499999999999
 20
128.94
 30
0.0
 11
-19.137799999999999
 21
128.94
 31
0.0
  0
LINE
  5
56D
  8
0
 62
     7
 10
-19.971499999999999
 20
128.86600000000001
 30
0.0
 11
-19.137799999999999
 21
128.86600000000001
 31
0.0
  0
LINE
  5
56E
  8
0
 62
     7
 10
-19.779599999999999
 20
127.688
 30
0.0
 11
-19.329699999999999
 21
127.688
 31
0.0
  0
LINE
  5
56F
  8
0
 62
     7
 10
-48.604599999999991
 20
128.35499999999999
 30
0.0
 11
-48.604599999999991
 21
128.28100000000001
 31
0.0
  0
LINE
  5
570
  8
0
 62
     7
 10
-48.480600000000003
 20
128.35499999999999
 30
0.0
 11
-48.604599999999991
 21
128.35499999999999
 31
0.0
  0
LINE
  5
571
  8
0
 62
     7
 10
-47.938299999999991
 20
128.35499999999999
 30
0.0
 11
-47.938299999999991
 21
128.28100000000001
 31
0.0
  0
LINE
  5
572
  8
0
 62
     7
 10
-48.0623
 20
128.35499999999999
 30
0.0
 11
-47.938299999999991
 21
128.35499999999999
 31
0.0
  0
LINE
  5
573
  8
0
 62
     7
 10
-47.854599999999991
 20
128.94
 30
0.0
 11
-47.854599999999991
 21
128.86600000000001
 31
0.0
  0
LINE
  5
574
  8
0
 62
     7
 10
-48.688299999999991
 20
128.94
 30
0.0
 11
-48.688299999999991
 21
128.86600000000001
 31
0.0
  0
LINE
  5
575
  8
0
 62
     7
 10
-47.854599999999991
 20
128.86600000000001
 30
0.0
 11
-48.0623
 21
128.547
 31
0.0
  0
LINE
  5
576
  8
0
 62
     7
 10
-48.479199999999999
 20
128.547
 30
0.0
 11
-48.688299999999991
 21
128.86600000000001
 31
0.0
  0
LINE
  5
577
  8
0
 62
     7
 10
-48.046500000000002
 20
127.688
 30
0.0
 11
-48.0623
 21
128.143
 31
0.0
  0
LINE
  5
578
  8
0
 62
     7
 10
-48.479199999999999
 20
128.143
 30
0.0
 11
-48.496400000000001
 21
127.688
 31
0.0
  0
LINE
  5
579
  8
0
 62
     7
 10
-48.479199999999999
 20
128.547
 30
0.0
 11
-48.479199999999999
 21
128.28100000000001
 31
0.0
  0
LINE
  5
57A
  8
0
 62
     7
 10
-48.0623
 20
128.547
 30
0.0
 11
-48.0623
 21
128.28100000000001
 31
0.0
  0
LINE
  5
57B
  8
0
 62
     7
 10
-47.938299999999991
 20
128.28100000000001
 30
0.0
 11
-47.938299999999991
 21
128.143
 31
0.0
  0
LINE
  5
57C
  8
0
 62
     7
 10
-48.604599999999991
 20
128.28100000000001
 30
0.0
 11
-48.604599999999991
 21
128.143
 31
0.0
  0
LINE
  5
57D
  8
0
 62
     7
 10
-48.604599999999991
 20
128.143
 30
0.0
 11
-48.479199999999999
 21
128.143
 31
0.0
  0
LINE
  5
57E
  8
0
 62
     7
 10
-48.0623
 20
128.143
 30
0.0
 11
-47.938299999999991
 21
128.143
 31
0.0
  0
LINE
  5
57F
  8
0
 62
     7
 10
-48.604599999999991
 20
128.28100000000001
 30
0.0
 11
-48.479199999999999
 21
128.28100000000001
 31
0.0
  0
LINE
  5
580
  8
0
 62
     7
 10
-48.0623
 20
128.28100000000001
 30
0.0
 11
-47.938299999999991
 21
128.28100000000001
 31
0.0
  0
LINE
  5
581
  8
0
 62
     7
 10
-48.688299999999991
 20
128.94
 30
0.0
 11
-47.854599999999991
 21
128.94
 31
0.0
  0
LINE
  5
582
  8
0
 62
     7
 10
-48.688299999999991
 20
128.86600000000001
 30
0.0
 11
-47.854599999999991
 21
128.86600000000001
 31
0.0
  0
LINE
  5
583
  8
0
 62
     7
 10
-48.496400000000001
 20
127.688
 30
0.0
 11
-48.046500000000002
 21
127.688
 31
0.0
  0
LINE
  5
584
  8
0
 62
     7
 10
-47.654800000000002
 20
128.35499999999999
 30
0.0
 11
-47.654800000000002
 21
128.28100000000001
 31
0.0
  0
LINE
  5
585
  8
0
 62
     7
 10
-47.530700000000003
 20
128.35499999999999
 30
0.0
 11
-47.654800000000002
 21
128.35499999999999
 31
0.0
  0
LINE
  5
586
  8
0
 62
     7
 10
-46.988500000000002
 20
128.35499999999999
 30
0.0
 11
-46.988500000000002
 21
128.28100000000001
 31
0.0
  0
LINE
  5
587
  8
0
 62
     7
 10
-47.11249999999999
 20
128.35499999999999
 30
0.0
 11
-46.988500000000002
 21
128.35499999999999
 31
0.0
  0
LINE
  5
588
  8
0
 62
     7
 10
-46.904799999999987
 20
128.94
 30
0.0
 11
-46.904799999999987
 21
128.86600000000001
 31
0.0
  0
LINE
  5
589
  8
0
 62
     7
 10
-47.738500000000002
 20
128.94
 30
0.0
 11
-47.738500000000002
 21
128.86600000000001
 31
0.0
  0
LINE
  5
58A
  8
0
 62
     7
 10
-46.904799999999987
 20
128.86600000000001
 30
0.0
 11
-47.11249999999999
 21
128.547
 31
0.0
  0
LINE
  5
58B
  8
0
 62
     7
 10
-47.529400000000003
 20
128.547
 30
0.0
 11
-47.738500000000002
 21
128.86600000000001
 31
0.0
  0
LINE
  5
58C
  8
0
 62
     7
 10
-47.096600000000002
 20
127.688
 30
0.0
 11
-47.11249999999999
 21
128.143
 31
0.0
  0
LINE
  5
58D
  8
0
 62
     7
 10
-47.529400000000003
 20
128.143
 30
0.0
 11
-47.546599999999998
 21
127.688
 31
0.0
  0
LINE
  5
58E
  8
0
 62
     7
 10
-47.529400000000003
 20
128.547
 30
0.0
 11
-47.529400000000003
 21
128.28100000000001
 31
0.0
  0
LINE
  5
58F
  8
0
 62
     7
 10
-47.11249999999999
 20
128.547
 30
0.0
 11
-47.11249999999999
 21
128.28100000000001
 31
0.0
  0
LINE
  5
590
  8
0
 62
     7
 10
-46.988500000000002
 20
128.28100000000001
 30
0.0
 11
-46.988500000000002
 21
128.143
 31
0.0
  0
LINE
  5
591
  8
0
 62
     7
 10
-47.654800000000002
 20
128.28100000000001
 30
0.0
 11
-47.654800000000002
 21
128.143
 31
0.0
  0
LINE
  5
592
  8
0
 62
     7
 10
-47.654800000000002
 20
128.143
 30
0.0
 11
-47.529400000000003
 21
128.143
 31
0.0
  0
LINE
  5
593
  8
0
 62
     7
 10
-47.11249999999999
 20
128.143
 30
0.0
 11
-46.988500000000002
 21
128.143
 31
0.0
  0
LINE
  5
594
  8
0
 62
     7
 10
-47.654800000000002
 20
128.28100000000001
 30
0.0
 11
-47.529400000000003
 21
128.28100000000001
 31
0.0
  0
LINE
  5
595
  8
0
 62
     7
 10
-47.11249999999999
 20
128.28100000000001
 30
0.0
 11
-46.988500000000002
 21
128.28100000000001
 31
0.0
  0
LINE
  5
596
  8
0
 62
     7
 10
-47.738500000000002
 20
128.94
 30
0.0
 11
-46.904799999999987
 21
128.94
 31
0.0
  0
LINE
  5
597
  8
0
 62
     7
 10
-47.738500000000002
 20
128.86600000000001
 30
0.0
 11
-46.904799999999987
 21
128.86600000000001
 31
0.0
  0
LINE
  5
598
  8
0
 62
     7
 10
-47.546599999999998
 20
127.688
 30
0.0
 11
-47.096600000000002
 21
127.688
 31
0.0
  0
LINE
  5
599
  8
0
 62
     7
 10
-46.704599999999999
 20
128.35499999999999
 30
0.0
 11
-46.704599999999999
 21
128.28100000000001
 31
0.0
  0
LINE
  5
59A
  8
0
 62
     7
 10
-46.58059999999999
 20
128.35499999999999
 30
0.0
 11
-46.704599999999999
 21
128.35499999999999
 31
0.0
  0
LINE
  5
59B
  8
0
 62
     7
 10
-46.0383
 20
128.35499999999999
 30
0.0
 11
-46.0383
 21
128.28100000000001
 31
0.0
  0
LINE
  5
59C
  8
0
 62
     7
 10
-46.162300000000002
 20
128.35499999999999
 30
0.0
 11
-46.0383
 21
128.35499999999999
 31
0.0
  0
LINE
  5
59D
  8
0
 62
     7
 10
-45.954599999999999
 20
128.94
 30
0.0
 11
-45.954599999999999
 21
128.86600000000001
 31
0.0
  0
LINE
  5
59E
  8
0
 62
     7
 10
-46.7883
 20
128.94
 30
0.0
 11
-46.7883
 21
128.86600000000001
 31
0.0
  0
LINE
  5
59F
  8
0
 62
     7
 10
-45.954599999999999
 20
128.86600000000001
 30
0.0
 11
-46.162300000000002
 21
128.547
 31
0.0
  0
LINE
  5
5A0
  8
0
 62
     7
 10
-46.579199999999993
 20
128.547
 30
0.0
 11
-46.7883
 21
128.86600000000001
 31
0.0
  0
LINE
  5
5A1
  8
0
 62
     7
 10
-46.146500000000003
 20
127.688
 30
0.0
 11
-46.162300000000002
 21
128.143
 31
0.0
  0
LINE
  5
5A2
  8
0
 62
     7
 10
-46.579199999999993
 20
128.143
 30
0.0
 11
-46.596400000000003
 21
127.688
 31
0.0
  0
LINE
  5
5A3
  8
0
 62
     7
 10
-46.579199999999993
 20
128.547
 30
0.0
 11
-46.579199999999993
 21
128.28100000000001
 31
0.0
  0
LINE
  5
5A4
  8
0
 62
     7
 10
-46.162300000000002
 20
128.547
 30
0.0
 11
-46.162300000000002
 21
128.28100000000001
 31
0.0
  0
LINE
  5
5A5
  8
0
 62
     7
 10
-46.0383
 20
128.28100000000001
 30
0.0
 11
-46.0383
 21
128.143
 31
0.0
  0
LINE
  5
5A6
  8
0
 62
     7
 10
-46.704599999999999
 20
128.28100000000001
 30
0.0
 11
-46.704599999999999
 21
128.143
 31
0.0
  0
LINE
  5
5A7
  8
0
 62
     7
 10
-46.704599999999999
 20
128.143
 30
0.0
 11
-46.579199999999993
 21
128.143
 31
0.0
  0
LINE
  5
5A8
  8
0
 62
     7
 10
-46.162300000000002
 20
128.143
 30
0.0
 11
-46.0383
 21
128.143
 31
0.0
  0
LINE
  5
5A9
  8
0
 62
     7
 10
-46.704599999999999
 20
128.28100000000001
 30
0.0
 11
-46.579199999999993
 21
128.28100000000001
 31
0.0
  0
LINE
  5
5AA
  8
0
 62
     7
 10
-46.162300000000002
 20
128.28100000000001
 30
0.0
 11
-46.0383
 21
128.28100000000001
 31
0.0
  0
LINE
  5
5AB
  8
0
 62
     7
 10
-46.7883
 20
128.94
 30
0.0
 11
-45.954599999999999
 21
128.94
 31
0.0
  0
LINE
  5
5AC
  8
0
 62
     7
 10
-46.7883
 20
128.86600000000001
 30
0.0
 11
-45.954599999999999
 21
128.86600000000001
 31
0.0
  0
LINE
  5
5AD
  8
0
 62
     7
 10
-46.596400000000003
 20
127.688
 30
0.0
 11
-46.146500000000003
 21
127.688
 31
0.0
  0
LINE
  5
5AE
  8
0
 62
     7
 10
-45.754800000000003
 20
128.35499999999999
 30
0.0
 11
-45.754800000000003
 21
128.28100000000001
 31
0.0
  0
LINE
  5
5AF
  8
0
 62
     7
 10
-45.630800000000001
 20
128.35499999999999
 30
0.0
 11
-45.754800000000003
 21
128.35499999999999
 31
0.0
  0
LINE
  5
5B0
  8
0
 62
     7
 10
-45.088500000000003
 20
128.35499999999999
 30
0.0
 11
-45.088500000000003
 21
128.28100000000001
 31
0.0
  0
LINE
  5
5B1
  8
0
 62
     7
 10
-45.212499999999999
 20
128.35499999999999
 30
0.0
 11
-45.088500000000003
 21
128.35499999999999
 31
0.0
  0
LINE
  5
5B2
  8
0
 62
     7
 10
-45.004800000000003
 20
128.94
 30
0.0
 11
-45.004800000000003
 21
128.86600000000001
 31
0.0
  0
LINE
  5
5B3
  8
0
 62
     7
 10
-45.838500000000003
 20
128.94
 30
0.0
 11
-45.838500000000003
 21
128.86600000000001
 31
0.0
  0
LINE
  5
5B4
  8
0
 62
     7
 10
-45.004800000000003
 20
128.86600000000001
 30
0.0
 11
-45.212499999999999
 21
128.547
 31
0.0
  0
LINE
  5
5B5
  8
0
 62
     7
 10
-45.629399999999997
 20
128.547
 30
0.0
 11
-45.838500000000003
 21
128.86600000000001
 31
0.0
  0
LINE
  5
5B6
  8
0
 62
     7
 10
-45.1967
 20
127.688
 30
0.0
 11
-45.212499999999999
 21
128.143
 31
0.0
  0
LINE
  5
5B7
  8
0
 62
     7
 10
-45.629399999999997
 20
128.143
 30
0.0
 11
-45.646599999999992
 21
127.688
 31
0.0
  0
LINE
  5
5B8
  8
0
 62
     7
 10
-45.629399999999997
 20
128.547
 30
0.0
 11
-45.629399999999997
 21
128.28100000000001
 31
0.0
  0
LINE
  5
5B9
  8
0
 62
     7
 10
-45.212499999999999
 20
128.547
 30
0.0
 11
-45.212499999999999
 21
128.28100000000001
 31
0.0
  0
LINE
  5
5BA
  8
0
 62
     7
 10
-45.088500000000003
 20
128.28100000000001
 30
0.0
 11
-45.088500000000003
 21
128.143
 31
0.0
  0
LINE
  5
5BB
  8
0
 62
     7
 10
-45.754800000000003
 20
128.28100000000001
 30
0.0
 11
-45.754800000000003
 21
128.143
 31
0.0
  0
LINE
  5
5BC
  8
0
 62
     7
 10
-45.754800000000003
 20
128.143
 30
0.0
 11
-45.629399999999997
 21
128.143
 31
0.0
  0
LINE
  5
5BD
  8
0
 62
     7
 10
-45.212499999999999
 20
128.143
 30
0.0
 11
-45.088500000000003
 21
128.143
 31
0.0
  0
LINE
  5
5BE
  8
0
 62
     7
 10
-45.754800000000003
 20
128.28100000000001
 30
0.0
 11
-45.629399999999997
 21
128.28100000000001
 31
0.0
  0
LINE
  5
5BF
  8
0
 62
     7
 10
-45.212499999999999
 20
128.28100000000001
 30
0.0
 11
-45.088500000000003
 21
128.28100000000001
 31
0.0
  0
LINE
  5
5C0
  8
0
 62
     7
 10
-45.838500000000003
 20
128.94
 30
0.0
 11
-45.004800000000003
 21
128.94
 31
0.0
  0
LINE
  5
5C1
  8
0
 62
     7
 10
-45.838500000000003
 20
128.86600000000001
 30
0.0
 11
-45.004800000000003
 21
128.86600000000001
 31
0.0
  0
LINE
  5
5C2
  8
0
 62
     7
 10
-45.646599999999992
 20
127.688
 30
0.0
 11
-45.1967
 21
127.688
 31
0.0
  0
LINE
  5
5C3
  8
0
 62
     7
 10
-53.571100000000001
 20
128.35499999999999
 30
0.0
 11
-53.571100000000001
 21
128.28100000000001
 31
0.0
  0
LINE
  5
5C4
  8
0
 62
     7
 10
-53.446999999999989
 20
128.35499999999999
 30
0.0
 11
-53.571100000000001
 21
128.35499999999999
 31
0.0
  0
LINE
  5
5C5
  8
0
 62
     7
 10
-52.904800000000002
 20
128.35499999999999
 30
0.0
 11
-52.904800000000002
 21
128.28100000000001
 31
0.0
  0
LINE
  5
5C6
  8
0
 62
     7
 10
-53.028799999999997
 20
128.35499999999999
 30
0.0
 11
-52.904800000000002
 21
128.35499999999999
 31
0.0
  0
LINE
  5
5C7
  8
0
 62
     7
 10
-52.821100000000001
 20
128.94
 30
0.0
 11
-52.821100000000001
 21
128.86600000000001
 31
0.0
  0
LINE
  5
5C8
  8
0
 62
     7
 10
-53.654800000000002
 20
128.94
 30
0.0
 11
-53.654800000000002
 21
128.86600000000001
 31
0.0
  0
LINE
  5
5C9
  8
0
 62
     7
 10
-52.821100000000001
 20
128.86600000000001
 30
0.0
 11
-53.028799999999997
 21
128.547
 31
0.0
  0
LINE
  5
5CA
  8
0
 62
     7
 10
-53.445700000000002
 20
128.547
 30
0.0
 11
-53.654800000000002
 21
128.86600000000001
 31
0.0
  0
LINE
  5
5CB
  8
0
 62
     7
 10
-53.012900000000002
 20
127.688
 30
0.0
 11
-53.028799999999997
 21
128.143
 31
0.0
  0
LINE
  5
5CC
  8
0
 62
     7
 10
-53.445700000000002
 20
128.143
 30
0.0
 11
-53.462899999999991
 21
127.688
 31
0.0
  0
LINE
  5
5CD
  8
0
 62
     7
 10
-53.445700000000002
 20
128.547
 30
0.0
 11
-53.445700000000002
 21
128.28100000000001
 31
0.0
  0
LINE
  5
5CE
  8
0
 62
     7
 10
-53.028799999999997
 20
128.547
 30
0.0
 11
-53.028799999999997
 21
128.28100000000001
 31
0.0
  0
LINE
  5
5CF
  8
0
 62
     7
 10
-52.904800000000002
 20
128.28100000000001
 30
0.0
 11
-52.904800000000002
 21
128.143
 31
0.0
  0
LINE
  5
5D0
  8
0
 62
     7
 10
-53.571100000000001
 20
128.28100000000001
 30
0.0
 11
-53.571100000000001
 21
128.143
 31
0.0
  0
LINE
  5
5D1
  8
0
 62
     7
 10
-53.571100000000001
 20
128.143
 30
0.0
 11
-53.445700000000002
 21
128.143
 31
0.0
  0
LINE
  5
5D2
  8
0
 62
     7
 10
-53.028799999999997
 20
128.143
 30
0.0
 11
-52.904800000000002
 21
128.143
 31
0.0
  0
LINE
  5
5D3
  8
0
 62
     7
 10
-53.571100000000001
 20
128.28100000000001
 30
0.0
 11
-53.445700000000002
 21
128.28100000000001
 31
0.0
  0
LINE
  5
5D4
  8
0
 62
     7
 10
-53.028799999999997
 20
128.28100000000001
 30
0.0
 11
-52.904800000000002
 21
128.28100000000001
 31
0.0
  0
LINE
  5
5D5
  8
0
 62
     7
 10
-53.654800000000002
 20
128.94
 30
0.0
 11
-52.821100000000001
 21
128.94
 31
0.0
  0
LINE
  5
5D6
  8
0
 62
     7
 10
-53.654800000000002
 20
128.86600000000001
 30
0.0
 11
-52.821100000000001
 21
128.86600000000001
 31
0.0
  0
LINE
  5
5D7
  8
0
 62
     7
 10
-53.462899999999991
 20
127.688
 30
0.0
 11
-53.012900000000002
 21
127.688
 31
0.0
  0
LINE
  5
5D8
  8
0
 62
     7
 10
-52.620899999999999
 20
128.35499999999999
 30
0.0
 11
-52.620899999999999
 21
128.28100000000001
 31
0.0
  0
LINE
  5
5D9
  8
0
 62
     7
 10
-52.496899999999997
 20
128.35499999999999
 30
0.0
 11
-52.620899999999999
 21
128.35499999999999
 31
0.0
  0
LINE
  5
5DA
  8
0
 62
     7
 10
-51.954599999999999
 20
128.35499999999999
 30
0.0
 11
-51.954599999999999
 21
128.28100000000001
 31
0.0
  0
LINE
  5
5DB
  8
0
 62
     7
 10
-52.078600000000002
 20
128.35499999999999
 30
0.0
 11
-51.954599999999999
 21
128.35499999999999
 31
0.0
  0
LINE
  5
5DC
  8
0
 62
     7
 10
-51.870899999999999
 20
128.94
 30
0.0
 11
-51.870899999999999
 21
128.86600000000001
 31
0.0
  0
LINE
  5
5DD
  8
0
 62
     7
 10
-52.704599999999992
 20
128.94
 30
0.0
 11
-52.704599999999992
 21
128.86600000000001
 31
0.0
  0
LINE
  5
5DE
  8
0
 62
     7
 10
-51.870899999999999
 20
128.86600000000001
 30
0.0
 11
-52.078600000000002
 21
128.547
 31
0.0
  0
LINE
  5
5DF
  8
0
 62
     7
 10
-52.4955
 20
128.547
 30
0.0
 11
-52.704599999999992
 21
128.86600000000001
 31
0.0
  0
LINE
  5
5E0
  8
0
 62
     7
 10
-52.062800000000003
 20
127.688
 30
0.0
 11
-52.078600000000002
 21
128.143
 31
0.0
  0
LINE
  5
5E1
  8
0
 62
     7
 10
-52.4955
 20
128.143
 30
0.0
 11
-52.512700000000002
 21
127.688
 31
0.0
  0
LINE
  5
5E2
  8
0
 62
     7
 10
-52.4955
 20
128.547
 30
0.0
 11
-52.4955
 21
128.28100000000001
 31
0.0
  0
LINE
  5
5E3
  8
0
 62
     7
 10
-52.078600000000002
 20
128.547
 30
0.0
 11
-52.078600000000002
 21
128.28100000000001
 31
0.0
  0
LINE
  5
5E4
  8
0
 62
     7
 10
-51.954599999999999
 20
128.28100000000001
 30
0.0
 11
-51.954599999999999
 21
128.143
 31
0.0
  0
LINE
  5
5E5
  8
0
 62
     7
 10
-52.620899999999999
 20
128.28100000000001
 30
0.0
 11
-52.620899999999999
 21
128.143
 31
0.0
  0
LINE
  5
5E6
  8
0
 62
     7
 10
-52.620899999999999
 20
128.143
 30
0.0
 11
-52.4955
 21
128.143
 31
0.0
  0
LINE
  5
5E7
  8
0
 62
     7
 10
-52.078600000000002
 20
128.143
 30
0.0
 11
-51.954599999999999
 21
128.143
 31
0.0
  0
LINE
  5
5E8
  8
0
 62
     7
 10
-52.620899999999999
 20
128.28100000000001
 30
0.0
 11
-52.4955
 21
128.28100000000001
 31
0.0
  0
LINE
  5
5E9
  8
0
 62
     7
 10
-52.078600000000002
 20
128.28100000000001
 30
0.0
 11
-51.954599999999999
 21
128.28100000000001
 31
0.0
  0
LINE
  5
5EA
  8
0
 62
     7
 10
-52.704599999999992
 20
128.94
 30
0.0
 11
-51.870899999999999
 21
128.94
 31
0.0
  0
LINE
  5
5EB
  8
0
 62
     7
 10
-52.704599999999992
 20
128.86600000000001
 30
0.0
 11
-51.870899999999999
 21
128.86600000000001
 31
0.0
  0
LINE
  5
5EC
  8
0
 62
     7
 10
-52.512700000000002
 20
127.688
 30
0.0
 11
-52.062800000000003
 21
127.688
 31
0.0
  0
LINE
  5
5ED
  8
0
 62
     7
 10
-51.671100000000003
 20
128.35499999999999
 30
0.0
 11
-51.671100000000003
 21
128.28100000000001
 31
0.0
  0
LINE
  5
5EE
  8
0
 62
     7
 10
-51.5471
 20
128.35499999999999
 30
0.0
 11
-51.671100000000003
 21
128.35499999999999
 31
0.0
  0
LINE
  5
5EF
  8
0
 62
     7
 10
-51.00480000000001
 20
128.35499999999999
 30
0.0
 11
-51.00480000000001
 21
128.28100000000001
 31
0.0
  0
LINE
  5
5F0
  8
0
 62
     7
 10
-51.128799999999998
 20
128.35499999999999
 30
0.0
 11
-51.00480000000001
 21
128.35499999999999
 31
0.0
  0
LINE
  5
5F1
  8
0
 62
     7
 10
-50.921100000000003
 20
128.94
 30
0.0
 11
-50.921100000000003
 21
128.86600000000001
 31
0.0
  0
LINE
  5
5F2
  8
0
 62
     7
 10
-51.754800000000003
 20
128.94
 30
0.0
 11
-51.754800000000003
 21
128.86600000000001
 31
0.0
  0
LINE
  5
5F3
  8
0
 62
     7
 10
-50.921100000000003
 20
128.86600000000001
 30
0.0
 11
-51.128799999999998
 21
128.547
 31
0.0
  0
LINE
  5
5F4
  8
0
 62
     7
 10
-51.545699999999989
 20
128.547
 30
0.0
 11
-51.754800000000003
 21
128.86600000000001
 31
0.0
  0
LINE
  5
5F5
  8
0
 62
     7
 10
-51.112999999999992
 20
127.688
 30
0.0
 11
-51.128799999999998
 21
128.143
 31
0.0
  0
LINE
  5
5F6
  8
0
 62
     7
 10
-51.545699999999989
 20
128.143
 30
0.0
 11
-51.562899999999999
 21
127.688
 31
0.0
  0
LINE
  5
5F7
  8
0
 62
     7
 10
-51.545699999999989
 20
128.547
 30
0.0
 11
-51.545699999999989
 21
128.28100000000001
 31
0.0
  0
LINE
  5
5F8
  8
0
 62
     7
 10
-51.128799999999998
 20
128.547
 30
0.0
 11
-51.128799999999998
 21
128.28100000000001
 31
0.0
  0
LINE
  5
5F9
  8
0
 62
     7
 10
-51.00480000000001
 20
128.28100000000001
 30
0.0
 11
-51.00480000000001
 21
128.143
 31
0.0
  0
LINE
  5
5FA
  8
0
 62
     7
 10
-51.671100000000003
 20
128.28100000000001
 30
0.0
 11
-51.671100000000003
 21
128.143
 31
0.0
  0
LINE
  5
5FB
  8
0
 62
     7
 10
-51.671100000000003
 20
128.143
 30
0.0
 11
-51.545699999999989
 21
128.143
 31
0.0
  0
LINE
  5
5FC
  8
0
 62
     7
 10
-51.128799999999998
 20
128.143
 30
0.0
 11
-51.00480000000001
 21
128.143
 31
0.0
  0
LINE
  5
5FD
  8
0
 62
     7
 10
-51.671100000000003
 20
128.28100000000001
 30
0.0
 11
-51.545699999999989
 21
128.28100000000001
 31
0.0
  0
LINE
  5
5FE
  8
0
 62
     7
 10
-51.128799999999998
 20
128.28100000000001
 30
0.0
 11
-51.00480000000001
 21
128.28100000000001
 31
0.0
  0
LINE
  5
5FF
  8
0
 62
     7
 10
-51.754800000000003
 20
128.94
 30
0.0
 11
-50.921100000000003
 21
128.94
 31
0.0
  0
LINE
  5
600
  8
0
 62
     7
 10
-51.754800000000003
 20
128.86600000000001
 30
0.0
 11
-50.921100000000003
 21
128.86600000000001
 31
0.0
  0
LINE
  5
601
  8
0
 62
     7
 10
-51.562899999999999
 20
127.688
 30
0.0
 11
-51.112999999999992
 21
127.688
 31
0.0
  0
LINE
  5
602
  8
0
 62
     7
 10
-50.721299999999999
 20
128.35499999999999
 30
0.0
 11
-50.721299999999999
 21
128.28100000000001
 31
0.0
  0
LINE
  5
603
  8
0
 62
     7
 10
-50.597200000000001
 20
128.35499999999999
 30
0.0
 11
-50.721299999999999
 21
128.35499999999999
 31
0.0
  0
LINE
  5
604
  8
0
 62
     7
 10
-50.055
 20
128.35499999999999
 30
0.0
 11
-50.055
 21
128.28100000000001
 31
0.0
  0
LINE
  5
605
  8
0
 62
     7
 10
-50.179000000000002
 20
128.35499999999999
 30
0.0
 11
-50.055
 21
128.35499999999999
 31
0.0
  0
LINE
  5
606
  8
0
 62
     7
 10
-49.971299999999999
 20
128.94
 30
0.0
 11
-49.971299999999999
 21
128.86600000000001
 31
0.0
  0
LINE
  5
607
  8
0
 62
     7
 10
-50.805
 20
128.94
 30
0.0
 11
-50.805
 21
128.86600000000001
 31
0.0
  0
LINE
  5
608
  8
0
 62
     7
 10
-49.971299999999999
 20
128.86600000000001
 30
0.0
 11
-50.179000000000002
 21
128.547
 31
0.0
  0
LINE
  5
609
  8
0
 62
     7
 10
-50.5959
 20
128.547
 30
0.0
 11
-50.805
 21
128.86600000000001
 31
0.0
  0
LINE
  5
60A
  8
0
 62
     7
 10
-50.1631
 20
127.688
 30
0.0
 11
-50.179000000000002
 21
128.143
 31
0.0
  0
LINE
  5
60B
  8
0
 62
     7
 10
-50.5959
 20
128.143
 30
0.0
 11
-50.613100000000003
 21
127.688
 31
0.0
  0
LINE
  5
60C
  8
0
 62
     7
 10
-50.5959
 20
128.547
 30
0.0
 11
-50.5959
 21
128.28100000000001
 31
0.0
  0
LINE
  5
60D
  8
0
 62
     7
 10
-50.179000000000002
 20
128.547
 30
0.0
 11
-50.179000000000002
 21
128.28100000000001
 31
0.0
  0
LINE
  5
60E
  8
0
 62
     7
 10
-50.055
 20
128.28100000000001
 30
0.0
 11
-50.055
 21
128.143
 31
0.0
  0
LINE
  5
60F
  8
0
 62
     7
 10
-50.721299999999999
 20
128.28100000000001
 30
0.0
 11
-50.721299999999999
 21
128.143
 31
0.0
  0
LINE
  5
610
  8
0
 62
     7
 10
-50.721299999999999
 20
128.143
 30
0.0
 11
-50.5959
 21
128.143
 31
0.0
  0
LINE
  5
611
  8
0
 62
     7
 10
-50.179000000000002
 20
128.143
 30
0.0
 11
-50.055
 21
128.143
 31
0.0
  0
LINE
  5
612
  8
0
 62
     7
 10
-50.721299999999999
 20
128.28100000000001
 30
0.0
 11
-50.5959
 21
128.28100000000001
 31
0.0
  0
LINE
  5
613
  8
0
 62
     7
 10
-50.179000000000002
 20
128.28100000000001
 30
0.0
 11
-50.055
 21
128.28100000000001
 31
0.0
  0
LINE
  5
614
  8
0
 62
     7
 10
-50.805
 20
128.94
 30
0.0
 11
-49.971299999999999
 21
128.94
 31
0.0
  0
LINE
  5
615
  8
0
 62
     7
 10
-50.805
 20
128.86600000000001
 30
0.0
 11
-49.971299999999999
 21
128.86600000000001
 31
0.0
  0
LINE
  5
616
  8
0
 62
     7
 10
-50.613100000000003
 20
127.688
 30
0.0
 11
-50.1631
 21
127.688
 31
0.0
  0
LINE
  5
617
  8
0
 62
     7
 10
119.836
 20
215.63900000000001
 30
0.0
 11
114.06
 21
215.63900000000001
 31
0.0
  0
LINE
  5
618
  8
0
 62
     7
 10
110.845
 20
213.25999999999999
 30
0.0
 11
109.70099999999999
 21
211.279
 31
0.0
  0
LINE
  5
619
  8
0
 62
     7
 10
109.70099999999999
 20
211.279
 30
0.0
 11
111.682
 21
212.423
 31
0.0
  0
LINE
  5
61A
  8
0
 62
     7
 10
111.682
 20
212.423
 30
0.0
 11
110.845
 21
213.25999999999999
 31
0.0
  0
LINE
  5
61B
  8
0
 62
     7
 10
114.06
 20
215.63900000000001
 30
0.0
 11
109.70099999999999
 21
211.279
 31
0.0
  0
LINE
  5
61C
  8
0
 62
     7
 10
178.114
 20
213.245
 30
0.0
 11
178.70599999999999
 21
211.03399999999999
 31
0.0
  0
LINE
  5
61D
  8
0
 62
     7
 10
178.70599999999999
 20
211.03399999999999
 30
0.0
 11
179.298
 21
213.245
 31
0.0
  0
LINE
  5
61E
  8
0
 62
     7
 10
179.298
 20
213.245
 30
0.0
 11
178.114
 21
213.245
 31
0.0
  0
LINE
  5
61F
  8
0
 62
     7
 10
179.298
 20
243.82499999999999
 30
0.0
 11
178.70599999999999
 21
246.035
 31
0.0
  0
LINE
  5
620
  8
0
 62
     7
 10
178.70599999999999
 20
246.035
 30
0.0
 11
178.114
 21
243.82499999999999
 31
0.0
  0
LINE
  5
621
  8
0
 62
     7
 10
178.114
 20
243.82499999999999
 30
0.0
 11
179.298
 21
243.82499999999999
 31
0.0
  0
LINE
  5
622
  8
0
 62
     7
 10
178.70599999999999
 20
211.03399999999999
 30
0.0
 11
178.70599999999999
 21
246.035
 31
0.0
  0
LINE
  5
623
  8
0
 62
     7
 10
167.92699999999999
 20
200.322
 30
0.0
 11
170.137
 21
200.91399999999999
 31
0.0
  0
LINE
  5
624
  8
0
 62
     7
 10
170.137
 20
200.91399999999999
 30
0.0
 11
167.92699999999999
 21
201.506
 31
0.0
  0
LINE
  5
625
  8
0
 62
     7
 10
167.92699999999999
 20
201.506
 30
0.0
 11
167.92699999999999
 21
200.322
 31
0.0
  0
LINE
  5
626
  8
0
 62
     7
 10
111.51300000000001
 20
201.506
 30
0.0
 11
109.303
 21
200.91399999999999
 31
0.0
  0
LINE
  5
627
  8
0
 62
     7
 10
109.303
 20
200.91399999999999
 30
0.0
 11
111.51300000000001
 21
200.321
 31
0.0
  0
LINE
  5
628
  8
0
 62
     7
 10
111.51300000000001
 20
200.321
 30
0.0
 11
111.51300000000001
 21
201.506
 31
0.0
  0
LINE
  5
629
  8
0
 62
     7
 10
170.137
 20
200.91399999999999
 30
0.0
 11
109.303
 21
200.91399999999999
 31
0.0
  0
LINE
  5
62A
  8
0
 62
     7
 10
170.137
 20
210.75899999999999
 30
0.0
 11
170.137
 21
200.214
 31
0.0
  0
LINE
  5
62B
  8
0
 62
     7
 10
109.303
 20
210.75899999999999
 30
0.0
 11
109.303
 21
200.214
 31
0.0
  0
LINE
  5
62C
  8
0
 62
     7
 10
170.66099999999989
 20
246.035
 30
0.0
 11
179.40599999999989
 21
246.035
 31
0.0
  0
LINE
  5
62D
  8
0
 62
     7
 10
170.66099999999989
 20
211.03399999999999
 30
0.0
 11
179.40599999999989
 21
211.03399999999999
 31
0.0
  0
ARC
  5
62E
  8
0
 62
     7
 10
110.42699399999999
 20
244.91049599999999
 30
0.0
 40
1.124862
 50
92.104270000000014
 51
177.89570000000001
  0
ARC
  5
62F
  8
0
 62
     7
 10
169.05362700000001
 20
244.95145500000001
 30
0.0
 40
1.083145
 50
0.018234
 51
90.018203999999983
  0
ARC
  5
630
  8
0
 62
     7
 10
110.427043
 20
212.158402
 30
0.0
 40
1.1248860000000001
 50
182.07028999999989
 51
267.89329199999997
  0
ARC
  5
631
  8
0
 62
     7
 10
169.053282
 20
212.11776499999999
 30
0.0
 40
1.0834900000000001
 50
270.00002000000001
 51
359.99999000000003
  0
LINE
  5
632
  8
0
 62
     7
 10
169.053
 20
211.03399999999999
 30
0.0
 11
110.386
 21
211.03399999999999
 31
0.0
  0
LINE
  5
633
  8
0
  6
AIGENLINE003
 62
     7
 10
145.72
 20
237.285
 30
0.0
 11
133.71899999999999
 21
237.285
 31
0.0
  0
LINE
  5
634
  8
0
 62
     7
 10
169.053
 20
246.035
 30
0.0
 11
110.386
 21
246.035
 31
0.0
  0
LINE
  5
635
  8
0
 62
     7
 10
170.137
 20
244.952
 30
0.0
 11
170.137
 21
212.11799999999999
 31
0.0
  0
LINE
  5
636
  8
0
 62
     7
 10
109.303
 20
244.952
 30
0.0
 11
109.303
 21
212.11799999999999
 31
0.0
  0
LINE
  5
637
  8
0
 62
     7
 10
158.429
 20
126.855
 30
0.0
 11
170.011
 21
126.855
 31
0.0
  0
LINE
  5
638
  8
0
 62
     7
 10
-2.0131499999999991
 20
81.162800000000004
 30
0.0
 11
74.182299999999998
 21
81.162800000000004
 31
0.0
  0
LINE
  5
639
  8
0
 62
     7
 10
57.045499999999997
 20
130.18799999999999
 30
0.0
 11
74.182299999999998
 21
130.18799999999999
 31
0.0
  0
LINE
  5
63A
  8
0
 62
     7
 10
52.639800000000001
 20
96.854600000000005
 30
0.0
 11
66.185900000000004
 21
96.854600000000005
 31
0.0
  0
LINE
  5
63B
  8
0
 62
     7
 10
74.074200000000005
 20
127.97799999999999
 30
0.0
 11
73.482299999999995
 21
130.18799999999999
 31
0.0
  0
LINE
  5
63C
  8
0
 62
     7
 10
73.482299999999995
 20
130.18799999999999
 30
0.0
 11
72.890100000000004
 21
127.97799999999999
 31
0.0
  0
LINE
  5
63D
  8
0
 62
     7
 10
72.890100000000004
 20
127.97799999999999
 30
0.0
 11
74.074200000000005
 21
127.97799999999999
 31
0.0
  0
LINE
  5
63E
  8
0
 62
     7
 10
72.890100000000004
 20
83.373199999999997
 30
0.0
 11
73.482299999999995
 21
81.162800000000004
 31
0.0
  0
LINE
  5
63F
  8
0
 62
     7
 10
73.482299999999995
 20
81.162800000000004
 30
0.0
 11
74.074200000000005
 21
83.373199999999997
 31
0.0
  0
LINE
  5
640
  8
0
 62
     7
 10
74.074200000000005
 20
83.373199999999997
 30
0.0
 11
72.890100000000004
 21
83.373199999999997
 31
0.0
  0
LINE
  5
641
  8
0
 62
     7
 10
73.482299999999995
 20
130.18799999999999
 30
0.0
 11
73.482299999999995
 21
81.162800000000004
 31
0.0
  0
LINE
  5
642
  8
0
 62
     7
 10
66.077699999999993
 20
127.97799999999999
 30
0.0
 11
65.485799999999998
 21
130.18799999999999
 31
0.0
  0
LINE
  5
643
  8
0
 62
     7
 10
65.485799999999998
 20
130.18799999999999
 30
0.0
 11
64.893600000000006
 21
127.97799999999999
 31
0.0
  0
LINE
  5
644
  8
0
 62
     7
 10
64.893600000000006
 20
127.97799999999999
 30
0.0
 11
66.077699999999993
 21
127.97799999999999
 31
0.0
  0
LINE
  5
645
  8
0
 62
     7
 10
64.893600000000006
 20
99.065000000000012
 30
0.0
 11
65.485799999999998
 21
96.854600000000005
 31
0.0
  0
LINE
  5
646
  8
0
 62
     7
 10
65.485799999999998
 20
96.854600000000005
 30
0.0
 11
66.077699999999993
 21
99.065000000000012
 31
0.0
  0
LINE
  5
647
  8
0
 62
     7
 10
66.077699999999993
 20
99.065000000000012
 30
0.0
 11
64.893600000000006
 21
99.065000000000012
 31
0.0
  0
LINE
  5
648
  8
0
 62
     7
 10
65.485799999999998
 20
130.18799999999999
 30
0.0
 11
65.485799999999998
 21
96.854600000000005
 31
0.0
  0
LINE
  5
649
  8
0
 62
     7
 10
158.65799999999999
 20
130.18799999999999
 30
0.0
 11
170.011
 21
130.18799999999999
 31
0.0
  0
LINE
  5
64A
  8
0
 62
     7
 10
155.749
 20
139.14500000000001
 30
0.0
 11
157.958
 21
139.73699999999999
 31
0.0
  0
LINE
  5
64B
  8
0
 62
     7
 10
157.958
 20
139.73699999999999
 30
0.0
 11
155.749
 21
140.32900000000001
 31
0.0
  0
LINE
  5
64C
  8
0
 62
     7
 10
155.749
 20
140.32900000000001
 30
0.0
 11
155.749
 21
139.14500000000001
 31
0.0
  0
LINE
  5
64D
  8
0
 62
     7
 10
140.16800000000001
 20
140.33000000000001
 30
0.0
 11
137.959
 21
139.73699999999999
 31
0.0
  0
LINE
  5
64E
  8
0
 62
     7
 10
137.959
 20
139.73699999999999
 30
0.0
 11
140.16800000000001
 21
139.14599999999999
 31
0.0
  0
LINE
  5
64F
  8
0
 62
     7
 10
140.16800000000001
 20
139.14599999999999
 30
0.0
 11
140.16800000000001
 21
140.33000000000001
 31
0.0
  0
LINE
  5
650
  8
0
 62
     7
 10
157.958
 20
139.73699999999999
 30
0.0
 11
137.959
 21
139.73699999999999
 31
0.0
  0
LINE
  5
651
  8
0
 62
     7
 10
76.572000000000003
 20
185.47999999999999
 30
0.0
 11
77.163899999999998
 21
183.27000000000001
 31
0.0
  0
LINE
  5
652
  8
0
 62
     7
 10
77.163899999999998
 20
183.27000000000001
 30
0.0
 11
77.756500000000003
 21
185.47999999999999
 31
0.0
  0
LINE
  5
653
  8
0
 62
     7
 10
77.756500000000003
 20
185.47999999999999
 30
0.0
 11
76.572000000000003
 21
185.47999999999999
 31
0.0
  0
LINE
  5
654
  8
0
 62
     7
 10
77.756100000000004
 20
256.06
 30
0.0
 11
77.163899999999998
 21
258.26999999999998
 31
0.0
  0
LINE
  5
655
  8
0
 62
     7
 10
77.163899999999998
 20
258.26999999999998
 30
0.0
 11
76.572000000000003
 21
256.06
 31
0.0
  0
LINE
  5
656
  8
0
 62
     7
 10
76.572000000000003
 20
256.06
 30
0.0
 11
77.756100000000004
 21
256.06
 31
0.0
  0
LINE
  5
657
  8
0
 62
     7
 10
77.163899999999998
 20
183.27000000000001
 30
0.0
 11
77.163899999999998
 21
258.26999999999998
 31
0.0
  0
LINE
  5
658
  8
0
 62
     7
 10
-13.2814
 20
71.403199999999998
 30
0.0
 11
-11.071400000000001
 21
71.995000000000005
 31
0.0
  0
LINE
  5
659
  8
0
 62
     7
 10
-11.071400000000001
 20
71.995000000000005
 30
0.0
 11
-13.2814
 21
72.587599999999995
 31
0.0
  0
LINE
  5
65A
  8
0
 62
     7
 10
-13.2814
 20
72.587599999999995
 30
0.0
 11
-13.2814
 21
71.403199999999998
 31
0.0
  0
LINE
  5
65B
  8
0
 62
     7
 10
-0.6936740000000001
 20
72.587599999999995
 30
0.0
 11
-2.904059999999999
 21
71.995000000000005
 31
0.0
  0
LINE
  5
65C
  8
0
 62
     7
 10
-2.904059999999999
 20
71.995000000000005
 30
0.0
 11
-0.6936740000000001
 21
71.403199999999998
 31
0.0
  0
LINE
  5
65D
  8
0
 62
     7
 10
-0.6936740000000001
 20
71.403199999999998
 30
0.0
 11
-0.6936740000000001
 21
72.587599999999995
 31
0.0
  0
LINE
  5
65E
  8
0
 62
     7
 10
0.875921
 20
71.995000000000005
 30
0.0
 11
-22.758600000000001
 21
71.995000000000005
 31
0.0
  0
LINE
  5
65F
  8
0
 62
     7
 10
-2.904059999999999
 20
80.347699999999989
 30
0.0
 11
-2.904059999999999
 21
71.295000000000002
 31
0.0
  0
LINE
  5
660
  8
0
 62
     7
 10
-11.071400000000001
 20
80.346999999999994
 30
0.0
 11
-11.071400000000001
 21
71.295000000000002
 31
0.0
  0
LINE
  5
661
  8
0
 62
     7
 10
54.135399999999997
 20
163.977
 30
0.0
 11
56.345399999999998
 21
164.56899999999999
 31
0.0
  0
LINE
  5
662
  8
0
 62
     7
 10
56.345399999999998
 20
164.56899999999999
 30
0.0
 11
54.135399999999997
 21
165.16200000000001
 31
0.0
  0
LINE
  5
663
  8
0
 62
     7
 10
54.135399999999997
 20
165.16200000000001
 30
0.0
 11
54.135399999999997
 21
163.977
 31
0.0
  0
LINE
  5
664
  8
0
 62
     7
 10
-68.111199999999997
 20
165.16200000000001
 30
0.0
 11
-70.321600000000004
 21
164.56899999999999
 31
0.0
  0
LINE
  5
665
  8
0
 62
     7
 10
-70.321600000000004
 20
164.56899999999999
 30
0.0
 11
-68.111199999999997
 21
163.977
 31
0.0
  0
LINE
  5
666
  8
0
 62
     7
 10
-68.111199999999997
 20
163.977
 30
0.0
 11
-68.111199999999997
 21
165.16200000000001
 31
0.0
  0
LINE
  5
667
  8
0
 62
     7
 10
56.345399999999998
 20
164.56899999999999
 30
0.0
 11
-70.321600000000004
 21
164.56899999999999
 31
0.0
  0
LINE
  5
668
  8
0
 62
     7
 10
-72.531899999999993
 20
171.577
 30
0.0
 11
-70.321600000000004
 21
172.16999999999999
 31
0.0
  0
LINE
  5
669
  8
0
 62
     7
 10
-70.321600000000004
 20
172.16999999999999
 30
0.0
 11
-72.531899999999993
 21
172.762
 31
0.0
  0
LINE
  5
66A
  8
0
 62
     7
 10
-72.531899999999993
 20
172.762
 30
0.0
 11
-72.531899999999993
 21
171.577
 31
0.0
  0
LINE
  5
66B
  8
0
 62
     7
 10
50.802599999999991
 20
171.577
 30
0.0
 11
53.012900000000002
 21
172.16999999999999
 31
0.0
  0
LINE
  5
66C
  8
0
 62
     7
 10
53.012900000000002
 20
172.16999999999999
 30
0.0
 11
50.802599999999991
 21
172.762
 31
0.0
  0
LINE
  5
66D
  8
0
 62
     7
 10
50.802599999999991
 20
172.762
 30
0.0
 11
50.802599999999991
 21
171.577
 31
0.0
  0
LINE
  5
66E
  8
0
 62
     7
 10
58.555500000000002
 20
172.762
 30
0.0
 11
56.345399999999998
 21
172.16900000000001
 31
0.0
  0
LINE
  5
66F
  8
0
 62
     7
 10
56.345399999999998
 20
172.16900000000001
 30
0.0
 11
58.555500000000002
 21
171.577
 31
0.0
  0
LINE
  5
670
  8
0
 62
     7
 10
58.555500000000002
 20
171.577
 30
0.0
 11
58.555500000000002
 21
172.762
 31
0.0
  0
LINE
  5
671
  8
0
 62
     7
 10
-64.778400000000005
 20
172.762
 30
0.0
 11
-66.988399999999999
 21
172.16900000000001
 31
0.0
  0
LINE
  5
672
  8
0
 62
     7
 10
-66.988399999999999
 20
172.16900000000001
 30
0.0
 11
-64.778400000000005
 21
171.577
 31
0.0
  0
LINE
  5
673
  8
0
 62
     7
 10
-64.778400000000005
 20
171.577
 30
0.0
 11
-64.778400000000005
 21
172.762
 31
0.0
  0
LINE
  5
674
  8
0
 62
     7
 10
62.455500000000001
 20
172.16900000000001
 30
0.0
 11
-76.781999999999996
 21
172.16900000000001
 31
0.0
  0
LINE
  5
675
  8
0
 62
     7
 10
56.345399999999998
 20
183.27000000000001
 30
0.0
 11
56.345399999999998
 21
163.869
 31
0.0
  0
LINE
  5
676
  8
0
  6
AIGENLINE001
 62
     7
 10
151.52000000000001
 20
126.855
 30
0.0
 11
157.72900000000001
 21
126.855
 31
0.0
  0
LINE
  5
677
  8
0
 62
     7
 10
157.958
 20
131.08799999999999
 30
0.0
 11
157.958
 21
140.43700000000001
 31
0.0
  0
LINE
  5
678
  8
0
 62
     7
 10
137.959
 20
101.849
 30
0.0
 11
137.959
 21
140.43700000000001
 31
0.0
  0
LINE
  5
679
  8
0
 62
     7
 10
53.012900000000002
 20
186.50299999999999
 30
0.0
 11
53.012900000000002
 21
171.46899999999999
 31
0.0
  0
LINE
  5
67A
  8
0
 62
     7
 10
-70.321600000000004
 20
183.26900000000001
 30
0.0
 11
-70.321600000000004
 21
163.869
 31
0.0
  0
LINE
  5
67B
  8
0
 62
     7
 10
-66.988399999999999
 20
186.50299999999999
 30
0.0
 11
-66.988399999999999
 21
171.46899999999999
 31
0.0
  0
LINE
  5
67C
  8
0
 62
     7
 10
-17.363900000000001
 20
227.893
 30
0.0
 11
-23.3949
 21
227.893
 31
0.0
  0
LINE
  5
67D
  8
0
 62
     7
 10
-13.317299999999999
 20
231.10300000000001
 30
0.0
 11
-12.1731
 21
233.084
 31
0.0
  0
LINE
  5
67E
  8
0
 62
     7
 10
-12.1731
 20
233.084
 30
0.0
 11
-14.155099999999999
 21
231.94
 31
0.0
  0
LINE
  5
67F
  8
0
 62
     7
 10
-14.155099999999999
 20
231.94
 30
0.0
 11
-13.317299999999999
 21
231.10300000000001
 31
0.0
  0
LINE
  5
680
  8
0
 62
     7
 10
-0.6578450000000001
 20
245.43700000000001
 30
0.0
 11
-1.802309999999999
 21
243.45500000000001
 31
0.0
  0
LINE
  5
681
  8
0
 62
     7
 10
-1.802309999999999
 20
243.45500000000001
 30
0.0
 11
0.179318
 21
244.59899999999999
 31
0.0
  0
LINE
  5
682
  8
0
 62
     7
 10
0.179318
 20
244.59899999999999
 30
0.0
 11
-0.6578450000000001
 21
245.43700000000001
 31
0.0
  0
LINE
  5
683
  8
0
 62
     7
 10
1.4268000000000001
 20
246.684
 30
0.0
 11
-17.363900000000001
 21
227.893
 31
0.0
  0
LINE
  5
684
  8
0
 62
     7
 10
169.90299999999999
 20
124.64400000000001
 30
0.0
 11
169.31100000000001
 21
126.855
 31
0.0
  0
LINE
  5
685
  8
0
 62
     7
 10
169.31100000000001
 20
126.855
 30
0.0
 11
168.71899999999999
 21
124.64400000000001
 31
0.0
  0
LINE
  5
686
  8
0
 62
     7
 10
168.71899999999999
 20
124.64400000000001
 30
0.0
 11
169.90299999999999
 21
124.64400000000001
 31
0.0
  0
LINE
  5
687
  8
0
 62
     7
 10
168.71899999999999
 20
132.398
 30
0.0
 11
169.31100000000001
 21
130.18799999999999
 31
0.0
  0
LINE
  5
688
  8
0
 62
     7
 10
169.31100000000001
 20
130.18799999999999
 30
0.0
 11
169.90299999999999
 21
132.398
 31
0.0
  0
LINE
  5
689
  8
0
 62
     7
 10
169.90299999999999
 20
132.398
 30
0.0
 11
168.71899999999999
 21
132.398
 31
0.0
  0
LINE
  5
68A
  8
0
 62
     7
 10
169.31100000000001
 20
135.07400000000001
 30
0.0
 11
169.31100000000001
 21
98.842100000000016
 31
0.0
  0
ARC
  5
68B
  8
0
 62
     7
 10
89.748501000000005
 20
101.078289
 30
0.0
 40
3.4599349999999989
 50
182.01880499999999
 51
266.84479700000003
  0
LINE
  5
68C
  8
0
 62
     7
 10
128.374
 20
96.854600000000005
 30
0.0
 11
151.291
 21
96.854600000000005
 31
0.0
  0
LINE
  5
68D
  8
0
 62
     7
 10
70.156199999999998
 20
181.06
 30
0.0
 11
69.563999999999993
 21
183.27000000000001
 31
0.0
  0
LINE
  5
68E
  8
0
 62
     7
 10
69.563999999999993
 20
183.27000000000001
 30
0.0
 11
68.972099999999998
 21
181.06
 31
0.0
  0
LINE
  5
68F
  8
0
 62
     7
 10
68.972099999999998
 20
181.06
 30
0.0
 11
70.156199999999998
 21
181.06
 31
0.0
  0
LINE
  5
690
  8
0
 62
     7
 10
70.156199999999998
 20
252.726
 30
0.0
 11
69.563999999999993
 21
254.93600000000001
 31
0.0
  0
LINE
  5
691
  8
0
 62
     7
 10
69.563999999999993
 20
254.93600000000001
 30
0.0
 11
68.972099999999998
 21
252.726
 31
0.0
  0
LINE
  5
692
  8
0
 62
     7
 10
68.972099999999998
 20
252.726
 30
0.0
 11
70.156199999999998
 21
252.726
 31
0.0
  0
LINE
  5
693
  8
0
 62
     7
 10
68.972099999999998
 20
263.31299999999999
 30
0.0
 11
69.563999999999993
 21
261.10300000000001
 31
0.0
  0
LINE
  5
694
  8
0
 62
     7
 10
69.563999999999993
 20
261.10300000000001
 30
0.0
 11
70.156199999999998
 21
263.31299999999999
 31
0.0
  0
LINE
  5
695
  8
0
 62
     7
 10
70.156199999999998
 20
263.31299999999999
 30
0.0
 11
68.972099999999998
 21
263.31299999999999
 31
0.0
  0
LINE
  5
696
  8
0
 62
     7
 10
68.972099999999998
 20
188.81299999999999
 30
0.0
 11
69.563999999999993
 21
186.60300000000001
 31
0.0
  0
LINE
  5
697
  8
0
 62
     7
 10
69.563999999999993
 20
186.60300000000001
 30
0.0
 11
70.156199999999998
 21
188.81299999999999
 31
0.0
  0
LINE
  5
698
  8
0
 62
     7
 10
70.156199999999998
 20
188.81299999999999
 30
0.0
 11
68.972099999999998
 21
188.81299999999999
 31
0.0
  0
LINE
  5
699
  8
0
 62
     7
 10
69.563999999999993
 20
266.55799999999999
 30
0.0
 11
69.563999999999993
 21
177.16
 31
0.0
  0
LINE
  5
69A
  8
0
 62
     7
 10
147.542
 20
96.854600000000005
 30
0.0
 11
145.292
 21
96.354399999999998
 31
0.0
  0
LINE
  5
69B
  8
0
 62
     7
 10
145.292
 20
96.354399999999998
 30
0.0
 11
130.625
 21
96.354399999999998
 31
0.0
  0
LINE
  5
69C
  8
0
 62
     7
 10
130.625
 20
96.354399999999998
 30
0.0
 11
128.374
 21
96.854600000000005
 31
0.0
  0
LINE
  5
69D
  8
0
 62
     7
 10
85.112499999999997
 20
128.86699999999999
 30
0.0
 11
85.191699999999997
 21
128.94
 31
0.0
  0
LINE
  5
69E
  8
0
 62
     7
 10
86.290700000000001
 20
127.84099999999999
 30
0.0
 11
85.191699999999997
 21
128.94
 31
0.0
  0
LINE
  5
69F
  8
0
 62
     7
 10
86.290700000000001
 20
127.688
 30
0.0
 11
85.112499999999997
 21
128.86699999999999
 31
0.0
  0
LINE
  5
6A0
  8
0
 62
     7
 10
155.803
 20
128.86699999999999
 30
0.0
 11
155.72499999999999
 21
128.94
 31
0.0
  0
LINE
  5
6A1
  8
0
 62
     7
 10
154.625
 20
127.84099999999999
 30
0.0
 11
155.72499999999999
 21
128.94
 31
0.0
  0
LINE
  5
6A2
  8
0
 62
     7
 10
154.625
 20
127.688
 30
0.0
 11
155.803
 21
128.86699999999999
 31
0.0
  0
ARC
  5
6A3
  8
0
 62
     7
 10
151.16381200000001
 20
100.315624
 30
0.0
 40
3.4633219999999998
 50
272.10945299999997
 51
357.890557
  0
LINE
  5
6A4
  8
0
 62
     7
 10
128.374
 20
96.854600000000005
 30
0.0
 11
89.558099999999996
 21
97.62360000000001
 31
0.0
  0
LINE
  5
6A5
  8
0
 62
     7
 10
-4.5525500000000001
 20
261.10300000000001
 30
0.0
 11
70.263999999999996
 21
261.10300000000001
 31
0.0
  0
LINE
  5
6A6
  8
0
 62
     7
 10
56.663899999999991
 20
258.26999999999998
 30
0.0
 11
77.86399999999999
 21
258.26999999999998
 31
0.0
  0
LINE
  5
6A7
  8
0
 62
     7
 10
53.664099999999998
 20
254.93600000000001
 30
0.0
 11
70.263999999999996
 21
254.93600000000001
 31
0.0
  0
LINE
  5
6A8
  8
0
 62
     7
 10
56.664299999999997
 20
183.27000000000001
 30
0.0
 11
77.86399999999999
 21
183.27000000000001
 31
0.0
  0
LINE
  5
6A9
  8
0
 62
     7
 10
20.457599999999999
 20
228.57499999999999
 30
0.0
 11
3.5817199999999989
 21
228.57499999999999
 31
0.0
  0
LINE
  5
6AA
  8
0
 62
     7
 10
-4.5050099999999986
 20
235.28800000000001
 30
0.0
 11
-5.6494799999999996
 21
237.26900000000001
 31
0.0
  0
LINE
  5
6AB
  8
0
 62
     7
 10
-5.6494799999999996
 20
237.26900000000001
 30
0.0
 11
-3.6678399999999991
 21
236.125
 31
0.0
  0
LINE
  5
6AC
  8
0
 62
     7
 10
-3.6678399999999991
 20
236.125
 30
0.0
 11
-4.5050099999999986
 21
235.28800000000001
 31
0.0
  0
LINE
  5
6AD
  8
0
 62
     7
 10
3.5817199999999989
 20
228.57499999999999
 30
0.0
 11
-5.6494799999999996
 21
237.26900000000001
 31
0.0
  0
LINE
  5
6AE
  8
0
 62
     7
 10
152.73099999999999
 20
71.895799999999994
 30
0.0
 11
113.658
 21
71.895799999999994
 31
0.0
  0
LINE
  5
6AF
  8
0
 62
     7
 10
156.81999999999999
 20
82.308300000000003
 30
0.0
 11
156.874
 21
84.596199999999996
 31
0.0
  0
LINE
  5
6B0
  8
0
 62
     7
 10
156.874
 20
84.596199999999996
 30
0.0
 11
155.684
 21
82.641800000000003
 31
0.0
  0
LINE
  5
6B1
  8
0
 62
     7
 10
155.684
 20
82.641800000000003
 30
0.0
 11
156.81999999999999
 21
82.308300000000003
 31
0.0
  0
LINE
  5
6B2
  8
0
 62
     7
 10
152.73099999999999
 20
71.895799999999994
 30
0.0
 11
156.874
 21
84.596199999999996
 31
0.0
  0
LINE
  5
6B3
  8
0
 62
     7
 10
22.085100000000001
 20
134.21600000000001
 30
0.0
 11
4.5091400000000004
 21
134.21600000000001
 31
0.0
  0
LINE
  5
6B4
  8
0
 62
     7
 10
-5.1799099999999987
 20
125.994
 30
0.0
 11
-6.32437
 21
124.01300000000001
 31
0.0
  0
LINE
  5
6B5
  8
0
 62
     7
 10
-6.32437
 20
124.01300000000001
 30
0.0
 11
-4.34274
 21
125.157
 31
0.0
  0
LINE
  5
6B6
  8
0
 62
     7
 10
-4.34274
 20
125.157
 30
0.0
 11
-5.1799099999999987
 21
125.994
 31
0.0
  0
LINE
  5
6B7
  8
0
 62
     7
 10
4.5091400000000004
 20
134.21600000000001
 30
0.0
 11
-6.32437
 21
124.01300000000001
 31
0.0
  0
LINE
  5
6B8
  8
0
 62
     7
 10
53.664200000000001
 20
186.60300000000001
 30
0.0
 11
70.263999999999996
 21
186.60300000000001
 31
0.0
  0
LINE
  5
6B9
  8
0
 62
     7
 10
154.625
 20
130.18799999999999
 30
0.0
 11
154.625
 21
100.188
 31
0.0
  0
LINE
  5
6BA
  8
0
 62
     7
 10
86.290700000000001
 20
130.18799999999999
 30
0.0
 11
86.290700000000001
 21
100.956
 31
0.0
  0
LINE
  5
6BC
  8
0
 62
     7
 10
157.958
 20
130.18799999999999
 30
0.0
 11
82.957200000000014
 21
130.18799999999999
 31
0.0
  0
LINE
  5
6BD
  8
0
 62
     7
 10
82.957200000000014
 20
130.18799999999999
 30
0.0
 11
82.957200000000014
 21
130.38800000000001
 31
0.0
  0
LINE
  5
6BE
  8
0
 62
     7
 10
82.957200000000014
 20
130.38800000000001
 30
0.0
 11
157.958
 21
130.38800000000001
 31
0.0
  0
LINE
  5
6BF
  8
0
 62
     7
 10
157.958
 20
130.38800000000001
 30
0.0
 11
157.958
 21
130.18799999999999
 31
0.0
  0
ARC
  5
6C0
  8
0
 62
     7
 10
50.936563999999997
 20
252.860028
 30
0.0
 40
2.0777929999999998
 50
2.1105169999999989
 51
87.909210000000002
  0
ARC
  5
6C1
  8
0
 62
     7
 10
-64.911244999999994
 20
252.859273
 30
0.0
 40
2.0786020000000001
 50
92.130533
 51
177.869437
  0
ARC
  5
6C2
  8
0
 62
     7
 10
-68.072245999999993
 20
256.02097600000002
 30
0.0
 40
2.2508209999999989
 50
92.105155000000011
 51
177.90392499999999
  0
ARC
  5
6C3
  8
0
 62
     7
 10
54.095373000000002
 20
256.0202680000001
 30
0.0
 40
2.2515679999999998
 50
2.113376999999999
 51
87.868392000000014
  0
ARC
  5
6C4
  8
0
 62
     7
 10
51.012712000000001
 20
188.60346200000001
 30
0.0
 40
2.0002349999999991
 50
269.99015100000003
 51
359.99012199999999
  0
ARC
  5
6C5
  8
0
 62
     7
 10
-64.911244999999994
 20
188.68039200000001
 30
0.0
 40
2.0786020000000001
 50
182.130563
 51
267.86946699999999
  0
ARC
  5
6C6
  8
0
 62
     7
 10
-68.072245999999993
 20
185.51903300000001
 30
0.0
 40
2.2508209999999989
 50
182.09607500000001
 51
267.89484499999998
  0
ARC
  5
6C7
  8
0
 62
     7
 10
54.178775000000002
 20
185.436365
 30
0.0
 40
2.166634999999999
 50
270.00913000000003
 51
0.009101
  0
ARC
  5
6C8
  8
0
 62
     7
 10
-6.9879049999999996
 20
238.270341
 30
0.0
 40
9.5836290000000002
 50
270.00002000000001
 51
359.99999000000003
  0
ARC
  5
6C9
  8
0
 62
     7
 10
-6.9877330000000004
 20
238.27016499999999
 30
0.0
 40
9.5834530000000004
 50
179.99894
 51
269.99898999999999
  0
ARC
  5
6CA
  8
0
 62
     7
 10
-6.9880740000000001
 20
238.27016499999999
 30
0.0
 40
9.5831119999999999
 50
89.99897
 51
179.99894
  0
ARC
  5
6CB
  8
0
 62
     7
 10
-6.9875610000000004
 20
238.269993
 30
0.0
 40
9.583283999999999
 50
0.00207
 51
90.002039999999994
  0
ARC
  5
6CC
  8
0
 62
     7
 10
-6.9880769999999997
 20
238.27016800000001
 30
0.0
 40
7.33345
 50
270.00136600000002
 51
0.001336
  0
ARC
  5
6CD
  8
0
 62
     7
 10
-6.9877330000000004
 20
238.27016499999999
 30
0.0
 40
7.3334479999999989
 50
179.99862400000001
 51
269.99867399999999
  0
ARC
  5
6CE
  8
0
 62
     7
 10
-6.9880750000000003
 20
238.27016499999999
 30
0.0
 40
7.333105999999999
 50
89.998654000000002
 51
179.99862400000001
  0
ARC
  5
6CF
  8
0
 62
     7
 10
-6.9877330000000004
 20
238.27016499999999
 30
0.0
 40
7.333105999999999
 50
0.001356
 51
90.00132600000002
  0
LINE
  5
6D0
  8
0
 62
     7
 10
54.179099999999998
 20
183.27000000000001
 30
0.0
 11
-68.154899999999998
 21
183.27000000000001
 31
0.0
  0
LINE
  5
6D1
  8
0
  6
AIGENLINE003
 62
     7
 10
5.5344100000000003
 20
238.27000000000001
 30
0.0
 11
-19.958100000000002
 21
238.27000000000001
 31
0.0
  0
LINE
  5
6D2
  8
0
 62
     7
 10
54.179099999999998
 20
258.26999999999998
 30
0.0
 11
-68.154899999999998
 21
258.26999999999998
 31
0.0
  0
LINE
  5
6D3
  8
0
 62
     7
 10
56.345399999999998
 20
256.10300000000001
 30
0.0
 11
56.345399999999998
 21
185.43700000000001
 31
0.0
  0
LINE
  5
6D4
  8
0
 62
     7
 10
-70.321600000000004
 20
256.10300000000001
 30
0.0
 11
-70.321600000000004
 21
185.43700000000001
 31
0.0
  0
LINE
  5
6D5
  8
0
 62
     7
 10
2.59572
 20
96.854600000000005
 30
0.0
 11
0.345373
 21
96.354399999999998
 31
0.0
  0
LINE
  5
6D6
  8
0
 62
     7
 10
0.345373
 20
96.354399999999998
 30
0.0
 11
-14.321199999999999
 21
96.354399999999998
 31
0.0
  0
LINE
  5
6D7
  8
0
 62
     7
 10
-14.321199999999999
 20
96.354399999999998
 30
0.0
 11
-16.571200000000001
 21
96.854600000000005
 31
0.0
  0
LINE
  5
6D8
  8
0
 62
     7
 10
-68.166600000000003
 20
128.86699999999999
 30
0.0
 11
-68.087699999999984
 21
128.94
 31
0.0
  0
LINE
  5
6D9
  8
0
 62
     7
 10
-66.988399999999999
 20
127.84099999999999
 30
0.0
 11
-68.087699999999984
 21
128.94
 31
0.0
  0
LINE
  5
6DA
  8
0
 62
     7
 10
-66.988399999999999
 20
127.688
 30
0.0
 11
-68.166600000000003
 21
128.86699999999999
 31
0.0
  0
LINE
  5
6DB
  8
0
 62
     7
 10
54.191200000000002
 20
128.86699999999999
 30
0.0
 11
54.111899999999999
 21
128.94
 31
0.0
  0
LINE
  5
6DC
  8
0
 62
     7
 10
53.012900000000002
 20
127.84099999999999
 30
0.0
 11
54.111899999999999
 21
128.94
 31
0.0
  0
LINE
  5
6DD
  8
0
 62
     7
 10
53.012900000000002
 20
127.688
 30
0.0
 11
54.191200000000002
 21
128.86699999999999
 31
0.0
  0
ARC
  5
6DE
  8
0
 62
     7
 10
-63.654916
 20
100.604658
 30
0.0
 40
3.3334949999999992
 50
179.99996999999999
 51
270.00002000000001
  0
ARC
  5
6DF
  8
0
 62
     7
 10
49.679279000000001
 20
100.604832
 30
0.0
 40
3.333667999999999
 50
269.99705899999998
 51
359.99703
  0
LINE
  5
6E0
  8
0
 62
     7
 10
49.679099999999991
 20
97.271199999999993
 30
0.0
 11
-63.654899999999998
 21
97.271199999999993
 31
0.0
  0
ARC
  5
6E1
  8
0
 62
     7
 10
-63.654916
 20
100.18814399999999
 30
0.0
 40
3.3334949999999992
 50
179.99996999999999
 51
270.00002000000001
  0
ARC
  5
6E2
  8
0
 62
     7
 10
49.679279000000001
 20
100.188317
 30
0.0
 40
3.333667999999999
 50
269.99705899999998
 51
359.99703
  0
LINE
  5
6E3
  8
0
 62
     7
 10
51.0124
 20
186.60300000000001
 30
0.0
 11
-64.988500000000002
 21
186.60300000000001
 31
0.0
  0
LINE
  5
6E4
  8
0
 62
     7
 10
51.0124
 20
254.93600000000001
 30
0.0
 11
-64.988500000000002
 21
254.93600000000001
 31
0.0
  0
LINE
  5
6E5
  8
0
 62
     7
 10
49.679099999999991
 20
96.854600000000005
 30
0.0
 11
-63.654899999999998
 21
96.854600000000005
 31
0.0
  0
LINE
  5
6E6
  8
0
 62
     7
 10
53.012900000000002
 20
252.93700000000001
 30
0.0
 11
53.012900000000002
 21
188.60300000000001
 31
0.0
  0
LINE
  5
6E7
  8
0
 62
     7
 10
-66.988399999999999
 20
252.93700000000001
 30
0.0
 11
-66.988399999999999
 21
188.60300000000001
 31
0.0
  0
LINE
  5
6E8
  8
0
  6
AIGENLINE003
 62
     7
 10
-6.9878999999999989
 20
265.93700000000001
 30
0.0
 11
-6.9878999999999989
 21
180.27000000000001
 31
0.0
  0
LINE
  5
6E9
  8
0
 62
     7
 10
53.012900000000002
 20
130.18799999999999
 30
0.0
 11
53.012900000000002
 21
100.188
 31
0.0
  0
LINE
  5
6EA
  8
0
 62
     7
 10
-66.988399999999999
 20
130.18799999999999
 30
0.0
 11
-66.988399999999999
 21
100.188
 31
0.0
  0
LINE
  5
6EB
  8
0
  6
AIGENLINE003
 62
     7
 10
137.959
 20
100.568
 30
0.0
 11
137.959
 21
79.901899999999998
 31
0.0
  0
LINE
  5
6EC
  8
0
  6
AIGENLINE003
 62
     7
 10
-6.9878999999999989
 20
133.28800000000001
 30
0.0
 11
-6.9878999999999989
 21
78.162800000000004
 31
0.0
  0
LINE
  5
6ED
  8
0
 62
     7
 10
56.345399999999998
 20
130.18799999999999
 30
0.0
 11
-70.321600000000004
 21
130.18799999999999
 31
0.0
  0
LINE
  5
6EE
  8
0
 62
     7
 10
-70.321600000000004
 20
130.18799999999999
 30
0.0
 11
-70.321600000000004
 21
130.38800000000001
 31
0.0
  0
LINE
  5
6EF
  8
0
 62
     7
 10
-70.321600000000004
 20
130.38800000000001
 30
0.0
 11
56.345399999999998
 21
130.38800000000001
 31
0.0
  0
LINE
  5
6F0
  8
0
 62
     7
 10
56.345399999999998
 20
130.38800000000001
 30
0.0
 11
56.345399999999998
 21
130.18799999999999
 31
0.0
  0
ARC
  5
6F1
  8
0
 62
     7
 10
158.699849
 20
122.693302
 30
0.0
 40
0.341593
 50
0.531954
 51
47.686391999999991
  0
LINE
  5
6F2
  8
0
 62
     7
 10
160.208
 20
89.596500000000006
 30
0.0
 11
155.208
 21
89.596500000000006
 31
0.0
  0
LINE
  5
6F3
  8
0
 62
     7
 10
160.541
 20
89.929299999999984
 30
0.0
 11
154.875
 21
89.929299999999984
 31
0.0
  0
ARC
  5
6F4
  8
0
 62
     7
 10
156.144723
 20
112.097027
 30
0.0
 40
0.103305
 50
180.27188100000001
 51
197.63845499999999
  0
ARC
  5
6F5
  8
0
 62
     7
 10
156.218716
 20
112.11968400000001
 30
0.0
 40
0.180687
 50
197.375854
 51
211.044353
  0
ARC
  5
6F6
  8
0
 62
     7
 10
156.35651200000001
 20
112.202257
 30
0.0
 40
0.341329
 50
210.991411
 51
222.44785100000001
  0
ARC
  5
6F7
  8
0
 62
     7
 10
156.58504300000001
 20
112.40766499999999
 30
0.0
 40
0.6486
 50
222.21187
 51
230.49028899999999
  0
ARC
  5
6F8
  8
0
 62
     7
 10
156.96235799999999
 20
112.86663799999999
 30
0.0
 40
1.2427559999999991
 50
230.53170800000001
 51
242.29770699999989
  0
ARC
  5
6F9
  8
0
 62
     7
 10
157.513318
 20
113.848693
 30
0.0
 40
2.3685789999999991
 50
241.541247
 51
254.893812
  0
ARC
  5
6FA
  8
0
 62
     7
 10
157.711941
 20
114.44806199999999
 30
0.0
 40
2.9992099999999988
 50
254.21449100000009
 51
269.92790500000012
  0
ARC
  5
6FB
  8
0
 62
     7
 10
157.70593199999999
 20
114.388723
 30
0.0
 40
2.9398699999999991
 50
270.04355299999997
 51
295.70541500000002
  0
ARC
  5
6FC
  8
0
 62
     7
 10
158.278718
 20
113.13376599999999
 30
0.0
 40
1.560921
 50
296.741694
 51
307.415009
  0
ARC
  5
6FD
  8
0
 62
     7
 10
158.7943929999999
 20
112.44525
 30
0.0
 40
0.7008020000000002
 50
308.13066900000001
 51
316.808043
  0
ARC
  5
6FE
  8
0
 62
     7
 10
159.096564
 20
112.16837099999999
 30
0.0
 40
0.291034
 50
315.83208500000001
 51
340.46470399999998
  0
ARC
  5
6FF
  8
0
 62
     7
 10
159.27340699999999
 20
112.09694500000001
 30
0.0
 40
0.100819
 50
345.11898200000002
 51
359.76784600000002
  0
LINE
  5
700
  8
0
 62
     7
 10
-3.2375500000000001
 20
83.429699999999997
 30
0.0
 11
-1.4874299999999989
 21
90.262799999999984
 31
0.0
  0
LINE
  5
701
  8
0
 62
     7
 10
2.1788599999999989
 20
96.521199999999993
 30
0.0
 11
2.1788599999999989
 21
95.8797
 31
0.0
  0
LINE
  5
702
  8
0
 62
     7
 10
-16.154299999999999
 20
96.521199999999993
 30
0.0
 11
-16.154299999999999
 21
95.8797
 31
0.0
  0
LINE
  5
703
  8
0
 62
     7
 10
2.5123500000000001
 20
96.687900000000013
 30
0.0
 11
2.5123500000000001
 21
96.521199999999993
 31
0.0
  0
LINE
  5
704
  8
0
 62
     7
 10
3.2620100000000001
 20
94.962599999999995
 30
0.0
 11
3.2620100000000001
 21
95.8797
 31
0.0
  0
LINE
  5
705
  8
0
 62
     7
 10
1.0123500000000001
 20
92.679900000000004
 30
0.0
 11
1.0123500000000001
 21
94.962599999999995
 31
0.0
  0
LINE
  5
706
  8
0
 62
     7
 10
-16.488199999999999
 20
96.687900000000013
 30
0.0
 11
-16.488199999999999
 21
96.521199999999993
 31
0.0
  0
LINE
  5
707
  8
0
 62
     7
 10
-17.237500000000001
 20
94.962599999999995
 30
0.0
 11
-17.237500000000001
 21
95.8797
 31
0.0
  0
LINE
  5
708
  8
0
 62
     7
 10
-14.9878
 20
92.679900000000004
 30
0.0
 11
-14.9878
 21
94.962599999999995
 31
0.0
  0
LINE
  5
709
  8
0
 62
     7
 10
1.0123500000000001
 20
92.679900000000004
 30
0.0
 11
-1.4874299999999989
 21
90.262799999999984
 31
0.0
  0
LINE
  5
70A
  8
0
 62
     7
 10
-14.9878
 20
92.679900000000004
 30
0.0
 11
-12.4877
 21
90.262799999999984
 31
0.0
  0
LINE
  5
70B
  8
0
 62
     7
 10
-3.0711499999999989
 20
83.429699999999997
 30
0.0
 11
-2.904059999999999
 21
83.262999999999991
 31
0.0
  0
LINE
  5
70C
  8
0
 62
     7
 10
-2.904059999999999
 20
81.328900000000004
 30
0.0
 11
-2.904059999999999
 21
83.262999999999991
 31
0.0
  0
LINE
  5
70D
  8
0
 62
     7
 10
-2.904059999999999
 20
81.328900000000004
 30
0.0
 11
-3.0711499999999989
 21
81.162800000000004
 31
0.0
  0
LINE
  5
70E
  8
0
 62
     7
 10
-3.0711499999999989
 20
83.429699999999997
 30
0.0
 11
-3.0711499999999989
 21
81.162800000000004
 31
0.0
  0
LINE
  5
70F
  8
0
 62
     7
 10
-10.904299999999999
 20
83.429699999999997
 30
0.0
 11
-10.904299999999999
 21
81.162800000000004
 31
0.0
  0
LINE
  5
710
  8
0
 62
     7
 10
-11.071400000000001
 20
81.328900000000004
 30
0.0
 11
-10.904299999999999
 21
81.162800000000004
 31
0.0
  0
LINE
  5
711
  8
0
 62
     7
 10
-11.071400000000001
 20
81.328900000000004
 30
0.0
 11
-11.071400000000001
 21
83.262999999999991
 31
0.0
  0
LINE
  5
712
  8
0
 62
     7
 10
-10.904299999999999
 20
83.429699999999997
 30
0.0
 11
-11.071400000000001
 21
83.262999999999991
 31
0.0
  0
LINE
  5
713
  8
0
 62
     7
 10
-10.904299999999999
 20
83.429699999999997
 30
0.0
 11
-3.0711499999999989
 21
83.429699999999997
 31
0.0
  0
LINE
  5
714
  8
0
 62
     7
 10
-10.7376
 20
83.429699999999997
 30
0.0
 11
-12.4877
 21
90.262799999999984
 31
0.0
  0
LINE
  5
715
  8
0
 62
     7
 10
-10.904299999999999
 20
81.162800000000004
 30
0.0
 11
-3.0711499999999989
 21
81.162800000000004
 31
0.0
  0
LINE
  5
716
  8
0
 62
     7
 10
-11.071400000000001
 20
81.328900000000004
 30
0.0
 11
-2.904059999999999
 21
81.328900000000004
 31
0.0
  0
LINE
  5
717
  8
0
 62
     7
 10
-11.071400000000001
 20
83.262999999999991
 30
0.0
 11
-2.904059999999999
 21
83.262999999999991
 31
0.0
  0
LINE
  5
718
  8
0
 62
     7
 10
-12.4877
 20
90.262799999999984
 30
0.0
 11
-1.4874299999999989
 21
90.262799999999984
 31
0.0
  0
LINE
  5
719
  8
0
 62
     7
 10
-14.9878
 20
92.679900000000004
 30
0.0
 11
1.0123500000000001
 21
92.679900000000004
 31
0.0
  0
LINE
  5
71A
  8
0
 62
     7
 10
-17.237500000000001
 20
94.962599999999995
 30
0.0
 11
3.2620100000000001
 21
94.962599999999995
 31
0.0
  0
LINE
  5
71B
  8
0
 62
     7
 10
-16.154299999999999
 20
96.187700000000007
 30
0.0
 11
2.1788599999999989
 21
96.187700000000007
 31
0.0
  0
LINE
  5
71C
  8
0
 62
     7
 10
-17.237500000000001
 20
95.8797
 30
0.0
 11
3.2620100000000001
 21
95.8797
 31
0.0
  0
LINE
  5
71D
  8
0
 62
     7
 10
-16.488199999999999
 20
96.521199999999993
 30
0.0
 11
2.5123500000000001
 21
96.521199999999993
 31
0.0
  0
LINE
  5
71E
  8
0
 62
     7
 10
-16.488199999999999
 20
96.687900000000013
 30
0.0
 11
2.5123500000000001
 21
96.687900000000013
 31
0.0
  0
ARC
  5
71F
  8
0
 62
     7
 10
144.98357100000001
 20
85.323800000000006
 30
0.0
 40
3.240272
 50
192.707424
 51
199.11462
  0
ARC
  5
720
  8
0
 62
     7
 10
147.065046
 20
85.820888999999994
 30
0.0
 40
5.3801759999999996
 50
182.509604
 51
192.99545000000001
  0
ARC
  5
721
  8
0
 62
     7
 10
148.35534899999999
 20
85.944456999999986
 30
0.0
 40
6.6749890000000001
 50
165.562333
 51
183.08430899999999
  0
ARC
  5
722
  8
0
 62
     7
 10
146.71707699999999
 20
86.318973
 30
0.0
 40
4.9952870000000003
 50
148.61176399999999
 51
165.037274
  0
ARC
  5
723
  8
0
 62
     7
 10
145.71539100000001
 20
86.868036000000004
 30
0.0
 40
3.8545839999999991
 50
127.42200200000001
 51
147.823928
  0
LINE
  5
724
  8
0
 62
     7
 10
147.125
 20
96.521199999999993
 30
0.0
 11
147.125
 21
95.8797
 31
0.0
  0
LINE
  5
725
  8
0
 62
     7
 10
128.791
 20
96.521199999999993
 30
0.0
 11
128.791
 21
95.8797
 31
0.0
  0
LINE
  5
726
  8
0
 62
     7
 10
147.458
 20
96.687900000000013
 30
0.0
 11
147.458
 21
96.521199999999993
 31
0.0
  0
LINE
  5
727
  8
0
 62
     7
 10
148.208
 20
94.962599999999995
 30
0.0
 11
148.208
 21
95.8797
 31
0.0
  0
LINE
  5
728
  8
0
 62
     7
 10
145.958
 20
92.679900000000004
 30
0.0
 11
145.958
 21
94.962599999999995
 31
0.0
  0
LINE
  5
729
  8
0
 62
     7
 10
128.458
 20
96.687900000000013
 30
0.0
 11
128.458
 21
96.521199999999993
 31
0.0
  0
LINE
  5
72A
  8
0
 62
     7
 10
127.708
 20
94.962599999999995
 30
0.0
 11
127.708
 21
95.8797
 31
0.0
  0
LINE
  5
72B
  8
0
 62
     7
 10
129.958
 20
92.679900000000004
 30
0.0
 11
129.958
 21
94.962599999999995
 31
0.0
  0
LINE
  5
72C
  8
0
 62
     7
 10
145.958
 20
92.679900000000004
 30
0.0
 11
143.458
 21
90.262799999999984
 31
0.0
  0
LINE
  5
72D
  8
0
 62
     7
 10
141.708
 20
83.429699999999997
 30
0.0
 11
141.922
 21
84.262699999999995
 31
0.0
  0
LINE
  5
72E
  8
0
 62
     7
 10
143.37299999999999
 20
89.929299999999984
 30
0.0
 11
143.458
 21
90.262799999999984
 31
0.0
  0
LINE
  5
72F
  8
0
 62
     7
 10
129.958
 20
92.679900000000004
 30
0.0
 11
132.458
 21
90.262799999999984
 31
0.0
  0
LINE
  5
730
  8
0
 62
     7
 10
141.874
 20
83.429699999999997
 30
0.0
 11
142.042
 21
83.262999999999991
 31
0.0
  0
LINE
  5
731
  8
0
 62
     7
 10
142.042
 20
81.328900000000004
 30
0.0
 11
142.042
 21
83.262999999999991
 31
0.0
  0
LINE
  5
732
  8
0
 62
     7
 10
142.042
 20
81.328900000000004
 30
0.0
 11
141.874
 21
81.162800000000004
 31
0.0
  0
LINE
  5
733
  8
0
 62
     7
 10
141.874
 20
83.429699999999997
 30
0.0
 11
141.874
 21
81.162800000000004
 31
0.0
  0
LINE
  5
734
  8
0
 62
     7
 10
134.042
 20
83.429699999999997
 30
0.0
 11
134.042
 21
81.162800000000004
 31
0.0
  0
LINE
  5
735
  8
0
 62
     7
 10
133.874
 20
81.328900000000004
 30
0.0
 11
134.042
 21
81.162800000000004
 31
0.0
  0
LINE
  5
736
  8
0
 62
     7
 10
133.874
 20
81.328900000000004
 30
0.0
 11
133.874
 21
83.262999999999991
 31
0.0
  0
LINE
  5
737
  8
0
 62
     7
 10
134.042
 20
83.429699999999997
 30
0.0
 11
133.874
 21
83.262999999999991
 31
0.0
  0
LINE
  5
738
  8
0
 62
     7
 10
134.042
 20
83.429699999999997
 30
0.0
 11
141.874
 21
83.429699999999997
 31
0.0
  0
LINE
  5
739
  8
0
 62
     7
 10
134.208
 20
83.429699999999997
 30
0.0
 11
132.458
 21
90.262799999999984
 31
0.0
  0
LINE
  5
73A
  8
0
 62
     7
 10
134.042
 20
81.162800000000004
 30
0.0
 11
141.874
 21
81.162800000000004
 31
0.0
  0
LINE
  5
73B
  8
0
 62
     7
 10
133.874
 20
81.328900000000004
 30
0.0
 11
142.042
 21
81.328900000000004
 31
0.0
  0
LINE
  5
73C
  8
0
 62
     7
 10
133.874
 20
83.262999999999991
 30
0.0
 11
142.042
 21
83.262999999999991
 31
0.0
  0
LINE
  5
73D
  8
0
 62
     7
 10
132.458
 20
90.262799999999984
 30
0.0
 11
143.458
 21
90.262799999999984
 31
0.0
  0
LINE
  5
73E
  8
0
 62
     7
 10
129.958
 20
92.679900000000004
 30
0.0
 11
145.958
 21
92.679900000000004
 31
0.0
  0
LINE
  5
73F
  8
0
 62
     7
 10
127.708
 20
94.962599999999995
 30
0.0
 11
148.208
 21
94.962599999999995
 31
0.0
  0
LINE
  5
740
  8
0
 62
     7
 10
128.791
 20
96.187700000000007
 30
0.0
 11
147.125
 21
96.187700000000007
 31
0.0
  0
LINE
  5
741
  8
0
 62
     7
 10
127.708
 20
95.8797
 30
0.0
 11
148.208
 21
95.8797
 31
0.0
  0
LINE
  5
742
  8
0
 62
     7
 10
128.458
 20
96.521199999999993
 30
0.0
 11
147.458
 21
96.521199999999993
 31
0.0
  0
LINE
  5
743
  8
0
 62
     7
 10
128.458
 20
96.687900000000013
 30
0.0
 11
147.458
 21
96.687900000000013
 31
0.0
  0
LINE
  5
744
  8
0
 62
     7
 10
151.375
 20
82.096500000000006
 30
0.0
 11
149.708
 21
82.096500000000006
 31
0.0
  0
LINE
  5
745
  8
0
 62
     7
 10
152.708
 20
83.596500000000006
 30
0.0
 11
149.708
 21
83.596500000000006
 31
0.0
  0
LINE
  5
746
  8
0
 62
     7
 10
152.708
 20
90.596199999999996
 30
0.0
 11
149.708
 21
90.596199999999996
 31
0.0
  0
LINE
  5
747
  8
0
 62
     7
 10
151.375
 20
92.096299999999999
 30
0.0
 11
149.708
 21
92.096299999999999
 31
0.0
  0
LINE
  5
748
  8
0
 62
     7
 10
151.375
 20
92.096299999999999
 30
0.0
 11
151.375
 21
90.596199999999996
 31
0.0
  0
LINE
  5
749
  8
0
 62
     7
 10
151.375
 20
83.596500000000006
 30
0.0
 11
151.375
 21
82.096500000000006
 31
0.0
  0
LINE
  5
74A
  8
0
 62
     7
 10
149.708
 20
92.096299999999999
 30
0.0
 11
149.708
 21
82.096500000000006
 31
0.0
  0
LINE
  5
74B
  8
0
 62
     7
 10
150.208
 20
90.596199999999996
 30
0.0
 11
150.208
 21
83.596500000000006
 31
0.0
  0
LINE
  5
74C
  8
0
 62
     7
 10
152.708
 20
90.596199999999996
 30
0.0
 11
152.708
 21
83.596500000000006
 31
0.0
  0
ARC
  5
74D
  8
0
 62
     7
 10
156.874448
 20
87.929728999999995
 30
0.0
 40
3.3334959999999989
 50
270.00002000000001
 51
359.99999000000003
  0
LINE
  5
74E
  8
0
 62
     7
 10
155.208
 20
89.596500000000006
 30
0.0
 11
154.875
 21
89.929299999999984
 31
0.0
  0
LINE
  5
74F
  8
0
 62
     7
 10
154.875
 20
89.929299999999984
 30
0.0
 11
154.875
 21
103.93000000000001
 31
0.0
  0
LINE
  5
750
  8
0
 62
     7
 10
160.208
 20
89.596500000000006
 30
0.0
 11
160.541
 21
89.929299999999984
 31
0.0
  0
LINE
  5
751
  8
0
 62
     7
 10
141.922
 20
84.262699999999995
 30
0.0
 11
149.708
 21
84.262699999999995
 31
0.0
  0
LINE
  5
752
  8
0
 62
     7
 10
143.37299999999999
 20
89.929299999999984
 30
0.0
 11
149.708
 21
89.929299999999984
 31
0.0
  0
LINE
  5
753
  8
0
 62
     7
 10
152.708
 20
89.596500000000006
 30
0.0
 11
155.208
 21
89.596500000000006
 31
0.0
  0
LINE
  5
754
  8
0
 62
     7
 10
152.708
 20
84.596199999999996
 30
0.0
 11
156.874
 21
84.596199999999996
 31
0.0
  0
LINE
  5
755
  8
0
 62
     7
 10
160.208
 20
87.929699999999997
 30
0.0
 11
160.208
 21
89.596500000000006
 31
0.0
  0
LINE
  5
756
  8
0
 62
     7
 10
160.541
 20
89.929299999999984
 30
0.0
 11
160.541
 21
103.93000000000001
 31
0.0
  0
LINE
  5
757
  8
0
 62
     7
 10
160.541
 20
104.43000000000001
 30
0.0
 11
160.541
 21
104.929
 31
0.0
  0
LINE
  5
758
  8
0
 62
     7
 10
154.875
 20
104.43000000000001
 30
0.0
 11
154.875
 21
104.929
 31
0.0
  0
LINE
  5
759
  8
0
 62
     7
 10
154.875
 20
103.93000000000001
 30
0.0
 11
160.541
 21
103.93000000000001
 31
0.0
  0
LINE
  5
75A
  8
0
 62
     7
 10
154.875
 20
104.43000000000001
 30
0.0
 11
160.541
 21
104.43000000000001
 31
0.0
  0
ARC
  5
75B
  8
0
 62
     7
 10
160.53174799999999
 20
104.170689
 30
0.0
 40
0.259265
 50
1.982332999999999
 51
87.859600000000015
  0
ARC
  5
75C
  8
0
 62
     7
 10
160.53109799999999
 20
104.189274
 30
0.0
 40
0.259938
 50
272.27823999999998
 51
357.87982699999998
  0
ARC
  5
75D
  8
0
 62
     7
 10
154.884557
 20
104.189312
 30
0.0
 40
0.25995
 50
182.12854799999999
 51
267.87148200000001
  0
ARC
  5
75E
  8
0
 62
     7
 10
154.884567
 20
104.16999199999999
 30
0.0
 40
0.25996
 50
92.130700000000004
 51
177.86927
  0
LINE
  5
75F
  8
0
 62
     7
 10
154.875
 20
104.929
 30
0.0
 11
160.541
 21
104.929
 31
0.0
  0
LINE
  5
760
  8
0
 62
     7
 10
154.875
 20
105.43000000000001
 30
0.0
 11
160.541
 21
105.43000000000001
 31
0.0
  0
ARC
  5
761
  8
0
 62
     7
 10
160.53174799999999
 20
105.170462
 30
0.0
 40
0.259265
 50
1.982332999999999
 51
87.859600000000015
  0
ARC
  5
762
  8
0
 62
     7
 10
160.53109799999999
 20
105.189047
 30
0.0
 40
0.259938
 50
272.27823999999998
 51
357.87982699999998
  0
ARC
  5
763
  8
0
 62
     7
 10
154.884557
 20
105.18908500000001
 30
0.0
 40
0.25995
 50
182.12854799999999
 51
267.87148200000001
  0
ARC
  5
764
  8
0
 62
     7
 10
154.884557
 20
105.169775
 30
0.0
 40
0.25995
 50
92.128518000000014
 51
177.87145200000001
  0
LINE
  5
765
  8
0
 62
     7
 10
155.999
 20
119.59699999999999
 30
0.0
 11
159.416
 21
119.59699999999999
 31
0.0
  0
LINE
  5
766
  8
0
 62
     7
 10
155.999
 20
119.846
 30
0.0
 11
159.416
 21
119.846
 31
0.0
  0
ARC
  5
767
  8
0
 62
     7
 10
159.41155599999999
 20
119.71585399999999
 30
0.0
 40
0.130215
 50
2.3840029999999999
 51
87.931666000000007
  0
ARC
  5
768
  8
0
 62
     7
 10
159.412071
 20
119.726169
 30
0.0
 40
0.12968
 50
271.84933100000001
 51
357.83499999999998
  0
ARC
  5
769
  8
0
 62
     7
 10
156.00423900000001
 20
119.72611999999999
 30
0.0
 40
0.129654
 50
182.14388099999999
 51
267.85614900000002
  0
ARC
  5
76A
  8
0
 62
     7
 10
156.00423900000001
 20
119.71642
 30
0.0
 40
0.129654
 50
92.143850999999984
 51
177.85611900000001
  0
ARC
  5
76B
  8
0
 62
     7
 10
159.34255099999999
 20
111.231144
 30
0.0
 40
0.865972
 50
2.0961609999999991
 51
87.903829000000002
  0
ARC
  5
76C
  8
0
 62
     7
 10
156.073103
 20
111.231134
 30
0.0
 40
0.8659819999999999
 50
92.096755999999999
 51
177.90321399999999
  0
LINE
  5
76D
  8
0
 62
     7
 10
160.208
 20
105.43000000000001
 30
0.0
 11
160.208
 21
111.26300000000001
 31
0.0
  0
LINE
  5
76E
  8
0
 62
     7
 10
155.208
 20
105.43000000000001
 30
0.0
 11
155.208
 21
111.26300000000001
 31
0.0
  0
LINE
  5
76F
  8
0
 62
     7
 10
155.208
 20
105.43000000000001
 30
0.0
 11
160.208
 21
105.43000000000001
 31
0.0
  0
LINE
  5
770
  8
0
 62
     7
 10
159.374
 20
119.59699999999999
 30
0.0
 11
159.374
 21
112.09699999999999
 31
0.0
  0
LINE
  5
771
  8
0
 62
     7
 10
156.041
 20
119.59699999999999
 30
0.0
 11
156.041
 21
112.09699999999999
 31
0.0
  0
LINE
  5
772
  8
0
 62
     7
 10
159.041
 20
122.696
 30
0.0
 11
159.041
 21
119.846
 31
0.0
  0
LINE
  5
773
  8
0
 62
     7
 10
156.041
 20
125.51300000000001
 30
0.0
 11
158.93000000000001
 21
122.946
 31
0.0
  0
LINE
  5
774
  8
0
 62
     7
 10
156.041
 20
119.846
 30
0.0
 11
155.333
 21
119.846
 31
0.0
  0
LINE
  5
775
  8
0
 62
     7
 10
155.333
 20
119.846
 30
0.0
 11
155.333
 21
125.51300000000001
 31
0.0
  0
LINE
  5
776
  8
0
 62
     7
 10
155.333
 20
125.51300000000001
 30
0.0
 11
156.041
 21
125.51300000000001
 31
0.0
  0
LINE
  5
777
  8
0
 62
     7
 10
156.041
 20
125.51300000000001
 30
0.0
 11
156.041
 21
119.846
 31
0.0
  0
LINE
  5
778
  8
0
 62
     7
 10
155.333
 20
119.51300000000001
 30
0.0
 11
154.625
 21
119.51300000000001
 31
0.0
  0
LINE
  5
779
  8
0
 62
     7
 10
154.625
 20
119.51300000000001
 30
0.0
 11
154.625
 21
125.84699999999999
 31
0.0
  0
LINE
  5
77A
  8
0
 62
     7
 10
154.625
 20
125.84699999999999
 30
0.0
 11
155.333
 21
125.84699999999999
 31
0.0
  0
LINE
  5
77B
  8
0
 62
     7
 10
155.333
 20
125.84699999999999
 30
0.0
 11
155.333
 21
119.51300000000001
 31
0.0
  0
TEXT
  5
77C
  8
_________2
 62
     7
 10
290.64778333333328
 20
12.808299999999999
 30
0.0
 40
3.3734599999999988
  1
A3
 41
0.5
 72
     2
 11
293.459
 21
12.808299999999999
 31
0.0
  0
TEXT
  5
77D
  8
_________2
 62
     7
 10
126.95699999999999
 20
61.006500000000003
 30
0.0
 40
4.2168199999999993
  1
※アンダーカウンター式で設置する場合は、固定金具（CET007R\U+00D74 別売）が必要です。
 41
0.5
  0
TEXT
  5
77E
  8
_________2
 62
     7
 10
134.495
 20
21.954699999999999
 30
0.0
 40
3.9357000000000002
  1
実容量：38.5L、重量：7.7kg、オーバーフロー付
 41
0.5
  0
LINE
  5
77F
  8
_________2
 62
     7
 10
315.209
 20
148.65899999999999
 30
0.0
 11
293.459
 21
148.65899999999999
 31
0.0
  0
LINE
  5
780
  8
_________2
 62
     7
 10
105.20699999999999
 20
17.156300000000002
 30
0.0
 11
105.20699999999999
 21
0.176045
 31
0.0
  0
LINE
  5
781
  8
_________2
 62
     7
 10
105.20699999999999
 20
297.178
 30
0.0
 11
105.20699999999999
 21
280.15800000000002
 31
0.0
  0
LINE
  5
782
  8
_________2
 62
     7
 10
-83.043899999999994
 20
148.65899999999999
 30
0.0
 11
-104.794
 21
148.65899999999999
 31
0.0
  0
LINE
  5
783
  8
_________2
 62
     7
 10
186.649
 20
51.052199999999999
 30
0.0
 11
184.46299999999999
 21
51.052199999999999
 31
0.0
  0
LINE
  5
784
  8
_________2
 62
     7
 10
187.142
 20
51.052199999999999
 30
0.0
 11
186.88900000000001
 21
51.052199999999999
 31
0.0
  0
LINE
  5
785
  8
_________2
 62
     7
 10
187.63399999999999
 20
51.052199999999999
 30
0.0
 11
190.559
 21
51.052199999999999
 31
0.0
  0
LINE
  5
786
  8
_________2
 62
     7
 10
187.142
 20
51.052199999999999
 30
0.0
 11
187.39400000000001
 21
51.052199999999999
 31
0.0
  0
LINE
  5
787
  8
_________2
 62
     7
 10
180.745
 20
51.052199999999999
 30
0.0
 11
178.55799999999999
 21
51.052199999999999
 31
0.0
  0
LINE
  5
788
  8
_________2
 62
     7
 10
181.23699999999999
 20
51.052199999999999
 30
0.0
 11
180.98599999999999
 21
51.052199999999999
 31
0.0
  0
LINE
  5
789
  8
_________2
 62
     7
 10
181.23699999999999
 20
51.544800000000002
 30
0.0
 11
181.23699999999999
 21
53.7318
 31
0.0
  0
LINE
  5
78A
  8
_________2
 62
     7
 10
181.23699999999999
 20
51.052199999999999
 30
0.0
 11
181.23699999999999
 21
51.304299999999998
 31
0.0
  0
LINE
  5
78B
  8
_________2
 62
     7
 10
181.72999999999999
 20
51.052199999999999
 30
0.0
 11
183.917
 21
51.052199999999999
 31
0.0
  0
LINE
  5
78C
  8
_________2
 62
     7
 10
181.23699999999999
 20
51.052199999999999
 30
0.0
 11
181.489
 21
51.052199999999999
 31
0.0
  0
LINE
  5
78D
  8
_________2
 62
     7
 10
181.23699999999999
 20
50.560200000000002
 30
0.0
 11
181.23699999999999
 21
48.373199999999997
 31
0.0
  0
LINE
  5
78E
  8
_________2
 62
     7
 10
181.23699999999999
 20
51.052199999999999
 30
0.0
 11
181.23699999999999
 21
50.800699999999999
 31
0.0
  0
LINE
  5
78F
  8
_________2
 62
     7
 10
184.94799999999989
 20
49.832599999999999
 30
0.0
 11
190.12599999999989
 21
48.9679
 31
0.0
  0
LINE
  5
790
  8
_________2
 62
     7
 10
184.94799999999989
 20
52.271700000000003
 30
0.0
 11
190.12599999999989
 21
53.137099999999997
 31
0.0
  0
LINE
  5
791
  8
_________2
 62
     7
 10
190.12599999999989
 20
48.9679
 30
0.0
 11
190.12599999999989
 21
53.137099999999997
 31
0.0
  0
LINE
  5
792
  8
_________2
 62
     7
 10
184.94799999999989
 20
49.832599999999999
 30
0.0
 11
184.94799999999989
 21
52.271700000000003
 31
0.0
  0
ARC
  5
793
  8
_________2
 62
     7
 10
181.190651
 20
51.004810999999989
 30
0.0
 40
1.2677780000000001
 50
2.1403449999999991
 51
87.892005999999995
  0
ARC
  5
794
  8
_________2
 62
     7
 10
181.28420199999999
 20
51.005241999999988
 30
0.0
 40
1.2673579999999991
 50
92.121564999999975
 51
177.87840600000001
  0
ARC
  5
795
  8
_________2
 62
     7
 10
181.28381400000001
 20
51.098689
 30
0.0
 40
1.2669559999999991
 50
182.10473099999999
 51
267.89529900000002
  0
ARC
  5
796
  8
_________2
 62
     7
 10
181.19038399999999
 20
51.099775000000001
 30
0.0
 40
1.268054
 50
272.11960599999998
 51
357.84804300000002
  0
ARC
  5
797
  8
_________2
 62
     7
 10
181.23728399999999
 20
51.05215900000001
 30
0.0
 40
2.0849849999999992
 50
0.00001
 51
89.999980000000008
  0
ARC
  5
798
  8
_________2
 62
     7
 10
181.317331
 20
50.972827000000002
 30
0.0
 40
2.1657969999999991
 50
92.118111999999996
 51
177.90079600000001
  0
ARC
  5
799
  8
_________2
 62
     7
 10
181.31728799999999
 20
51.132162999999998
 30
0.0
 40
2.1657779999999991
 50
182.11700400000001
 51
267.88302499999998
  0
ARC
  5
79A
  8
_________2
 62
     7
 10
181.15730300000001
 20
51.132855999999997
 30
0.0
 40
2.166469999999999
 50
272.115725
 51
357.86534699999999
  0
TEXT
  5
79B
  8
_________2
 62
     7
 10
214.51300000000001
 20
22.9269
 30
0.0
 40
3.0923400000000001
  1
図番
 41
0.5
  0
LINE
  5
79C
  8
_________2
 62
     7
 10
213.458
 20
27.156099999999999
 30
0.0
 11
293.459
 21
27.156099999999999
 31
0.0
  0
TEXT
  5
79D
  8
_________2
 62
     7
 10
214.51300000000001
 20
32.926699999999997
 30
0.0
 40
3.0923400000000001
  1
品番
 41
0.5
  0
TEXT
  5
79E
  8
_________2
 62
     7
 10
214.51300000000001
 20
53.0655
 30
0.0
 40
3.0923400000000001
  1
名称
 41
0.5
  0
TEXT
  5
79F
  8
_________2
 62
     7
 10
201.75325833333329
 20
48.069400000000002
 30
0.0
 40
3.6545800000000002
  1
mm
 41
0.5
 72
     1
 11
203.27600000000001
 21
48.069400000000002
 31
0.0
  0
TEXT
  5
7A0
  8
_________2
 62
     7
 10
195.55099999999999
 20
53.0655
 30
0.0
 40
3.0923400000000001
  1
単位
 41
0.5
  0
TEXT
  5
7A1
  8
_________2
 62
     7
 10
195.55099999999999
 20
40.658200000000001
 30
0.0
 40
3.0923400000000001
  1
尺度
 41
0.5
  0
TEXT
  5
7A2
  8
_________2
 62
     7
 10
200.4570586666666
 20
34.465299999999999
 30
0.0
 40
3.6545800000000002
  1
1 ： 6
 41
0.5
 72
     1
 11
203.86799999999999
 21
34.465299999999999
 31
0.0
  0
TEXT
  5
7A3
  8
_________2
 62
     7
 10
247.39046250000001
 20
30.3553
 30
0.0
 40
3.9357000000000002
  1
FR21072
 41
0.5
 72
     1
 11
253.458
 21
30.3553
 31
0.0
  0
TEXT
  5
7A4
  8
_________2
 62
     7
 10
247.39046250000001
 20
20.354800000000001
 30
0.0
 40
3.9357000000000002
  1
FR21072
 41
0.5
 72
     1
 11
253.458
 21
20.354800000000001
 31
0.0
  0
TEXT
  5
7A5
  8
_________2
 62
     7
 10
219.08699999999999
 20
45.473100000000002
 30
0.0
 40
3.9357000000000002
  1
ハーモニー ステンレス製キッチンシンク
 41
0.5
  0
TEXT
  5
7A6
  8
_________2
 62
     7
 10
155.00789066666661
 20
34.850499999999997
 30
0.0
 40
3.6545800000000002
  1
篠崎
 41
0.5
 72
     1
 11
156.95699999999999
 21
34.850499999999997
 31
0.0
  0
TEXT
  5
7A7
  8
_________2
 62
     7
 10
130.69789066666669
 20
34.850499999999997
 30
0.0
 40
3.6545800000000002
  1
近藤
 41
0.5
 72
     1
 11
132.64699999999999
 21
34.850499999999997
 31
0.0
  0
TEXT
  5
7A8
  8
_________2
 62
     7
 10
177.69399999999999
 20
34.465299999999999
 30
0.0
 40
3.6545800000000002
  1
17.12.28
 41
0.5
  0
TEXT
  5
7A9
  8
_________2
 62
     7
 10
176.501
 20
40.658200000000001
 30
0.0
 40
3.0923400000000001
  1
日付
 41
0.5
  0
TEXT
  5
7AA
  8
_________2
 62
     7
 10
139.547
 20
40.658200000000001
 30
0.0
 40
3.0923400000000001
  1
検図
 41
0.5
  0
TEXT
  5
7AB
  8
_________2
 62
     7
 10
127.929
 20
26.4588
 30
0.0
 40
3.0923400000000001
  1
備考
 41
0.5
  0
TEXT
  5
7AC
  8
_________2
 62
     7
 10
127.929
 20
40.658200000000001
 30
0.0
 40
3.0923400000000001
  1
製図
 41
0.5
  0
TEXT
  5
7AD
  8
_________2
 62
     7
 10
133.69596533333331
 20
49.184199999999997
 30
0.0
 40
4.4979399999999989
  1
セラトレーディング株式会社
 41
0.5
 72
     1
 11
151.08799999999999
 21
49.184199999999997
 31
0.0
  0
LINE
  5
7AE
  8
_________2
 62
     7
 10
293.459
 20
17.156300000000002
 30
0.0
 11
-83.043899999999994
 21
17.156300000000002
 31
0.0
  0
LINE
  5
7AF
  8
_________2
 62
     7
 10
-83.043899999999994
 20
17.156300000000002
 30
0.0
 11
-83.043899999999994
 21
280.15800000000002
 31
0.0
  0
LINE
  5
7B0
  8
_________2
 62
     7
 10
-83.043899999999994
 20
280.15800000000002
 30
0.0
 11
293.459
 21
280.15800000000002
 31
0.0
  0
LINE
  5
7B1
  8
_________2
 62
     7
 10
293.459
 20
280.15800000000002
 30
0.0
 11
293.459
 21
17.156300000000002
 31
0.0
  0
LINE
  5
7B2
  8
_________2
 62
     7
 10
175.458
 20
30.656400000000001
 30
0.0
 11
175.458
 21
57.156199999999998
 31
0.0
  0
LINE
  5
7B3
  8
_________2
 62
     7
 10
194.458
 20
30.656400000000001
 30
0.0
 11
194.458
 21
57.156199999999998
 31
0.0
  0
LINE
  5
7B4
  8
_________2
 62
     7
 10
126.95699999999999
 20
17.156300000000002
 30
0.0
 11
126.95699999999999
 21
57.156199999999998
 31
0.0
  0
LINE
  5
7B5
  8
_________2
 62
     7
 10
213.458
 20
17.156300000000002
 30
0.0
 11
213.458
 21
57.156199999999998
 31
0.0
  0
LINE
  5
7B6
  8
_________2
 62
     7
 10
138.45699999999999
 20
30.656400000000001
 30
0.0
 11
138.45699999999999
 21
44.65659999999999
 31
0.0
  0
LINE
  5
7B7
  8
_________2
 62
     7
 10
126.95699999999999
 20
30.656400000000001
 30
0.0
 11
213.458
 21
30.656400000000001
 31
0.0
  0
LINE
  5
7B8
  8
_________2
 62
     7
 10
126.95699999999999
 20
44.65659999999999
 30
0.0
 11
213.458
 21
44.65659999999999
 31
0.0
  0
LINE
  5
7B9
  8
_________2
 62
     7
 10
213.458
 20
37.15590000000001
 30
0.0
 11
293.459
 21
37.15590000000001
 31
0.0
  0
LINE
  5
7BA
  8
_________2
 62
     7
 10
126.95699999999999
 20
57.156199999999998
 30
0.0
 11
293.459
 21
57.156199999999998
 31
0.0
  0
ENDSEC
  0
EOF
