  0
SECTION
  2
HEADER
  9
$ACADVER
  1
AC1009
  9
$INSBASE
 10
0
 20
0
 30
0
  9
$EXTMIN
 10
0
 20
0
  9
$EXTMAX
 10
4205
 20
2970
  9
$LIMMIN
 10
0
 20
0
  9
$LIMMAX
 10
4205
 20
2970
  9
$LTSCALE
 40
5
  0
ENDSEC
  0
SECTION
  2
TABLES
  0
TABLE
  2
LTYPE
 70
     9
  0
LTYPE
  2
CONTINUOUS
 70
    64
  3
実線
 72
    65
 73
     0
 40
0.0
  0
LTYPE
  2
DASHED1
 70
    64
  3
--  --  --  --  --  --  --  --  
 72
    65
 73
     2
 40
2.5
 49
1.25
 49
-1.25
  0
LTYPE
  2
DASHED2
 70
    64
  3
----    ----    ----    ----    
 72
    65
 73
     2
 40
5.0
 49
2.5
 49
-2.5
  0
LTYPE
  2
DASHED3
 70
    64
  3
------  ------  ------  ------  
 72
    65
 73
     2
 40
5.0
 49
3.75
 49
-1.25
  0
LTYPE
  2
CENTER1
 70
    64
  3
----- - ----- - ----- - ----- - 
 72
    65
 73
     4
 40
10.0
 49
6.25
 49
-1.25
 49
1.25
 49
-1.25
  0
LTYPE
  2
CENTER2
 70
    64
  3
----------  --  ----------  --  
 72
    65
 73
     4
 40
20.0
 49
12.5
 49
-2.5
 49
2.5
 49
-2.5
  0
LTYPE
  2
PHANTOM1
 70
    64
  3
--- - - --- - - --- - - --- - - 
 72
    65
 73
     6
 40
10.0
 49
3.25
 49
-1.25
 49
1.25
 49
-1.25
 49
1.25
 49
-1.25
  0
LTYPE
  2
PHANTOM2
 70
    64
  3
--------  -  -  --------  -  -  
 72
    65
 73
     6
 40
20.0
 49
10.0
 49
-2.5
 49
1.25
 49
-2.5
 49
1.25
 49
-2.5
  0
LTYPE
  2
DOT
 70
    64
  3
-   -   -   -   -   -   -   -   
 72
    65
 73
     2
 40
2.5
 49
0.625
 49
-1.875
  0
LTYPE
  2
DUMMY
 70
    64
  3
ダミー
 72
    65
 73
     0
 40
0.0
  0
LTYPE
  2
RAND1
 70
    64
  3
ランダム線1
 72
    65
 73
     4
 40
10.0
 49
1.0
 49
-2.0
 49
3.0
 49
-4.0
  0
LTYPE
  2
RAND2
 70
    64
  3
ランダム線2
 72
    65
 73
     4
 40
14.0
 49
2.0
 49
-3.0
 49
4.0
 49
-5.0
  0
LTYPE
  2
RAND3
 70
    64
  3
ランダム線3
 72
    65
 73
     4
 40
18.0
 49
3.0
 49
-4.0
 49
5.0
 49
-6.0
  0
LTYPE
  2
RAND4
 70
    64
  3
ランダム線4
 72
    65
 73
     4
 40
22.0
 49
4.0
 49
-5.0
 49
6.0
 49
-7.0
  0
LTYPE
  2
RAND5
 70
    64
  3
ランダム線5
 72
    65
 73
     4
 40
26.0
 49
5.0
 49
-6.0
 49
7.0
 49
-8.0
  0
LTYPE
  2
LONG1
 70
    64
  3
----------  --  ----------  --  
 72
    65
 73
     4
 40
40.0
 49
32.5
 49
-2.5
 49
2.5
 49
-2.5
  0
LTYPE
  2
LONG2
 70
    64
  3
--------  -  -  --------  -  -  
 72
    65
 73
     6
 40
40.0
 49
30.0
 49
-2.5
 49
1.25
 49
-2.5
 49
1.25
 49
-2.5
  0
LTYPE
  2
LONG3
 70
    64
  3
+++++++++++++++..+++++++++++++++
 72
    65
 73
     2
 40
40.0
 49
37.5
 49
-2.5
  0
LTYPE
  2
LONG4
 70
    64
  3
+++++++++++++++..+++++++++++++++
 72
    65
 73
     2
 40
80.0
 49
75.0
 49
-5.0
  0
LTYPE
  2
LONG5
 70
    64
  3
----------  --  ----------  --  
 72
    65
 73
     4
 40
60.0
 49
37.5
 49
-7.5
 49
7.5
 49
-7.5
  0
LTYPE
  2
dashed
 70
   64
  3
-------   -------------   ------
 72
   65
 73
    2
 40
7.5
 49
6
 49
-1.5
  0
LTYPE
  2
dashed_spaced
 70
   64
  3
----        --------        ----
 72
   65
 73
    2
 40
12
 49
6
 49
-6
  0
LTYPE
  2
long_dashed_dotted
 70
   64
  3
------------- --- --------------
 72
   65
 73
    4
 40
15.25
 49
12
 49
-1.5
 49
0.25
 49
-1.5
  0
LTYPE
  2
long_dashed_double-dotted
 70
   64
  3
----------- --- --- ------------
 72
   65
 73
    6
 40
17
 49
12
 49
-1.5
 49
0.25
 49
-1.5
 49
0.25
 49
-1.5
  0
LTYPE
  2
long_dashed_triplicate-dotted
 70
   64
  3
--------- --- --- --- ----------
 72
   65
 73
    8
 40
18.75
 49
12
 49
-1.5
 49
0.25
 49
-1.5
 49
0.25
 49
-1.5
 49
0.25
 49
-1.5
  0
LTYPE
  2
dotted
 70
   64
  3
   -       -       -       -    
 72
   65
 73
    2
 40
1.75
 49
0.25
 49
-1.5
  0
LTYPE
  2
chain
 70
   64
  3
-------------- -- --------------
 72
   65
 73
    4
 40
18.5
 49
12
 49
-1.5
 49
3.5
 49
-1.5
  0
LTYPE
  2
chain_double_dash
 70
   64
  3
------------ -- -- -------------
 72
   65
 73
    6
 40
23.5
 49
12
 49
-1.5
 49
3.5
 49
-1.5
 49
3.5
 49
-1.5
  0
LTYPE
  2
dashed_dotted
 70
   64
  3
-----------     -     ----------
 72
   65
 73
    4
 40
9.25
 49
6
 49
-1.5
 49
0.25
 49
-1.5
  0
LTYPE
  2
double-dashed_dotted
 70
   64
  3
------   -----------   -   -----
 72
   65
 73
    6
 40
16.75
 49
6
 49
-1.5
 49
6
 49
-1.5
 49
0.25
 49
-1.5
  0
LTYPE
  2
dashed_double-dotted
 70
   64
  3
---------    -    -    ---------
 72
   65
 73
    6
 40
11
 49
6
 49
-1.5
 49
0.25
 49
-1.5
 49
0.25
 49
-1.5
  0
LTYPE
  2
double-dashed_double-dotted
 70
   64
  3
-----   ---------   -   -   ----
 72
   65
 73
    8
 40
18.5
 49
6
 49
-1.5
 49
6
 49
-1.5
 49
0.25
 49
-1.5
 49
0.25
 49
-1.5
  0
LTYPE
  2
dashed_triplicate-dotted
 70
   64
  3
-------    -    -    -    ------
 72
   65
 73
    8
 40
12.75
 49
6
 49
-1.5
 49
0.25
 49
-1.5
 49
0.25
 49
-1.5
 49
0.25
 49
-1.5
  0
LTYPE
  2
double-dashed_triplicate-dotted
 70
   64
  3
-----  ---------  -  -  -  -----
 72
   65
 73
   10
 40
20.25
 49
6
 49
-1.5
 49
6
 49
-1.5
 49
0.25
 49
-1.5
 49
0.25
 49
-1.5
 49
0.25
 49
-1.5
  0
LTYPE
  2
undefined
 70
   64
  3
--------------------------------
 72
   65
 73
    0
 40
0
  0
ENDTAB
  0
TABLE
  2
STYLE
  5
3
100
AcDbSymbolTable
 70
     1
  0
STYLE
  5
10
100
AcDbSymbolTableRecord
100
AcDbTextStyleTableRecord
  2
STANDARD
 70
     0
 40
0.0
 41
1.0
 50
0.0
 71
     0
 42
0.2
  3
txt
  4
bigfont.shx
  0
STYLE
  5
26
100
AcDbSymbolTableRecord
100
AcDbTextStyleTableRecord
  2
TATEGAKI
 70
    68
 40
0.0
 41
1.0
 50
0.0
 71
     0
 42
1.0
  3
txt
  4
bigfont.shx
  0
ENDTAB
  0
TABLE
  2
LAYER
 70
    4
  0
LAYER
  2
_0-0_FRF74-0401
 70
   64
 62
    7
  6
CONTINUOUS
  0
LAYER
  2
_0-1_
 70
   64
 62
    7
  6
CONTINUOUS
  0
LAYER
  2
_0-2_
 70
   64
 62
    7
  6
CONTINUOUS
  0
LAYER
  2
ADD_LINE
 70
   64
 62
    7
  6
CONTINUOUS
  0
ENDTAB
  0
ENDSEC
  0
SECTION
  2
BLOCKS
  0
ENDSEC
  0
SECTION
  2
ENTITIES
  0
LINE
  8
_0-2_
  6
CONTINUOUS
 62
    7
 10
2552.566283385414
 20
1056.1979530071658
 11
1577.5662833854144
 21
1056.1979530071658
  0
LINE
  8
_0-2_
  6
CONTINUOUS
 62
    7
 10
2552.5662833856559
 20
2371.1979530071658
 11
1577.5662833856554
 21
2371.1979530071658
  0
LINE
  8
_0-2_
  6
CONTINUOUS
 62
    7
 10
1577.5662833856554
 20
2371.1979530071658
 11
1577.5662833856554
 21
971.19795300716578
  0
LINE
  8
_0-2_
  6
CONTINUOUS
 62
    7
 10
1577.5662833856554
 20
971.19795300716578
 11
2552.5662833856559
 21
971.19795300716578
  0
LINE
  8
_0-2_
  6
CONTINUOUS
 62
    7
 10
2552.5662833856559
 20
971.19795300716578
 11
2552.5662833856559
 21
2371.1979530071658
  0
LINE
  8
_0-2_
  6
CONTINUOUS
 62
    7
 10
2552.566283385414
 20
1098.6979530071658
 11
1577.5662833854144
 21
1098.6979530071658
  0
LINE
  8
_0-2_
  6
CONTINUOUS
 62
    7
 10
2552.5662833856559
 20
1013.6979530071658
 11
2176.0662833856559
 21
1013.6979530071658
  0
LINE
  8
_0-2_
  6
CONTINUOUS
 62
    7
 10
2427.066283385785
 20
1013.6979530071658
 11
2427.066283385785
 21
1056.1979530071658
  0
LINE
  8
_0-2_
  6
CONTINUOUS
 62
    7
 10
2301.566283385785
 20
1013.6979530071658
 11
2301.566283385785
 21
1056.1979530071658
  0
LINE
  8
_0-2_
  6
CONTINUOUS
 62
    7
 10
2176.066283385785
 20
971.19795300716578
 11
2176.066283385785
 21
1098.6979530071658
  0
TEXT
  8
_0-2_
 62
    7
 10
2196.3388549397118
 20
983.13221232091132
 40
15
 41
1
 50
0
  1
大洋金物株式会社 ティーフォルム事業部
  0
TEXT
  8
_0-2_
 62
    7
 10
1582.8750828572131
 20
1080.7343511503877
 40
11
 41
1
 50
0
  1
品名
  0
TEXT
  8
_0-2_
 62
    7
 10
1584.6653190366922
 20
1037.1766457401898
 40
11
 41
1
 50
0
  1
仕様
  0
TEXT
  8
_0-2_
 62
    7
 10
2183.0590642652819
 20
1080.1315954814579
 40
11
 41
1
 50
0
  1
品番
  0
TEXT
  8
_0-2_
 62
    7
 10
2183.0568574992371
 20
1037.182349606808
 40
11
 41
1
 50
0
  1
重量
  0
TEXT
  8
_0-2_
 62
    7
 10
2308.1776163454042
 20
1037.5114084130682
 40
11
 41
1
 50
0
  1
容量
  0
TEXT
  8
_0-2_
 62
    7
 10
2433.6646030852935
 20
1037.4114153200876
 40
11
 41
1
 50
0
  1
縮尺
  0
TEXT
  8
_0-2_
 62
    7
 10
2211.5256034060785
 20
1065.334252852228
 40
15
 41
1
 50
0
  1
FRF74-0401
  0
TEXT
  8
_0-2_
 62
    7
 10
1578.1476923649509
 20
947.26970852156592
 40
15
 41
1
 50
0
  1
120911S
  0
LINE
  8
_0-1_
  6
CONTINUOUS
 62
    4
 10
1747.6913127006139
 20
1888.3443228153014
 11
2197.6913127006137
 21
1888.3443228153014
  0
POINT
  8
_0-1_
 62
    7
 10
1747.6913127006139
 20
1888.3443228153014
  0
POINT
  8
_0-1_
 62
    7
 10
2197.6913127006137
 20
1888.3443228153014
  0
LINE
  8
_0-1_
  6
CONTINUOUS
 62
    4
 10
1747.6913127006139
 20
1888.3443228153014
 11
1747.6913127006139
 21
1853.3443228153014
  0
LINE
  8
_0-1_
  6
CONTINUOUS
 62
    4
 10
2197.6913127006137
 20
1888.3443228153014
 11
2197.6913127006137
 21
1853.3443228153019
  0
TEXT
  8
_0-1_
 62
    4
 10
1963.3163127006139
 20
1890.8443228153014
 40
12.5
 41
1
 50
0
  1
450
  0
LINE
  8
_0-1_
  6
CONTINUOUS
 62
    4
 10
2299.9088675643834
 20
1817.3443228153017
 11
2299.9088675643834
 21
1799.3443228153014
  0
LINE
  8
_0-1_
  6
CONTINUOUS
 62
    4
 10
2424.90673337403
 20
1728.3443228153014
 11
2414.90673337403
 21
1728.3443228153014
  0
POINT
  8
_0-1_
 62
    7
 10
2424.90673337403
 20
1728.3443228153014
  0
POINT
  8
_0-1_
 62
    7
 10
2414.90673337403
 20
1728.3443228153014
  0
LINE
  8
_0-1_
  6
CONTINUOUS
 62
    4
 10
2424.90673337403
 20
1728.3443228153014
 11
2424.90673337403
 21
1763.3443228153014
  0
LINE
  8
_0-1_
  6
CONTINUOUS
 62
    4
 10
2414.90673337403
 20
1728.3443228153014
 11
2414.90673337403
 21
1763.8443228153017
  0
LINE
  8
_0-1_
  6
CONTINUOUS
 62
    4
 10
2424.90673337403
 20
1888.3443228153014
 11
2349.9088675643834
 21
1888.3443228153014
  0
POINT
  8
_0-1_
 62
    7
 10
2424.90673337403
 20
1888.3443228153014
  0
POINT
  8
_0-1_
 62
    7
 10
2349.9088675643834
 20
1888.3443228153014
  0
LINE
  8
_0-1_
  6
CONTINUOUS
 62
    4
 10
2424.90673337403
 20
1888.3443228153014
 11
2424.90673337403
 21
1853.3443228153014
  0
LINE
  8
_0-1_
  6
CONTINUOUS
 62
    4
 10
2349.9088675643834
 20
1888.3443228153014
 11
2349.9088675643834
 21
1823.3335750416204
  0
TEXT
  8
_0-1_
 62
    4
 10
2381.1578004692064
 20
1890.8443228153014
 40
12.5
 41
1
 50
0
  1
75
  0
LINE
  8
_0-1_
  6
CONTINUOUS
 62
    4
 10
2474.90673337403
 20
1838.3443228153014
 11
2474.90673337403
 21
1778.3443228153014
  0
POINT
  8
_0-1_
 62
    7
 10
2474.90673337403
 20
1838.3443228153014
  0
POINT
  8
_0-1_
 62
    7
 10
2474.90673337403
 20
1778.3443228153014
  0
LINE
  8
_0-1_
  6
CONTINUOUS
 62
    4
 10
2474.90673337403
 20
1838.3443228153014
 11
2439.90673337403
 21
1838.3443228153014
  0
LINE
  8
_0-1_
  6
CONTINUOUS
 62
    4
 10
2474.90673337403
 20
1778.3443228153014
 11
2439.90673337403
 21
1778.3443228153014
  0
TEXT
  8
_0-1_
 62
    4
 10
2472.40673337403
 20
1802.0943228153014
 40
12.5
 41
1
 50
90
  1
60
  0
LINE
  8
_0-1_
  6
CONTINUOUS
 62
    4
 10
2299.9088675643834
 20
1817.3335838317871
 11
2299.9088675643834
 21
1799.3335723876953
  0
TEXT
  8
_0-1_
 62
    4
 10
2297.4088675643834
 20
1795.8335781097412
 40
12.5
 41
1
 50
90
  1
φ18
  0
POINT
  8
_0-1_
 62
    7
 10
2299.9088675643834
 20
1817.3335838317871
  0
POINT
  8
_0-1_
 62
    7
 10
2299.9088675643834
 20
1799.3335723876953
  0
LINE
  8
_0-1_
  6
CONTINUOUS
 62
    4
 10
2343.9088675643829
 20
1817.3335838317871
 11
2299.9088675643834
 21
1817.3335838317871
  0
LINE
  8
_0-1_
  6
CONTINUOUS
 62
    4
 10
2343.9088675643829
 20
1799.3335723876953
 11
2299.9088675643834
 21
1799.3335723876953
  0
TEXT
  8
_0-1_
 62
    4
 10
2426.8365383772534
 20
1730.915814580869
 40
12.5
 41
1
 50
0
  1
10
  0
LINE
  8
_0-1_
  6
CONTINUOUS
 62
    7
 10
2424.90673337403
 20
1728.3443228153014
 11
2440.3425313513044
 21
1728.3443228153014
  0
LINE
  8
_0-0_FRF74-0401
  6
CONTINUOUS
 62
    7
 10
1745.3528071019805
 20
1778.4356051636678
 11
1745.6913127006137
 21
1778.0970995650341
  0
LINE
  8
_0-0_FRF74-0401
  6
CONTINUOUS
 62
    7
 10
1749.6913127006137
 20
1778.0970995650341
 11
1750.0298182992474
 21
1778.4356051636678
  0
LINE
  8
_0-0_FRF74-0401
  6
CONTINUOUS
 62
    7
 10
2195.3528071019805
 20
1778.4356051636678
 11
2195.6913127006137
 21
1778.0970995650343
  0
LINE
  8
_0-0_FRF74-0401
  6
CONTINUOUS
 62
    7
 10
2199.6913127006137
 20
1778.0970995650343
 11
2200.0298182992474
 21
1778.4356051636678
  0
LINE
  8
_0-0_FRF74-0401
  6
CONTINUOUS
 62
    7
 10
1747.6934468909669
 20
1799.3335750416209
 11
2197.6934468909672
 21
1799.3335750416209
  0
LINE
  8
_0-0_FRF74-0401
  6
CONTINUOUS
 62
    7
 10
2197.6934468909672
 20
1817.3335750416206
 11
1747.6934468909669
 21
1817.3335750416206
  0
LINE
  8
_0-0_FRF74-0401
  6
CONTINUOUS
 62
    7
 10
1749.6913127006137
 20
1778.0970995650341
 11
1745.6913127006137
 21
1778.0970995650341
  0
LINE
  8
_0-0_FRF74-0401
  6
CONTINUOUS
 62
    7
 10
2199.6913127006137
 20
1778.0970995650343
 11
2195.6913127006137
 21
1778.0970995650343
  0
ARC
  8
_0-0_FRF74-0401
  6
CONTINUOUS
 62
    7
 10
2197.6934468909672
 20
1808.3335750416204
 40
9
 50
270.00000000000051
 51
90
  0
ARC
  8
_0-0_FRF74-0401
  6
CONTINUOUS
 62
    7
 10
1747.6913127006146
 20
1808.3443228153014
 40
9.0000000000000266
 50
87.19960779042782
 51
191.26602145055045
  0
ARC
  8
_0-0_FRF74-0401
  6
CONTINUOUS
 62
    7
 10
1747.6934468909669
 20
1808.3335750416204
 40
9
 50
180
 51
270.00000000000108
  0
ARC
  8
_0-0_FRF74-0401
  6
CONTINUOUS
 62
    7
 10
1747.6934468909669
 20
1808.3335750416204
 40
9
 50
90
 51
180.00000000000168
  0
ARC
  8
_0-0_FRF74-0401
  6
CONTINUOUS
 62
    7
 10
2197.6913127006137
 20
1808.3443228153019
 40
30.000000000000078
 50
197.47912226087374
 51
0
  0
ARC
  8
_0-0_FRF74-0401
  6
CONTINUOUS
 62
    7
 10
2197.6913127006137
 20
1808.3443228153019
 40
29.999999999999915
 50
0
 51
162.56391347200915
  0
ARC
  8
_0-0_FRF74-0401
  6
CONTINUOUS
 62
    7
 10
1747.6913127006139
 20
1808.3443228153014
 40
30.000000000000036
 50
17.436086527991325
 51
342.52087773912848
  0
LINE
  8
_0-0_FRF74-0401
  6
CONTINUOUS
 62
    7
 10
2423.6784807138947
 20
1778.3688469048989
 11
2423.40673337403
 21
1778.0970995650341
  0
LINE
  8
_0-0_FRF74-0401
  6
CONTINUOUS
 62
    7
 10
2419.40673337403
 20
1778.0970995650341
 11
2419.1350596706698
 21
1778.3687732683941
  0
LINE
  8
_0-0_FRF74-0401
  6
CONTINUOUS
 62
    7
 10
2358.9067333740295
 20
1817.3443228153017
 11
2414.90673337403
 21
1817.3443228153017
  0
LINE
  8
_0-0_FRF74-0401
  6
CONTINUOUS
 62
    7
 10
2415.40673337403
 20
1838.3443228153014
 11
2424.90673337403
 21
1838.3443228153014
  0
ARC
  8
_0-0_FRF74-0401
  6
CONTINUOUS
 62
    7
 10
2415.40673337403
 20
1837.8443228153014
 40
0.4999999999999715
 50
90
 51
180
  0
ARC
  8
_0-0_FRF74-0401
  6
CONTINUOUS
 62
    7
 10
2415.40673337403
 20
1778.8443228153017
 40
0.5000000000000568
 50
180
 51
270
  0
LINE
  8
_0-0_FRF74-0401
  6
CONTINUOUS
 62
    7
 10
2419.40673337403
 20
1778.0970995650341
 11
2423.40673337403
 21
1778.0970995650341
  0
LINE
  8
_0-0_FRF74-0401
  6
CONTINUOUS
 62
    7
 10
2424.90673337403
 20
1830.1688963347588
 11
2424.9146861944591
 21
1830.1734878977743
  0
LINE
  8
_0-0_FRF74-0401
  6
CONTINUOUS
 62
    7
 10
2424.90673337403
 20
1830.1872625868209
 11
2424.9146861944591
 21
1830.1734878977743
  0
LINE
  8
_0-0_FRF74-0401
  6
CONTINUOUS
 62
    7
 10
2424.90673337403
 20
1790.4272265839563
 11
2424.9146861944591
 21
1790.4226350209408
  0
LINE
  8
_0-0_FRF74-0401
  6
CONTINUOUS
 62
    7
 10
2424.90673337403
 20
1790.4088603318939
 11
2424.9146861944591
 21
1790.4226350209408
  0
LINE
  8
_0-0_FRF74-0401
  6
CONTINUOUS
 62
    7
 10
2424.90673337403
 20
1838.3443228153014
 11
2424.90673337403
 21
1778.3443228153014
  0
LINE
  8
_0-0_FRF74-0401
  6
CONTINUOUS
 62
    7
 10
2414.90673337403
 20
1837.8443228153014
 11
2414.90673337403
 21
1778.8443228153017
  0
LINE
  8
_0-0_FRF74-0401
  6
CONTINUOUS
 62
    7
 10
1717.6913127006133
 20
1522.8227130782479
 11
1717.6913127006133
 21
1513.3227130782479
  0
LINE
  8
_0-0_FRF74-0401
  6
CONTINUOUS
 62
    7
 10
1777.1913127006135
 20
1512.8227130782477
 11
1718.1913127006135
 21
1512.8227130782477
  0
ARC
  8
_0-0_FRF74-0401
  6
CONTINUOUS
 62
    7
 10
1718.1913127006135
 20
1513.3227130782479
 40
0.5000000000000568
 50
180
 51
270
  0
ARC
  8
_0-0_FRF74-0401
  6
CONTINUOUS
 62
    7
 10
1777.1913127006135
 20
1513.3227130782479
 40
0.4999999999999715
 50
270
 51
0
  0
LINE
  8
_0-0_FRF74-0401
  6
CONTINUOUS
 62
    7
 10
1777.6913127006133
 20
1513.3227130782479
 11
1777.6913127006133
 21
1522.8227130782479
  0
LINE
  8
_0-0_FRF74-0401
  6
CONTINUOUS
 62
    7
 10
1738.6805649269327
 20
1512.8227130782464
 11
1738.6805649269327
 21
1456.8248472686
  0
LINE
  8
_0-0_FRF74-0401
  6
CONTINUOUS
 62
    7
 10
2227.1913127006137
 20
1512.8227130782477
 11
2168.1913127006137
 21
1512.8227130782477
  0
LINE
  8
_0-0_FRF74-0401
  6
CONTINUOUS
 62
    7
 10
2227.6913127006133
 20
1522.8227130782479
 11
2167.6913127006133
 21
1522.8227130782479
  0
LINE
  8
_0-0_FRF74-0401
  6
CONTINUOUS
 62
    7
 10
2179.755850217206
 20
1522.8227130782479
 11
2179.7696249062524
 21
1522.8306658986771
  0
LINE
  8
_0-0_FRF74-0401
  6
CONTINUOUS
 62
    7
 10
2179.7742164692681
 20
1522.8227130782479
 11
2179.7696249062524
 21
1522.8306658986771
  0
LINE
  8
_0-0_FRF74-0401
  6
CONTINUOUS
 62
    7
 10
2219.5342524721327
 20
1522.8227130782479
 11
2219.5204777830859
 21
1522.8306658986771
  0
LINE
  8
_0-0_FRF74-0401
  6
CONTINUOUS
 62
    7
 10
2219.5158862200706
 20
1522.8227130782479
 11
2219.5204777830859
 21
1522.8306658986771
  0
ARC
  8
_0-0_FRF74-0401
  6
CONTINUOUS
 62
    7
 10
2168.1913127006137
 20
1513.3227130782479
 40
0.5000000000000568
 50
180
 51
270
  0
ARC
  8
_0-0_FRF74-0401
  6
CONTINUOUS
 62
    7
 10
2227.1913127006137
 20
1513.3227130782479
 40
0.4999999999999715
 50
270
 51
0
  0
LINE
  8
_0-0_FRF74-0401
  6
CONTINUOUS
 62
    7
 10
2227.6913127006133
 20
1513.3227130782479
 11
2227.6913127006133
 21
1522.8227130782479
  0
LINE
  8
_0-0_FRF74-0401
  6
CONTINUOUS
 62
    7
 10
2206.6913127006133
 20
1447.8227130782479
 11
2206.6913127006133
 21
1512.8227130782477
  0
LINE
  8
_0-0_FRF74-0401
  6
CONTINUOUS
 62
    7
 10
1738.6913127006137
 20
1512.8227130782477
 11
1738.6913127006137
 21
1447.8227130782479
  0
LINE
  8
_0-0_FRF74-0401
  6
CONTINUOUS
 62
    7
 10
1756.6913127006137
 20
1465.8227130782479
 11
1756.6913127006137
 21
1512.8227130782477
  0
LINE
  8
_0-0_FRF74-0401
  6
CONTINUOUS
 62
    7
 10
2188.6805649269327
 20
1512.8227130782464
 11
2188.6805649269327
 21
1465.8227130782479
  0
LINE
  8
_0-0_FRF74-0401
  6
CONTINUOUS
 62
    7
 10
1777.6913127006133
 20
1465.8227130782479
 11
2188.6913127006137
 21
1465.8227130782479
  0
LINE
  8
_0-0_FRF74-0401
  6
CONTINUOUS
 62
    7
 10
1777.6913127006133
 20
1447.8227130782479
 11
2206.6913127006133
 21
1447.8227130782479
  0
LINE
  8
_0-0_FRF74-0401
  6
CONTINUOUS
 62
    7
 10
2188.6913127006137
 20
1512.8227130782477
 11
2188.6913127006137
 21
1465.8227130782479
  0
LINE
  8
_0-0_FRF74-0401
  6
CONTINUOUS
 62
    7
 10
1777.6913127006133
 20
1465.8227130782479
 11
1756.6913127006137
 21
1465.8227130782479
  0
LINE
  8
_0-0_FRF74-0401
  6
CONTINUOUS
 62
    7
 10
1777.6913127006133
 20
1447.8227130782479
 11
1738.6913127006137
 21
1447.8227130782479
  0
LINE
  8
_0-0_FRF74-0401
  6
CONTINUOUS
 62
    7
 10
1777.6913127006133
 20
1522.8227130782479
 11
1717.6913127006133
 21
1522.8227130782479
  0
LINE
  8
_0-0_FRF74-0401
  6
CONTINUOUS
 62
    7
 10
2167.6913127006133
 20
1522.8227130782479
 11
2167.6913127006133
 21
1513.3227130782479
  0
LINE
  8
_0-0_FRF74-0401
  6
CONTINUOUS
 62
    7
 10
1756.6913127006137
 20
1465.8227130782479
 11
1738.6913127006137
 21
1447.8227130782479
  0
LINE
  8
_0-0_FRF74-0401
  6
CONTINUOUS
 62
    7
 10
2188.6913127006137
 20
1465.8227130782479
 11
2206.6913127006133
 21
1447.8227130782479
  0
LINE
  8
_0-0_FRF74-0401
  6
CONTINUOUS
 62
    7
 10
2424.90673337403
 20
1778.3443228153014
 11
2415.40673337403
 21
1778.3443228153014
  0
ARC
  8
_0-0_FRF74-0401
  6
CONTINUOUS
 62
    7
 10
2358.9088675643829
 20
1808.3335750416204
 40
9
 50
90.013570471698614
 51
270
  0
ARC
  8
_0-0_FRF74-0401
  6
DASHED2
 62
    7
 10
2358.9088675643829
 20
1808.3335750416204
 40
9
 50
270
 51
81.629089912412155
  0
LINE
  8
_0-0_FRF74-0401
  6
CONTINUOUS
 62
    7
 10
2414.9067333740286
 20
1799.3335750416209
 11
2358.908867564382
 21
1799.3335750416209
  0
TEXT
  8
_0-2_
 62
    7
 10
1614.6943364596746
 20
1066.3317848654224
 40
15
 41
1
 50
0
  1
タオルバー　-LANGBERGER,Nero-
  0
TEXT
  8
_0-0_FRF74-0401
 62
    7
 10
1615.2451697971046
 20
1020.371508530219
 40
15
 41
1
 50
0
  1
クローム
  0
POINT
  8
_0-1_
 62
    7
 10
1717.6913127006139
 20
1918.3443228153014
  0
LINE
  8
_0-0_FRF74-0401
  6
CONTINUOUS
 62
    4
 10
1717.6913127006139
 20
1918.3443228153014
 11
2227.6913127006137
 21
1918.3443228153014
  0
POINT
  8
_0-0_FRF74-0401
 62
    7
 10
1717.6913127006139
 20
1918.3443228153014
  0
POINT
  8
_0-0_FRF74-0401
 62
    7
 10
2227.6913127006137
 20
1918.3443228153014
  0
TEXT
  8
_0-0_FRF74-0401
 62
    4
 10
1963.3163127006139
 20
1920.8443228153014
 40
12.5
 41
1
 50
0
  1
510
  0
LINE
  8
_0-0_FRF74-0401
  6
CONTINUOUS
 62
    4
 10
1717.6913127006139
 20
1918.3443228153014
 11
1717.6913127006139
 21
1823.3335750416204
  0
LINE
  8
_0-0_FRF74-0401
  6
CONTINUOUS
 62
    4
 10
2227.6913127006137
 20
1918.3443228153014
 11
2227.6913127006137
 21
1823.3335750416204
  0
ENDSEC
  0
EOF
