  0
SECTION
  2
HEADER
  9
$ACADVER
  1
AC1009
  9
$INSBASE
 10
0
 20
0
 30
0
  9
$EXTMIN
 10
0
 20
0
  9
$EXTMAX
 10
1682
 20
1188
  9
$LIMMIN
 10
0
 20
0
  9
$LIMMAX
 10
1682
 20
1188
  9
$LTSCALE
 40
2
  0
ENDSEC
  0
SECTION
  2
TABLES
  0
TABLE
  2
LTYPE
 70
     9
  0
LTYPE
  2
CONTINUOUS
 70
    64
  3
実線
 72
    65
 73
     0
 40
0.0
  0
LTYPE
  2
DASHED1
 70
    64
  3
--  --  --  --  --  --  --  --  
 72
    65
 73
     2
 40
2.5
 49
1.25
 49
-1.25
  0
LTYPE
  2
DASHED2
 70
    64
  3
----    ----    ----    ----    
 72
    65
 73
     2
 40
5.0
 49
2.5
 49
-2.5
  0
LTYPE
  2
DASHED3
 70
    64
  3
------  ------  ------  ------  
 72
    65
 73
     2
 40
5.0
 49
3.75
 49
-1.25
  0
LTYPE
  2
CENTER1
 70
    64
  3
----- - ----- - ----- - ----- - 
 72
    65
 73
     4
 40
10.0
 49
6.25
 49
-1.25
 49
1.25
 49
-1.25
  0
LTYPE
  2
CENTER2
 70
    64
  3
----------  --  ----------  --  
 72
    65
 73
     4
 40
20.0
 49
12.5
 49
-2.5
 49
2.5
 49
-2.5
  0
LTYPE
  2
PHANTOM1
 70
    64
  3
--- - - --- - - --- - - --- - - 
 72
    65
 73
     6
 40
10.0
 49
3.25
 49
-1.25
 49
1.25
 49
-1.25
 49
1.25
 49
-1.25
  0
LTYPE
  2
PHANTOM2
 70
    64
  3
--------  -  -  --------  -  -  
 72
    65
 73
     6
 40
20.0
 49
10.0
 49
-2.5
 49
1.25
 49
-2.5
 49
1.25
 49
-2.5
  0
LTYPE
  2
DOT
 70
    64
  3
-   -   -   -   -   -   -   -   
 72
    65
 73
     2
 40
2.5
 49
0.625
 49
-1.875
  0
LTYPE
  2
DUMMY
 70
    64
  3
ダミー
 72
    65
 73
     0
 40
0.0
  0
LTYPE
  2
RAND1
 70
    64
  3
ランダム線1
 72
    65
 73
     4
 40
10.0
 49
1.0
 49
-2.0
 49
3.0
 49
-4.0
  0
LTYPE
  2
RAND2
 70
    64
  3
ランダム線2
 72
    65
 73
     4
 40
14.0
 49
2.0
 49
-3.0
 49
4.0
 49
-5.0
  0
LTYPE
  2
RAND3
 70
    64
  3
ランダム線3
 72
    65
 73
     4
 40
18.0
 49
3.0
 49
-4.0
 49
5.0
 49
-6.0
  0
LTYPE
  2
RAND4
 70
    64
  3
ランダム線4
 72
    65
 73
     4
 40
22.0
 49
4.0
 49
-5.0
 49
6.0
 49
-7.0
  0
LTYPE
  2
RAND5
 70
    64
  3
ランダム線5
 72
    65
 73
     4
 40
26.0
 49
5.0
 49
-6.0
 49
7.0
 49
-8.0
  0
LTYPE
  2
LONG1
 70
    64
  3
----------  --  ----------  --  
 72
    65
 73
     4
 40
40.0
 49
32.5
 49
-2.5
 49
2.5
 49
-2.5
  0
LTYPE
  2
LONG2
 70
    64
  3
--------  -  -  --------  -  -  
 72
    65
 73
     6
 40
40.0
 49
30.0
 49
-2.5
 49
1.25
 49
-2.5
 49
1.25
 49
-2.5
  0
LTYPE
  2
LONG3
 70
    64
  3
+++++++++++++++..+++++++++++++++
 72
    65
 73
     2
 40
40.0
 49
37.5
 49
-2.5
  0
LTYPE
  2
LONG4
 70
    64
  3
+++++++++++++++..+++++++++++++++
 72
    65
 73
     2
 40
80.0
 49
75.0
 49
-5.0
  0
LTYPE
  2
LONG5
 70
    64
  3
----------  --  ----------  --  
 72
    65
 73
     4
 40
60.0
 49
37.5
 49
-7.5
 49
7.5
 49
-7.5
  0
LTYPE
  2
dashed
 70
   64
  3
-------   -------------   ------
 72
   65
 73
    2
 40
7.5
 49
6
 49
-1.5
  0
LTYPE
  2
dashed_spaced
 70
   64
  3
----        --------        ----
 72
   65
 73
    2
 40
12
 49
6
 49
-6
  0
LTYPE
  2
long_dashed_dotted
 70
   64
  3
------------- --- --------------
 72
   65
 73
    4
 40
15.25
 49
12
 49
-1.5
 49
0.25
 49
-1.5
  0
LTYPE
  2
long_dashed_double-dotted
 70
   64
  3
----------- --- --- ------------
 72
   65
 73
    6
 40
17
 49
12
 49
-1.5
 49
0.25
 49
-1.5
 49
0.25
 49
-1.5
  0
LTYPE
  2
long_dashed_triplicate-dotted
 70
   64
  3
--------- --- --- --- ----------
 72
   65
 73
    8
 40
18.75
 49
12
 49
-1.5
 49
0.25
 49
-1.5
 49
0.25
 49
-1.5
 49
0.25
 49
-1.5
  0
LTYPE
  2
dotted
 70
   64
  3
   -       -       -       -    
 72
   65
 73
    2
 40
1.75
 49
0.25
 49
-1.5
  0
LTYPE
  2
chain
 70
   64
  3
-------------- -- --------------
 72
   65
 73
    4
 40
18.5
 49
12
 49
-1.5
 49
3.5
 49
-1.5
  0
LTYPE
  2
chain_double_dash
 70
   64
  3
------------ -- -- -------------
 72
   65
 73
    6
 40
23.5
 49
12
 49
-1.5
 49
3.5
 49
-1.5
 49
3.5
 49
-1.5
  0
LTYPE
  2
dashed_dotted
 70
   64
  3
-----------     -     ----------
 72
   65
 73
    4
 40
9.25
 49
6
 49
-1.5
 49
0.25
 49
-1.5
  0
LTYPE
  2
double-dashed_dotted
 70
   64
  3
------   -----------   -   -----
 72
   65
 73
    6
 40
16.75
 49
6
 49
-1.5
 49
6
 49
-1.5
 49
0.25
 49
-1.5
  0
LTYPE
  2
dashed_double-dotted
 70
   64
  3
---------    -    -    ---------
 72
   65
 73
    6
 40
11
 49
6
 49
-1.5
 49
0.25
 49
-1.5
 49
0.25
 49
-1.5
  0
LTYPE
  2
double-dashed_double-dotted
 70
   64
  3
-----   ---------   -   -   ----
 72
   65
 73
    8
 40
18.5
 49
6
 49
-1.5
 49
6
 49
-1.5
 49
0.25
 49
-1.5
 49
0.25
 49
-1.5
  0
LTYPE
  2
dashed_triplicate-dotted
 70
   64
  3
-------    -    -    -    ------
 72
   65
 73
    8
 40
12.75
 49
6
 49
-1.5
 49
0.25
 49
-1.5
 49
0.25
 49
-1.5
 49
0.25
 49
-1.5
  0
LTYPE
  2
double-dashed_triplicate-dotted
 70
   64
  3
-----  ---------  -  -  -  -----
 72
   65
 73
   10
 40
20.25
 49
6
 49
-1.5
 49
6
 49
-1.5
 49
0.25
 49
-1.5
 49
0.25
 49
-1.5
 49
0.25
 49
-1.5
  0
LTYPE
  2
undefined
 70
   64
  3
--------------------------------
 72
   65
 73
    0
 40
0
  0
ENDTAB
  0
TABLE
  2
STYLE
  5
3
100
AcDbSymbolTable
 70
     1
  0
STYLE
  5
10
100
AcDbSymbolTableRecord
100
AcDbTextStyleTableRecord
  2
STANDARD
 70
     0
 40
0.0
 41
1.0
 50
0.0
 71
     0
 42
0.2
  3
txt
  4
bigfont.shx
  0
STYLE
  5
26
100
AcDbSymbolTableRecord
100
AcDbTextStyleTableRecord
  2
TATEGAKI
 70
    68
 40
0.0
 41
1.0
 50
0.0
 71
     0
 42
1.0
  3
txt
  4
bigfont.shx
  0
ENDTAB
  0
TABLE
  2
LAYER
 70
    2
  0
LAYER
  2
_0-0_FRF74-0421
 70
   64
 62
    7
  6
CONTINUOUS
  0
LAYER
  2
ADD_LINE
 70
   64
 62
    7
  6
CONTINUOUS
  0
ENDTAB
  0
ENDSEC
  0
SECTION
  2
BLOCKS
  0
ENDSEC
  0
SECTION
  2
ENTITIES
  0
LINE
  8
_0-0_FRF74-0421
  6
CONTINUOUS
 62
    7
 10
1079.8988725370491
 20
503.2673488237719
 11
689.8988725370491
 21
503.2673488237719
  0
LINE
  8
_0-0_FRF74-0421
  6
CONTINUOUS
 62
    7
 10
1079.8988725371457
 20
1029.267348823772
 11
689.89887253714551
 21
1029.267348823772
  0
LINE
  8
_0-0_FRF74-0421
  6
CONTINUOUS
 62
    7
 10
689.89887253714551
 20
1029.267348823772
 11
689.89887253714551
 21
469.2673488237719
  0
LINE
  8
_0-0_FRF74-0421
  6
CONTINUOUS
 62
    7
 10
689.89887253714551
 20
469.2673488237719
 11
1079.8988725371457
 21
469.2673488237719
  0
LINE
  8
_0-0_FRF74-0421
  6
CONTINUOUS
 62
    7
 10
1079.8988725371457
 20
469.2673488237719
 11
1079.8988725371457
 21
1029.267348823772
  0
LINE
  8
_0-0_FRF74-0421
  6
CONTINUOUS
 62
    7
 10
1079.8988725370491
 20
520.26734882377195
 11
689.8988725370491
 21
520.26734882377195
  0
LINE
  8
_0-0_FRF74-0421
  6
CONTINUOUS
 62
    7
 10
1079.8988725371457
 20
486.2673488237719
 11
929.29887253714571
 21
486.2673488237719
  0
LINE
  8
_0-0_FRF74-0421
  6
CONTINUOUS
 62
    7
 10
1029.6988725371975
 20
486.2673488237719
 11
1029.6988725371975
 21
503.2673488237719
  0
LINE
  8
_0-0_FRF74-0421
  6
CONTINUOUS
 62
    7
 10
979.49887253719749
 20
486.2673488237719
 11
979.49887253719749
 21
503.2673488237719
  0
LINE
  8
_0-0_FRF74-0421
  6
CONTINUOUS
 62
    7
 10
929.29887253719744
 20
469.2673488237719
 11
929.29887253719744
 21
520.26734882377195
  0
TEXT
  8
_0-0_FRF74-0421
 62
    7
 10
936.36516934588531
 20
473.92519932464324
 40
6
 41
1
 50
0
  1
大洋金物株式会社 ティーフォルム事業部
  0
TEXT
  8
_0-0_FRF74-0421
 62
    7
 10
692.03092613020874
 20
496.95829989926438
 40
4.4000000000000004
 41
1
 50
0
  1
仕様
  0
TEXT
  8
_0-0_FRF74-0421
 62
    7
 10
692.11008412622641
 20
513.7277384202182
 40
4.4000000000000004
 41
1
 50
0
  1
品名
  0
TEXT
  8
_0-0_FRF74-0421
 62
    7
 10
931.58014201817321
 20
514.02354576782386
 40
4.4000000000000004
 41
1
 50
0
  1
品番
  0
TEXT
  8
_0-0_FRF74-0421
 62
    7
 10
931.40046929208268
 20
496.85593532261146
 40
4.4000000000000004
 41
1
 50
0
  1
重量
  0
TEXT
  8
_0-0_FRF74-0421
 62
    7
 10
981.63419090952073
 20
497.28379304790997
 40
4.4000000000000004
 41
1
 50
0
  1
容量
  0
TEXT
  8
_0-0_FRF74-0421
 62
    7
 10
1031.8476186341097
 20
497.19837872271296
 40
4.4000000000000004
 41
1
 50
0
  1
縮尺
  0
LINE
  8
_0-0_FRF74-0421
  6
CONTINUOUS
 62
    7
 10
821.29161579175684
 20
808.25087514440247
 11
821.63012174530718
 21
807.9123695400981
  0
LINE
  8
_0-0_FRF74-0421
  6
CONTINUOUS
 62
    7
 10
825.63012053831301
 20
807.9123695400981
 11
825.96862649186335
 21
808.25087514440247
  0
LINE
  8
_0-0_FRF74-0421
  6
CONTINUOUS
 62
    7
 10
931.62464497252188
 20
739.33492233245352
 11
931.62464497252188
 21
741.33492638556936
  0
LINE
  8
_0-0_FRF74-0421
  6
CONTINUOUS
 62
    7
 10
913.62464574738237
 20
741.33492638556936
 11
913.62464574738237
 21
739.33492233245352
  0
ARC
  8
_0-0_FRF74-0421
  6
CONTINUOUS
 62
    7
 10
823.62464678536992
 20
739.33492497948168
 40
90.000000000000043
 50
180
 51
359.99999999999994
  0
ARC
  8
_0-0_FRF74-0421
  6
CONTINUOUS
 62
    7
 10
823.62464678536992
 20
739.33492497948168
 40
90.000000000000028
 50
90.001255571968443
 51
180
  0
ARC
  8
_0-0_FRF74-0421
  6
CONTINUOUS
 62
    7
 10
823.62464678536992
 20
739.33492497948168
 40
108.00000000000004
 50
90.000483375022412
 51
359.99999999999994
  0
LINE
  8
_0-0_FRF74-0421
  6
CONTINUOUS
 62
    7
 10
825.63012053831301
 20
807.9123695400981
 11
821.63012174530718
 21
807.9123695400981
  0
LINE
  8
_0-0_FRF74-0421
  6
CONTINUOUS
 62
    7
 10
931.62464497252188
 20
739.33492233245352
 11
913.62464574738237
 21
739.33492233245352
  0
LINE
  8
_0-0_FRF74-0421
  6
CONTINUOUS
 62
    7
 10
931.62464497252188
 20
741.33492638556936
 11
913.62464574738237
 21
741.33492638556936
  0
LINE
  8
_0-0_FRF74-0421
  6
CONTINUOUS
 62
    7
 10
922.62464908524237
 20
739.33492233245352
 11
913.62464574738237
 21
739.33492233245352
  0
LINE
  8
_0-0_FRF74-0421
  6
CONTINUOUS
 62
    7
 10
931.62464497252188
 20
739.33492233245352
 11
922.62464908524237
 21
739.33492233245352
  0
LINE
  8
_0-0_FRF74-0421
  6
CONTINUOUS
 62
    7
 10
823.62309245033953
 20
829.38745063929537
 11
823.62837940967313
 21
829.3873238535424
  0
ARC
  8
_0-0_FRF74-0421
  6
CONTINUOUS
 62
    7
 10
825.72146812915116
 20
916.66901505130056
 40
87.306784608805827
 50
268.62626208123226
 51
268.73019452669189
  0
ARC
  8
_0-0_FRF74-0421
  6
CONTINUOUS
 62
    7
 10
824.34675638245426
 20
854.64984223442457
 40
25.272377790685724
 50
268.73019452669189
 51
269.08924188260164
  0
LINE
  8
_0-0_FRF74-0421
  6
CONTINUOUS
 62
    7
 10
823.94505046056111
 20
829.38065721496935
 11
823.95030449875264
 21
829.38057369117337
  0
ARC
  8
_0-0_FRF74-0421
  6
CONTINUOUS
 62
    7
 10
824.20307051714951
 20
845.28074079685337
 40
15.902176097899531
 50
269.0892418825934
 51
269.69759019317297
  0
ARC
  8
_0-0_FRF74-0421
  6
CONTINUOUS
 62
    7
 10
824.17855396660025
 20
840.6404682358525
 40
11.261838771716929
 50
269.69771609582716
 51
270.55637452860145
  0
ARC
  8
_0-0_FRF74-0421
  6
CONTINUOUS
 62
    7
 10
824.20327697608923
 20
838.09191917241719
 40
8.7131697945669906
 50
270.556543030331
 51
271.66603739216021
  0
ARC
  8
_0-0_FRF74-0421
  6
CONTINUOUS
 62
    7
 10
824.25144901906219
 20
836.43531854183982
 40
7.0558689182084127
 50
271.6661340044659
 51
273.03608755378866
  0
LINE
  8
_0-0_FRF74-0421
  6
CONTINUOUS
 62
    7
 10
824.62516261725364
 20
829.38935343140486
 11
824.68498733964657
 21
829.39252649739592
  0
ARC
  8
_0-0_FRF74-0421
  6
CONTINUOUS
 62
    7
 10
824.45855097174126
 20
833.6617389524024
 40
4.2752132595570682
 50
273.03608755376962
 51
276.90149629085931
  0
LINE
  8
_0-0_FRF74-0421
  6
CONTINUOUS
 62
    7
 10
824.97227241734277
 20
829.41750301515503
 11
825.03135099520523
 21
829.42465387407822
  0
ARC
  8
_0-0_FRF74-0421
  6
CONTINUOUS
 62
    7
 10
824.23522776555637
 20
836.00202153252906
 40
6.6253737638884864
 50
276.90149629086227
 51
279.61205366988418
  0
ARC
  8
_0-0_FRF74-0421
  6
CONTINUOUS
 62
    7
 10
824.1297509184576
 20
836.62484123434626
 40
7.2570617772665127
 50
279.61205366988668
 51
282.08674852184549
  0
LINE
  8
_0-0_FRF74-0421
  6
CONTINUOUS
 62
    7
 10
825.6493246004469
 20
829.52865624069864
 11
825.65008076622109
 21
829.52881816567822
  0
ARC
  8
_0-0_FRF74-0421
  6
CONTINUOUS
 62
    7
 10
823.96479473119894
 20
837.39885540932346
 40
8.0484579415068112
 50
282.08674852185561
 51
284.32918011224353
  0
LINE
  8
_0-0_FRF74-0421
  6
CONTINUOUS
 62
    7
 10
825.95672762583229
 20
829.6007865086608
 11
825.95752512947649
 21
829.60099022239592
  0
ARC
  8
_0-0_FRF74-0421
  6
CONTINUOUS
 62
    7
 10
823.73293372059993
 20
838.30987651519524
 40
8.9885208681604869
 50
284.32918011223717
 51
286.34762849949561
  0
LINE
  8
_0-0_FRF74-0421
  6
CONTINUOUS
 62
    7
 10
826.26288301132604
 20
829.6847467200148
 11
826.26365059096145
 21
829.68497186880677
  0
ARC
  8
_0-0_FRF74-0421
  6
CONTINUOUS
 62
    7
 10
823.40652296080339
 20
839.42552150821939
 40
10.150935206810921
 50
286.34762849949215
 51
288.14400605066379
  0
LINE
  8
_0-0_FRF74-0421
  6
CONTINUOUS
 62
    7
 10
826.5675889673081
 20
829.77932291626644
 11
826.59091164357164
 21
829.78696577354492
  0
ARC
  8
_0-0_FRF74-0421
  6
CONTINUOUS
 62
    7
 10
823.40723923484734
 20
839.50214927274351
 40
10.223529744133103
 50
288.14400605066567
 51
290.20264592499291
  0
LINE
  8
_0-0_FRF74-0421
  6
CONTINUOUS
 62
    7
 10
826.93784872389665
 20
829.90760097357861
 11
826.97642808250976
 21
829.92179743654413
  0
ARC
  8
_0-0_FRF74-0421
  6
CONTINUOUS
 62
    7
 10
823.57718312870065
 20
839.15935825746658
 40
9.8431395487536122
 50
290.20264592499075
 51
292.81919294158502
  0
LINE
  8
_0-0_FRF74-0421
  6
CONTINUOUS
 62
    7
 10
827.39459252739744
 20
830.08660885836048
 11
827.41117063442505
 21
830.09358418841714
  0
ARC
  8
_0-0_FRF74-0421
  6
CONTINUOUS
 62
    7
 10
823.72648072461902
 20
838.85090222103372
 40
9.5009241053603333
 50
292.81919294158359
 51
295.7467483589665
  0
LINE
  8
_0-0_FRF74-0421
  6
CONTINUOUS
 62
    7
 10
827.85362648456771
 20
830.29320237049239
 11
827.8558229283617
 21
830.2942616555631
  0
ARC
  8
_0-0_FRF74-0421
  6
CONTINUOUS
 62
    7
 10
824.06278670843858
 20
838.15918026525594
 40
8.7317849551360318
 50
295.74674835896485
 51
298.96402714130483
  0
LINE
  8
_0-0_FRF74-0421
  6
CONTINUOUS
 62
    7
 10
828.29124437716644
 20
830.51953274416462
 11
828.29392711961236
 21
830.52101761147514
  0
ARC
  8
_0-0_FRF74-0421
  6
CONTINUOUS
 62
    7
 10
824.17376410692623
 20
837.96500679437383
 40
8.5081559815402201
 50
298.96402714130841
 51
302.30708590308279
  0
LINE
  8
_0-0_FRF74-0421
  6
CONTINUOUS
 62
    7
 10
828.72100661427669
 20
830.77394958520324
 11
828.74806352323731
 21
830.79105893685551
  0
ARC
  8
_0-0_FRF74-0421
  6
CONTINUOUS
 62
    7
 10
824.72201961950122
 20
837.15788718311717
 40
7.5329629915594962
 50
302.30708590308137
 51
305.70742385612988
  0
LINE
  8
_0-0_FRF74-0421
  6
CONTINUOUS
 62
    7
 10
829.11860656716692
 20
831.04106164663006
 11
829.16977040701886
 21
831.07783664849069
  0
ARC
  8
_0-0_FRF74-0421
  6
CONTINUOUS
 62
    7
 10
825.02063827001052
 20
836.85038651774607
 40
7.1089823099650395
 50
305.70742385612391
 51
308.29551685939123
  0
LINE
  8
_0-0_FRF74-0421
  6
CONTINUOUS
 62
    7
 10
829.42619990066351
 20
831.27108044961233
 11
829.42832253839629
 21
831.2727565382221
  0
ARC
  8
_0-0_FRF74-0421
  6
CONTINUOUS
 62
    7
 10
822.86131994664197
 20
839.58936188422149
 40
10.596765899141753
 50
308.29551685939612
 51
310.00269560360499
  0
ARC
  8
_0-0_FRF74-0421
  6
CONTINUOUS
 62
    7
 10
825.07384800267846
 20
836.9528255448364
 40
7.1548762629613147
 50
310.00269560360277
 51
312.53089815460675
  0
LINE
  8
_0-0_FRF74-0421
  6
CONTINUOUS
 62
    7
 10
829.91045638186768
 20
831.68030492139235
 11
829.93352314359174
 21
831.70146460970898
  0
ARC
  8
_0-0_FRF74-0421
  6
CONTINUOUS
 62
    7
 10
824.29308212151034
 20
837.85026543927643
 40
8.3439994346397661
 50
312.5308981545997
 51
315.12858888655387
  0
LINE
  8
_0-0_FRF74-0421
  6
CONTINUOUS
 62
    7
 10
830.20640742182104
 20
831.9634232927624
 11
830.20839739200085
 21
831.96542221522691
  0
ARC
  8
_0-0_FRF74-0421
  6
CONTINUOUS
 62
    7
 10
824.33973350522695
 20
837.80780296680871
 40
8.2809799337021275
 50
315.12858888656052
 51
317.78505188994399
  0
LINE
  8
_0-0_FRF74-0421
  6
CONTINUOUS
 62
    7
 10
830.47287007046509
 20
832.24369795930602
 11
830.47487341448175
 21
832.24590618190882
  0
ARC
  8
_0-0_FRF74-0421
  6
CONTINUOUS
 62
    7
 10
824.37727932244798
 20
837.7777663419289
 40
8.2329903766022046
 50
317.78505188994495
 51
320.49846967151461
  0
LINE
  8
_0-0_FRF74-0421
  6
CONTINUOUS
 62
    7
 10
830.72991721776305
 20
832.5407707994226
 11
830.75415548305068
 21
832.57017256639631
  0
ARC
  8
_0-0_FRF74-0421
  6
CONTINUOUS
 62
    7
 10
825.59042661832939
 20
836.82705380107245
 40
6.6921695760413744
 50
320.498469671512
 51
323.292063500285
  0
ARC
  8
_0-0_FRF74-0421
  6
CONTINUOUS
 62
    7
 10
822.55639024167601
 20
839.08920865106484
 40
10.476706707607118
 50
323.29206350029023
 51
325.07672702395263
  0
LINE
  8
_0-0_FRF74-0421
  6
CONTINUOUS
 62
    7
 10
831.14644540584493
 20
833.09151445131158
 11
831.14768219283928
 21
833.09328581012926
  0
ARC
  8
_0-0_FRF74-0421
  6
CONTINUOUS
 62
    7
 10
825.79569661517189
 20
836.83011546289401
 40
6.5274532152548854
 50
325.07672702394092
 51
327.97868914824676
  0
LINE
  8
_0-0_FRF74-0421
  6
CONTINUOUS
 62
    7
 10
831.33000393948544
 20
833.36903356305538
 11
831.34993495511776
 21
833.40090347223031
  0
ARC
  8
_0-0_FRF74-0421
  6
CONTINUOUS
 62
    7
 10
824.42695516142669
 20
837.73044259117671
 40
8.1653265829567978
 50
327.97868914825352
 51
330.28520991272364
  0
ARC
  8
_0-0_FRF74-0421
  6
CONTINUOUS
 62
    7
 10
824.41430794766518
 20
837.73766076203185
 40
8.1798886572054705
 50
330.28520991272217
 51
332.58762564825503
  0
LINE
  8
_0-0_FRF74-0421
  6
CONTINUOUS
 62
    7
 10
831.67572577110002
 20
833.97170940310775
 11
831.67677301821641
 21
833.97372868008495
  0
ARC
  8
_0-0_FRF74-0421
  6
CONTINUOUS
 62
    7
 10
824.3102994802515
 20
837.7941645378379
 40
8.298232494256931
 50
332.58762564825543
 51
334.88861354408868
  0
LINE
  8
_0-0_FRF74-0421
  6
CONTINUOUS
 62
    7
 10
831.82422021101797
 20
834.27256578435959
 11
831.82515684576288
 21
834.27456425145374
  0
ARC
  8
_0-0_FRF74-0421
  6
CONTINUOUS
 62
    7
 10
824.25618360989029
 20
837.82196482535358
 40
8.3590314437177398
 50
334.88861354408931
 51
337.20311368127813
  0
LINE
  8
_0-0_FRF74-0421
  6
CONTINUOUS
 62
    7
 10
831.96224270348466
 20
834.58312862648654
 11
831.9630688848606
 21
834.58509433333734
  0
ARC
  8
_0-0_FRF74-0421
  6
CONTINUOUS
 62
    7
 10
824.3172625628863
 20
837.79860645209521
 40
8.293673157928648
 50
337.20311368128426
 51
339.56529689538218
  0
LINE
  8
_0-0_FRF74-0421
  6
CONTINUOUS
 62
    7
 10
832.08902061871902
 20
834.9029560636427
 11
832.08975299709778
 21
834.90492172482425
  0
ARC
  8
_0-0_FRF74-0421
  6
CONTINUOUS
 62
    7
 10
824.41354790713308
 20
837.76497038960702
 40
8.1917032995663099
 50
339.56529689538047
 51
341.98620669956551
  0
LINE
  8
_0-0_FRF74-0421
  6
CONTINUOUS
 62
    7
 10
832.20371108442362
 20
835.23171939151962
 11
832.21132885141799
 21
835.25514527706275
  0
ARC
  8
_0-0_FRF74-0421
  6
CONTINUOUS
 62
    7
 10
825.25261552962763
 20
837.51802052969185
 40
7.3173967709716141
 50
341.9862066995621
 51
345.08178701149211
  0
LINE
  8
_0-0_FRF74-0421
  6
CONTINUOUS
 62
    7
 10
832.32337427632604
 20
835.63423013535066
 11
832.32924362804772
 21
835.65626059593046
  0
ARC
  8
_0-0_FRF74-0421
  6
CONTINUOUS
 62
    7
 10
824.08218914200108
 20
837.85343950967501
 40
8.5347233625247743
 50
345.08178701149382
 51
347.50476812625851
  0
ARC
  8
_0-0_FRF74-0421
  6
CONTINUOUS
 62
    7
 10
823.90919515633732
 20
837.89177624920592
 40
8.7119142897012445
 50
347.50476812625811
 51
349.87848266456479
  0
LINE
  8
_0-0_FRF74-0421
  6
CONTINUOUS
 62
    7
 10
832.48552811818263
 20
836.36077542664964
 11
832.48577648636569
 21
836.36216673108527
  0
ARC
  8
_0-0_FRF74-0421
  6
CONTINUOUS
 62
    7
 10
823.71650365727169
 20
837.92761014079042
 40
8.9079043001188509
 50
349.87848266456842
 51
352.21815884438303
  0
LINE
  8
_0-0_FRF74-0421
  6
CONTINUOUS
 62
    7
 10
832.54237331423144
 20
836.72146594608034
 11
832.54252402887289
 21
836.72256878916176
  0
ARC
  8
_0-0_FRF74-0421
  6
CONTINUOUS
 62
    7
 10
823.67298058242341
 20
837.93468144813539
 40
8.9519840284988312
 50
352.21815884439138
 51
354.56056004511169
  0
LINE
  8
_0-0_FRF74-0421
  6
CONTINUOUS
 62
    7
 10
832.5846533668813
 20
837.08609071683384
 11
832.58472982983096
 21
837.08689371027037
  0
ARC
  8
_0-0_FRF74-0421
  6
CONTINUOUS
 62
    7
 10
823.71634519417034
 20
837.93136244082837
 40
8.9085000691985901
 50
354.56056004511134
 51
356.92476307875768
  0
LINE
  8
_0-0_FRF74-0421
  6
CONTINUOUS
 62
    7
 10
832.6120165758806
 20
837.45344597162807
 11
832.61312916308862
 21
837.47415505119307
  0
ARC
  8
_0-0_FRF74-0421
  6
CONTINUOUS
 62
    7
 10
824.74271360533214
 20
837.89699005184832
 40
7.8817656961847593
 50
356.92476307874773
 51
359.59774668189345
  0
LINE
  8
_0-0_FRF74-0421
  6
CONTINUOUS
 62
    7
 10
832.62428505835169
 20
837.84165542884909
 11
832.62442882050868
 21
837.86213215123621
  0
ARC
  8
_0-0_FRF74-0421
  6
CONTINUOUS
 62
    7
 10
823.73753271873204
 20
837.92452491749589
 40
8.887115121402255
 50
359.59774668189124
 51
1.704507420928925
  0
ARC
  8
_0-0_FRF74-0421
  6
CONTINUOUS
 62
    7
 10
823.47691703521991
 20
837.91676950400984
 40
9.1478461723546687
 50
1.7045074209364932
 51
3.7512344206724286
  0
LINE
  8
_0-0_FRF74-0421
  6
CONTINUOUS
 62
    7
 10
832.60516407445073
 20
838.51526393492713
 11
832.59986228468426
 21
838.59612692084363
  0
ARC
  8
_0-0_FRF74-0421
  6
CONTINUOUS
 62
    7
 10
825.47855408041914
 20
838.12921763554789
 40
7.1365982667394956
 50
3.7512344206655008
 51
7.674714244221736
  0
LINE
  8
_0-0_FRF74-0421
  6
CONTINUOUS
 62
    7
 10
832.55122436950353
 20
839.08230199841034
 11
832.53251976803915
 21
839.22110553375364
  0
ARC
  8
_0-0_FRF74-0421
  6
CONTINUOUS
 62
    7
 10
824.84749472909425
 20
838.18550272838422
 40
7.7544879276260499
 50
7.6747142442262408
 51
11.57129997558641
  0
LINE
  8
_0-0_FRF74-0421
  6
CONTINUOUS
 62
    7
 10
832.4443792702657
 20
839.74095388088301
 11
832.42856380389117
 21
839.81819724003185
  0
ARC
  8
_0-0_FRF74-0421
  6
CONTINUOUS
 62
    7
 10
824.12609156509427
 20
838.11827802414314
 40
8.4747136008565285
 50
11.571299975585688
 51
14.071590752119148
  0
ARC
  8
_0-0_FRF74-0421
  6
CONTINUOUS
 62
    7
 10
821.96938519551691
 20
837.57768752612697
 40
10.698138987758727
 50
14.071590752121766
 51
16.052355887576461
  0
LINE
  8
_0-0_FRF74-0421
  6
CONTINUOUS
 62
    7
 10
832.25039756085209
 20
840.53589011304143
 11
832.23365255309204
 21
840.59408613808705
  0
ARC
  8
_0-0_FRF74-0421
  6
CONTINUOUS
 62
    7
 10
825.12733073366394
 20
838.54935174397701
 40
7.3946432330259109
 50
16.052355887570773
 51
19.855328380592024
  0
LINE
  8
_0-0_FRF74-0421
  6
CONTINUOUS
 62
    7
 10
832.08238626563912
 20
841.06091521936014
 11
832.04686792998643
 21
841.15927307465188
  0
ARC
  8
_0-0_FRF74-0421
  6
CONTINUOUS
 62
    7
 10
823.50532859176735
 20
838.07480910067
 40
9.0813992464341453
 50
19.855328380593413
 51
23.587837007824092
  0
LINE
  8
_0-0_FRF74-0421
  6
CONTINUOUS
 62
    7
 10
831.82795601408498
 20
841.70877182233107
 11
831.81009985993705
 21
841.74966660567122
  0
ARC
  8
_0-0_FRF74-0421
  6
CONTINUOUS
 62
    7
 10
823.58396426570346
 20
838.15783573593819
 40
8.9761102829390946
 50
23.587837007819825
 51
26.794954307226252
  0
LINE
  8
_0-0_FRF74-0421
  6
CONTINUOUS
 62
    7
 10
831.5962693840055
 20
842.20425668570533
 11
831.58620486802329
 21
842.22418540145668
  0
ARC
  8
_0-0_FRF74-0421
  6
CONTINUOUS
 62
    7
 10
822.93944342506745
 20
837.85734762708216
 40
9.6868857533828727
 50
26.794954307226792
 51
29.502915158405525
  0
LINE
  8
_0-0_FRF74-0421
  6
CONTINUOUS
 62
    7
 10
831.37023690958154
 20
842.62782735354222
 11
831.36847355282134
 21
842.63094370609724
  0
ARC
  8
_0-0_FRF74-0421
  6
CONTINUOUS
 62
    7
 10
822.88397787468693
 20
837.83007713332108
 40
9.7485889626079487
 50
29.50291515840831
 51
32.151675825948864
  0
LINE
  8
_0-0_FRF74-0421
  6
CONTINUOUS
 62
    7
 10
831.1375456699044
 20
843.01790957198284
 11
831.13569160593534
 21
843.02085928997133
  0
ARC
  8
_0-0_FRF74-0421
  6
CONTINUOUS
 62
    7
 10
822.83551902555746
 20
837.80373311770825
 40
9.8036355685719379
 50
32.151675825950733
 51
34.744866768483305
  0
LINE
  8
_0-0_FRF74-0421
  6
CONTINUOUS
 62
    7
 10
830.89114678140788
 20
843.39105195777279
 11
830.88917706468419
 21
843.3938918359263
  0
ARC
  8
_0-0_FRF74-0421
  6
CONTINUOUS
 62
    7
 10
822.91601048961411
 20
837.86376740986907
 40
9.703280960659205
 50
34.74486676847782
 51
37.324073912126572
  0
LINE
  8
_0-0_FRF74-0421
  6
CONTINUOUS
 62
    7
 10
830.63224186412913
 20
843.747085757234
 11
830.63016390311759
 21
843.74981109470593
  0
ARC
  8
_0-0_FRF74-0421
  6
CONTINUOUS
 62
    7
 10
823.01302283780205
 20
837.94204515185743
 40
9.5786733557330237
 50
37.324073912132185
 51
39.895843299177024
  0
LINE
  8
_0-0_FRF74-0421
  6
CONTINUOUS
 62
    7
 10
830.36189297038163
 20
844.08574851630374
 11
830.33624637944808
 21
844.11642601730489
  0
ARC
  8
_0-0_FRF74-0421
  6
CONTINUOUS
 62
    7
 10
824.34118390892286
 20
839.1045146886587
 40
7.8140917061237696
 50
39.895843299172363
 51
42.462091434443678
  0
ARC
  8
_0-0_FRF74-0421
  6
CONTINUOUS
 62
    7
 10
821.18590881641614
 20
836.21707595368036
 40
12.0911307938159
 50
42.462091434431564
 51
44.120732876506239
  0
LINE
  8
_0-0_FRF74-0421
  6
CONTINUOUS
 62
    7
 10
829.86582244144847
 20
844.6345900365402
 11
829.84478391755829
 21
844.6562843952745
  0
ARC
  8
_0-0_FRF74-0421
  6
CONTINUOUS
 62
    7
 10
824.77771428167455
 20
839.74239563307776
 40
7.058434490886631
 50
44.120732876506843
 51
47.45187008497043
  0
LINE
  8
_0-0_FRF74-0421
  6
CONTINUOUS
 62
    7
 10
829.55069333444044
 20
844.94241182766757
 11
829.49857939425556
 21
844.99024605270677
  0
ARC
  8
_0-0_FRF74-0421
  6
CONTINUOUS
 62
    7
 10
823.19435431708007
 20
838.12198366704786
 40
9.3228902182716364
 50
47.451870084969563
 51
50.727535203171527
  0
LINE
  8
_0-0_FRF74-0421
  6
CONTINUOUS
 62
    7
 10
829.09582686801775
 20
845.3392479515586
 11
829.04233655229075
 21
845.38298635679917
  0
ARC
  8
_0-0_FRF74-0421
  6
CONTINUOUS
 62
    7
 10
824.58137787139492
 20
839.9274127716609
 40
7.0472289231666636
 50
50.727535203177126
 51
53.937767877846944
  0
LINE
  8
_0-0_FRF74-0421
  6
CONTINUOUS
 62
    7
 10
828.72982518569995
 20
845.62423823642223
 11
828.72737632543897
 21
845.62602150463636
  0
ARC
  8
_0-0_FRF74-0421
  6
CONTINUOUS
 62
    7
 10
820.56575240734719
 20
834.41813010631381
 40
13.864664964468471
 50
53.937767877849133
 51
55.544771448203889
  0
ARC
  8
_0-0_FRF74-0421
  6
CONTINUOUS
 62
    7
 10
824.59088650488172
 20
840.28455171012786
 40
6.7501300578964454
 50
55.544771448195483
 51
58.844836246597062
  0
LINE
  8
_0-0_FRF74-0421
  6
CONTINUOUS
 62
    7
 10
828.08311687562366
 20
846.06110629189936
 11
828.02761229971122
 21
846.09466172065413
  0
ARC
  8
_0-0_FRF74-0421
  6
CONTINUOUS
 62
    7
 10
823.63444113529829
 20
838.82784644096535
 40
8.491557995382701
 50
58.844836246600913
 51
62.260468826409415
  0
LINE
  8
_0-0_FRF74-0421
  6
CONTINUOUS
 62
    7
 10
827.58686067914948
 20
846.34349258340251
 11
827.53021303467312
 21
846.37328313672265
  0
ARC
  8
_0-0_FRF74-0421
  6
CONTINUOUS
 62
    7
 10
824.67629107346647
 20
840.94646360489355
 40
6.1314958037741523
 50
62.260468826404214
 51
65.794926545906179
  0
LINE
  8
_0-0_FRF74-0421
  6
CONTINUOUS
 62
    7
 10
827.19022764707404
 20
846.53890168640839
 11
827.18962296183497
 21
846.53917350709116
  0
ARC
  8
_0-0_FRF74-0421
  6
CONTINUOUS
 62
    7
 10
822.04753754497654
 20
835.10022369207059
 40
12.541555537684633
 50
65.79492654590608
 51
67.5172639375335
  0
LINE
  8
_0-0_FRF74-0421
  6
CONTINUOUS
 62
    7
 10
826.84349157318979
 20
846.68855576636383
 11
826.8427286200789
 21
846.68887152259367
  0
ARC
  8
_0-0_FRF74-0421
  6
CONTINUOUS
 62
    7
 10
824.18360550590739
 20
840.26370533205477
 40
6.9536822124946456
 50
67.517263937538516
 51
70.609521494643914
  0
LINE
  8
_0-0_FRF74-0421
  6
CONTINUOUS
 62
    7
 10
826.49225846597415
 20
846.82295969686948
 11
826.43264550931974
 21
846.84394159834551
  0
ARC
  8
_0-0_FRF74-0421
  6
CONTINUOUS
 62
    7
 10
823.01482340171663
 20
837.13335929548839
 40
10.294509051906324
 50
70.609521494650267
 51
71.995229437186012
  0
ARC
  8
_0-0_FRF74-0421
  6
CONTINUOUS
 62
    7
 10
822.7587119396311
 20
836.34535251933437
 40
11.123090828363095
 50
71.995229437180697
 51
73.277722128433155
  0
LINE
  8
_0-0_FRF74-0421
  6
CONTINUOUS
 62
    7
 10
825.95919135174165
 20
846.99805551475629
 11
825.93692026878307
 21
847.00474659987572
  0
ARC
  8
_0-0_FRF74-0421
  6
CONTINUOUS
 62
    7
 10
822.90739834633996
 20
836.92107065564437
 40
10.528937440541467
 50
73.277722128433339
 51
74.87926844208674
  0
LINE
  8
_0-0_FRF74-0421
  6
CONTINUOUS
 62
    7
 10
825.65391202830369
 20
847.08547847025022
 11
825.63108228916212
 21
847.0916472694613
  0
ARC
  8
_0-0_FRF74-0421
  6
CONTINUOUS
 62
    7
 10
823.11032000982891
 20
837.76270928561553
 40
9.6635048701466939
 50
74.879268442089682
 51
76.343849993745266
  0
LINE
  8
_0-0_FRF74-0421
  6
CONTINUOUS
 62
    7
 10
825.39182059453458
 20
847.15302778166972
 11
825.39131347305272
 21
847.15315099346037
  0
ARC
  8
_0-0_FRF74-0421
  6
CONTINUOUS
 62
    7
 10
823.60061812484696
 20
839.78291415820422
 40
7.5846542991657309
 50
76.343849993746389
 51
78.201907520144559
  0
LINE
  8
_0-0_FRF74-0421
  6
CONTINUOUS
 62
    7
 10
825.15140280683602
 20
847.20733654031324
 11
825.12097249354736
 21
847.21369270666355
  0
ARC
  8
_0-0_FRF74-0421
  6
CONTINUOUS
 62
    7
 10
824.17265266971583
 20
842.67358665118354
 40
4.6380894216561543
 50
78.201907520132124
 51
80.472296542193121
  0
LINE
  8
_0-0_FRF74-0421
  6
CONTINUOUS
 62
    7
 10
824.9403699721538
 20
847.24769679708254
 11
824.93993904924525
 21
847.24776912305674
  0
ARC
  8
_0-0_FRF74-0421
  6
CONTINUOUS
 62
    7
 10
823.57304987293469
 20
839.1037535722387
 40
8.2579280277974263
 50
80.472296542200979
 51
81.741518788605134
  0
ARC
  8
_0-0_FRF74-0421
  6
CONTINUOUS
 62
    7
 10
824.23262709294545
 20
843.64804152493093
 40
3.6660226382950705
 50
81.741518788600217
 51
84.60003915708981
  0
LINE
  8
_0-0_FRF74-0421
  6
CONTINUOUS
 62
    7
 10
824.57762780570829
 20
847.29779446077259
 11
824.54176874531584
 21
847.30118411525382
  0
ARC
  8
_0-0_FRF74-0421
  6
CONTINUOUS
 62
    7
 10
824.16323807320146
 20
843.29671867286652
 40
4.0223163661011396
 50
84.600039157098252
 51
87.896118744880141
  0
LINE
  8
_0-0_FRF74-0421
  6
CONTINUOUS
 62
    7
 10
824.31090295356216
 20
847.31632363257506
 11
824.28909999755444
 21
847.3171245896151
  0
ARC
  8
_0-0_FRF74-0421
  6
CONTINUOUS
 62
    7
 10
824.17060222717441
 20
844.09148133325402
 40
3.2278190994682738
 50
87.896118744891979
 51
91.229136222745495
  0
LINE
  8
_0-0_FRF74-0421
  6
CONTINUOUS
 62
    7
 10
824.10136283277575
 20
847.31855772608333
 11
824.08527510077329
 21
847.3182125514777
  0
ARC
  8
_0-0_FRF74-0421
  6
CONTINUOUS
 62
    7
 10
824.19052873986845
 20
842.41260156310364
 40
4.9067400071533092
 50
91.229136222721337
 51
93.0463758180083
  0
LINE
  8
_0-0_FRF74-0421
  6
CONTINUOUS
 62
    7
 10
823.92976376905779
 20
847.31240759271304
 11
823.92741890432296
 21
847.31228280030689
  0
ARC
  8
_0-0_FRF74-0421
  6
CONTINUOUS
 62
    7
 10
824.36127982054859
 20
839.15998256338764
 40
8.1638369929526462
 50
93.046375818028693
 51
94.105698961646013
  0
LINE
  8
_0-0_FRF74-0421
  6
CONTINUOUS
 62
    7
 10
823.77677639932188
 20
847.30286842762996
 11
823.77438115588166
 21
847.30269649497495
  0
ARC
  8
_0-0_FRF74-0421
  6
CONTINUOUS
 62
    7
 10
825.62692582217289
 20
821.49436205550592
 40
25.874737646594404
 50
94.105698961642418
 51
94.429303583114333
  0
LINE
  8
_0-0_FRF74-0421
  6
CONTINUOUS
 62
    7
 10
823.62864687990498
 20
847.29182180543046
 11
823.62378907962523
 21
847.29144727079847
  0
ARC
  8
_0-0_FRF74-0421
  6
CONTINUOUS
 62
    7
 10
823.63012106285464
 20
838.15959279493063
 40
29.999999999999986
 50
205.64259913362292
 51
0.0000000000000254
  0
ARC
  8
_0-0_FRF74-0421
  6
CONTINUOUS
 62
    7
 10
823.63012106285464
 20
838.15959279493063
 40
30
 50
0
 51
170.31025032836189
  0
LINE
  8
_0-0_FRF74-0421
  6
CONTINUOUS
 62
    4
 10
913.62464574738237
 20
756.33492638556936
 11
931.62464497252188
 21
756.33492638556936
  0
POINT
  8
_0-0_FRF74-0421
 62
    7
 10
913.62464574738237
 20
756.33492638556936
  0
POINT
  8
_0-0_FRF74-0421
 62
    7
 10
931.62464497252188
 20
756.33492638556936
  0
LINE
  8
_0-0_FRF74-0421
  6
CONTINUOUS
 62
    4
 10
913.62464574738237
 20
756.33492638556936
 11
913.62464574738237
 21
747.33492638556936
  0
LINE
  8
_0-0_FRF74-0421
  6
CONTINUOUS
 62
    4
 10
931.62464497252188
 20
756.33492638556936
 11
931.62464497252188
 21
747.33492638556936
  0
TEXT
  8
_0-0_FRF74-0421
 62
    4
 10
920.12464535995207
 20
757.33492638556936
 40
5
 41
1
 50
0
  1
18
  0
TEXT
  8
_0-0_FRF74-0421
 62
    4
 10
915.53945956902191
 20
757.21183549213345
 40
5
 41
1
 50
0
  1
φ
  0
LINE
  8
_0-0_FRF74-0421
  6
CONTINUOUS
 62
    7
 10
959.51245981735315
 20
808.18410373958477
 11
959.78419366759374
 21
807.9123695400981
  0
LINE
  8
_0-0_FRF74-0421
  6
CONTINUOUS
 62
    7
 10
963.78419339192237
 20
807.9123695400981
 11
964.05528462958648
 21
808.18346077776232
  0
LINE
  8
_0-0_FRF74-0421
  6
CONTINUOUS
 62
    7
 10
968.28419366386845
 20
829.15959325818994
 11
1015.2787182061107
 21
829.15959325818994
  0
LINE
  8
_0-0_FRF74-0421
  6
CONTINUOUS
 62
    7
 10
1022.6374666718873
 20
847.15959434597471
 11
968.28419366386845
 21
847.15959434597471
  0
ARC
  8
_0-0_FRF74-0421
  6
CONTINUOUS
 62
    7
 10
1024.2787194536461
 20
640.33492497948168
 40
9.0000000000000853
 50
180
 51
0
  0
ARC
  8
_0-0_FRF74-0421
  6
CONTINUOUS
 62
    7
 10
1024.2787194536461
 20
838.33492497948168
 40
9.0000000000000853
 50
0
 51
89.989002222676334
  0
LINE
  8
_0-0_FRF74-0421
  6
CONTINUOUS
 62
    7
 10
1033.2787211565405
 20
640.33492286889532
 11
1033.2787211565405
 21
838.33492552130201
  0
LINE
  8
_0-0_FRF74-0421
  6
CONTINUOUS
 62
    7
 10
1015.2787182061107
 20
837.9250299671171
 11
1015.2787182061107
 21
640.33492286889532
  0
LINE
  8
_0-0_FRF74-0421
  6
CONTINUOUS
 62
    7
 10
964.37321766746368
 20
808.15959284282008
 11
967.78419358191206
 21
808.15959284282008
  0
LINE
  8
_0-0_FRF74-0421
  6
CONTINUOUS
 62
    7
 10
958.28419342172458
 20
808.15959284282008
 11
959.21784616542175
 21
808.15959284282008
  0
LINE
  8
_0-0_FRF74-0421
  6
CONTINUOUS
 62
    7
 10
967.78419358191206
 20
868.1595922002075
 11
958.28419342172458
 21
868.1595922002075
  0
ARC
  8
_0-0_FRF74-0421
  6
CONTINUOUS
 62
    7
 10
967.7841937311307
 20
867.65959279493063
 40
0.5000000000000567
 50
0
 51
90
  0
ARC
  8
_0-0_FRF74-0421
  6
CONTINUOUS
 62
    7
 10
967.7841937311307
 20
808.65959279493063
 40
0.5000000000000567
 50
270
 51
0
  0
LINE
  8
_0-0_FRF74-0421
  6
CONTINUOUS
 62
    7
 10
959.87753081602182
 20
807.9123695400981
 11
959.78419366759374
 21
807.9123695400981
  0
LINE
  8
_0-0_FRF74-0421
  6
CONTINUOUS
 62
    7
 10
963.78419339192237
 20
807.9123695400981
 11
959.87753081602182
 21
807.9123695400981
  0
LINE
  8
_0-0_FRF74-0421
  6
CONTINUOUS
 62
    7
 10
958.28419342172458
 20
820.24249625592211
 11
958.27624085826005
 21
820.23790483562925
  0
LINE
  8
_0-0_FRF74-0421
  6
CONTINUOUS
 62
    7
 10
958.28419342172458
 20
820.22413057475069
 11
958.27624085826005
 21
820.23790483562925
  0
ARC
  8
_0-0_FRF74-0421
  6
CONTINUOUS
 62
    7
 10
1024.2841937311305
 20
838.15959279493075
 40
9.0000000000000604
 50
358.00151084833499
 51
2.3467073859098377
  0
ARC
  8
_0-0_FRF74-0421
  6
CONTINUOUS
 62
    7
 10
1024.2841937311305
 20
838.15959279493075
 40
8.9999999999999964
 50
132.30532852142636
 51
179.39333497606665
  0
LINE
  8
_0-0_FRF74-0421
  6
CONTINUOUS
 62
    7
 10
1024.2786768404874
 20
847.29247545092085
 11
1024.2730520933542
 21
847.29244407290719
  0
ARC
  8
_0-0_FRF74-0421
  6
CONTINUOUS
 62
    7
 10
1024.7449478119538
 20
762.70155468066082
 40
84.592205632318596
 50
90.319624876529033
 51
90.433708455723249
  0
ARC
  8
_0-0_FRF74-0421
  6
CONTINUOUS
 62
    7
 10
1024.2930796896255
 20
822.39520710028751
 40
24.896842964895477
 50
90.433708455735456
 51
90.821329809354694
  0
LINE
  8
_0-0_FRF74-0421
  6
CONTINUOUS
 62
    7
 10
1023.9361979238058
 20
847.28949208748668
 11
1023.9306100792945
 21
847.28941198075472
  0
ARC
  8
_0-0_FRF74-0421
  6
CONTINUOUS
 62
    7
 10
1024.1548677775399
 20
831.64631786590007
 40
15.644701499275133
 50
90.821329809369473
 51
91.47898294867089
  0
ARC
  8
_0-0_FRF74-0421
  6
CONTINUOUS
 62
    7
 10
1024.036788076314
 20
836.22069854783831
 40
11.068797059909407
 50
91.479115307810204
 51
92.40828901103886
  0
ARC
  8
_0-0_FRF74-0421
  6
CONTINUOUS
 62
    7
 10
1023.9315040585823
 20
838.72461153238521
 40
8.5626715726612925
 50
92.408448866312938
 51
93.609318277705341
  0
ARC
  8
_0-0_FRF74-0421
  6
CONTINUOUS
 62
    7
 10
1023.8329314681635
 20
840.28738232528985
 40
6.9967951066780021
 50
93.609349197176599
 51
95.079289446390632
  0
ARC
  8
_0-0_FRF74-0421
  6
CONTINUOUS
 62
    7
 10
1023.7358814123834
 20
841.37882005520885
 40
5.9010510536328828
 50
95.078907603313127
 51
96.822209437314257
  0
LINE
  8
_0-0_FRF74-0421
  6
CONTINUOUS
 62
    7
 10
1023.0349022823067
 20
847.23808893423961
 11
1023.0141018515359
 21
847.23560045518741
  0
ARC
  8
_0-0_FRF74-0421
  6
CONTINUOUS
 62
    7
 10
1023.5069006666946
 20
843.11644677800575
 40
4.1485271709922458
 50
96.822209437313788
 51
99.164310093802399
  0
ARC
  8
_0-0_FRF74-0421
  6
CONTINUOUS
 62
    7
 10
1023.9871776339552
 20
840.13937843159931
 40
7.16408713631483
 50
99.164310093783953
 51
100.52068214469948
  0
LINE
  8
_0-0_FRF74-0421
  6
CONTINUOUS
 62
    7
 10
1022.6790838070119
 20
847.18303054088358
 11
1022.6679744011723
 21
847.18096738600673
  0
ARC
  8
_0-0_FRF74-0421
  6
CONTINUOUS
 62
    7
 10
1023.513360784366
 20
842.62884164510888
 40
4.6299597080141419
 50
100.52068214470725
 51
102.89885649684246
  0
LINE
  8
_0-0_FRF74-0421
  6
CONTINUOUS
 62
    7
 10
1022.4798118147089
 20
847.14196732751066
 11
1022.4328929091326
 21
847.13122244914291
  0
ARC
  8
_0-0_FRF74-0421
  6
CONTINUOUS
 62
    7
 10
1023.8903617737503
 20
840.76699554037691
 40
6.528981516101279
 50
102.89885649682057
 51
104.88170508784856
  0
ARC
  8
_0-0_FRF74-0421
  6
CONTINUOUS
 62
    7
 10
1024.9365629878544
 20
836.83002373519071
 40
10.602589741645756
 50
104.88170508785409
 51
106.10280146886915
  0
LINE
  8
_0-0_FRF74-0421
  6
CONTINUOUS
 62
    7
 10
1021.995811413523
 20
847.01662716360192
 11
1021.9758682131801
 21
847.01086979823299
  0
ARC
  8
_0-0_FRF74-0421
  6
CONTINUOUS
 62
    7
 10
1024.140999101433
 20
839.51097421991483
 40
7.8061658609680729
 50
106.10280146885256
 51
108.06591911067487
  0
LINE
  8
_0-0_FRF74-0421
  6
CONTINUOUS
 62
    7
 10
1021.7202213141748
 20
846.93229892333943
 11
1021.6856338112946
 21
846.92101675175491
  0
ARC
  8
_0-0_FRF74-0421
  6
CONTINUOUS
 62
    7
 10
1024.5793242041877
 20
838.04989437535141
 40
9.3311444264381898
 50
108.06591911067065
 51
109.67098417793979
  0
ARC
  8
_0-0_FRF74-0421
  6
CONTINUOUS
 62
    7
 10
1024.4143301990628
 20
838.51144112002089
 40
8.8409930016292613
 50
109.67098417793892
 51
111.36502265813645
  0
LINE
  8
_0-0_FRF74-0421
  6
CONTINUOUS
 62
    7
 10
1021.1934827593809
 20
846.74486683627981
 11
1021.1434641435567
 21
846.72529997112963
  0
ARC
  8
_0-0_FRF74-0421
  6
CONTINUOUS
 62
    7
 10
1023.5331997769772
 20
840.61643850291216
 40
6.5596512739254624
 50
111.36502265812283
 51
114.5858003349616
  0
LINE
  8
_0-0_FRF74-0421
  6
CONTINUOUS
 62
    7
 10
1020.8040211624527
 20
846.58138686191194
 11
1020.7566805602236
 21
846.55972683211337
  0
ARC
  8
_0-0_FRF74-0421
  6
CONTINUOUS
 62
    7
 10
1024.3612816794207
 20
838.68143721911974
 40
8.6637518694109126
 50
114.58580033495305
 51
117.5153631416055
  0
ARC
  8
_0-0_FRF74-0421
  6
CONTINUOUS
 62
    7
 10
1024.4033343445656
 20
838.60070765964178
 40
8.7547776263113768
 50
117.51536314161562
 51
120.41447956674799
  0
LINE
  8
_0-0_FRF74-0421
  6
CONTINUOUS
 62
    7
 10
1019.9712131212349
 20
846.15070320585653
 11
1019.9688291339564
 21
846.14930371885714
  0
ARC
  8
_0-0_FRF74-0421
  6
CONTINUOUS
 62
    7
 10
1024.5099053095146
 20
838.41370643419691
 40
8.9699965542169622
 50
120.41447956675069
 51
123.27935901475385
  0
LINE
  8
_0-0_FRF74-0421
  6
CONTINUOUS
 62
    7
 10
1019.5878737294315
 20
845.91266924963543
 11
1019.5384919372177
 21
845.8802569351941
  0
ARC
  8
_0-0_FRF74-0421
  6
CONTINUOUS
 62
    7
 10
1023.3385875355197
 20
840.09062004987049
 40
6.925360771839479
 50
123.27935901475503
 51
126.19593770207149
  0
LINE
  8
_0-0_FRF74-0421
  6
CONTINUOUS
 62
    7
 10
1019.2488264503203
 20
845.67940132006902
 11
1019.2027011600527
 21
845.64564773264817
  0
ARC
  8
_0-0_FRF74-0421
  6
CONTINUOUS
 62
    7
 10
1024.6763521857706
 20
838.16573932360939
 40
9.268758566224065
 50
126.19593770206585
 51
127.66887890193981
  0
ARC
  8
_0-0_FRF74-0421
  6
CONTINUOUS
 62
    7
 10
1024.6493633946282
 20
838.2006979663139
 40
9.2245940833552833
 50
127.66887890191374
 51
129.14887130309003
  0
LINE
  8
_0-0_FRF74-0421
  6
CONTINUOUS
 62
    7
 10
1018.825531057186
 20
845.35444613828884
 11
1018.7776939144155
 21
845.31550214804759
  0
ARC
  8
_0-0_FRF74-0421
  6
CONTINUOUS
 62
    7
 10
1023.1772641401992
 20
839.91125703305136
 40
6.968650043915515
 50
129.14887130308639
 51
132.12175810424145
  0
LINE
  8
_0-0_FRF74-0421
  6
CONTINUOUS
 62
    7
 10
1018.5033324626365
 20
845.08005245442757
 11
1018.4350035057461
 21
845.01826535509974
  0
ARC
  8
_0-0_FRF74-0421
  6
CONTINUOUS
 62
    7
 10
1023.9651194264669
 20
838.90263512714705
 40
8.2451873951814392
 50
132.12175810425524
 51
135.08265477381673
  0
LINE
  8
_0-0_FRF74-0421
  6
CONTINUOUS
 62
    7
 10
1018.1264869018888
 20
844.72444630792222
 11
1018.1055273809509
 21
844.70342622725514
  0
ARC
  8
_0-0_FRF74-0421
  6
CONTINUOUS
 62
    7
 10
1024.8905885157071
 20
837.93791313660051
 40
9.5817128939558227
 50
135.08265477382537
 51
137.2758398522023
  0
ARC
  8
_0-0_FRF74-0421
  6
CONTINUOUS
 62
    7
 10
1024.8329334985626
 20
837.99116068593719
 40
9.5032310329159664
 50
137.27583985221025
 51
139.48713273973863
  0
LINE
  8
_0-0_FRF74-0421
  6
CONTINUOUS
 62
    7
 10
1017.6080061617015
 20
844.16463823445486
 11
1017.606418075487
 21
844.16277966974587
  0
ARC
  8
_0-0_FRF74-0421
  6
CONTINUOUS
 62
    7
 10
1024.8739100163396
 20
837.95293198007221
 40
9.5592179303173008
 50
139.48713273975014
 51
141.71477194881038
  0
LINE
  8
_0-0_FRF74-0421
  6
CONTINUOUS
 62
    7
 10
1017.3705344371647
 20
843.87560049664
 11
1017.3487409787821
 21
843.84799055984274
  0
ARC
  8
_0-0_FRF74-0421
  6
CONTINUOUS
 62
    7
 10
1023.606399813425
 20
838.90860846757153
 40
7.9721885040580407
 50
141.71477194881027
 51
143.96843891988655
  0
ARC
  8
_0-0_FRF74-0421
  6
CONTINUOUS
 62
    7
 10
1027.2170452015005
 20
836.28228104604341
 40
12.436979187113735
 50
143.96843891989937
 51
145.4131645534687
  0
LINE
  8
_0-0_FRF74-0421
  6
CONTINUOUS
 62
    7
 10
1016.978092929152
 20
843.34218952032757
 11
1016.9757591367011
 21
843.33880483204086
  0
ARC
  8
_0-0_FRF74-0421
  6
CONTINUOUS
 62
    7
 10
1023.4942680122094
 20
838.84419690480559
 40
7.9178569309912126
 50
145.41316455347831
 51
147.74176883030466
  0
LINE
  8
_0-0_FRF74-0421
  6
CONTINUOUS
 62
    7
 10
1016.7985231662558
 20
843.07024225921566
 11
1016.7774633787946
 21
843.03687513900638
  0
ARC
  8
_0-0_FRF74-0421
  6
CONTINUOUS
 62
    7
 10
1025.0300585991654
 20
837.82821762662638
 40
9.7588647368718959
 50
147.74176883031885
 51
150.09433166523561
  0
LINE
  8
_0-0_FRF74-0421
  6
CONTINUOUS
 62
    7
 10
1016.5706117944835
 20
842.6937289780999
 11
1016.5584535651244
 21
842.67259000892011
  0
ARC
  8
_0-0_FRF74-0421
  6
CONTINUOUS
 62
    7
 10
1024.1496561200847
 20
838.30645554938826
 40
8.757253356455351
 50
150.09433166523172
 51
152.45186405929772
  0
LINE
  8
_0-0_FRF74-0421
  6
CONTINUOUS
 62
    7
 10
1016.3852774589238
 20
842.35662966357881
 11
1016.3750459964424
 21
842.33701545768918
  0
ARC
  8
_0-0_FRF74-0421
  6
CONTINUOUS
 62
    7
 10
1025.1454529744653
 20
837.76206144481955
 40
9.891928162902607
 50
152.4518640592897
 51
154.2828358837663
  0
ARC
  8
_0-0_FRF74-0421
  6
CONTINUOUS
 62
    7
 10
1024.9661982984453
 20
837.84839704114631
 40
9.6929656687783599
 50
154.28283588376567
 51
156.15138452538855
  0
LINE
  8
_0-0_FRF74-0421
  6
CONTINUOUS
 62
    7
 10
1016.1008477929333
 20
841.76747140514294
 11
1016.0968027112908
 21
841.75832101317428
  0
ARC
  8
_0-0_FRF74-0421
  6
CONTINUOUS
 62
    7
 10
1024.4124563575187
 20
838.08224920929138
 40
9.0919524565038241
 50
156.15138452535948
 51
158.05870644969443
  0
ARC
  8
_0-0_FRF74-0421
  6
CONTINUOUS
 62
    7
 10
1025.3797227073685
 20
837.69260062251578
 40
10.134751676262006
 50
158.05870644972353
 51
159.76980834909878
  0
LINE
  8
_0-0_FRF74-0421
  6
CONTINUOUS
 62
    7
 10
1015.870174337814
 20
841.19712360668871
 11
1015.8689227086506
 21
841.19372730193527
  0
ARC
  8
_0-0_FRF74-0421
  6
CONTINUOUS
 62
    7
 10
1024.2533177134437
 20
838.10385343403027
 40
8.9356253343548904
 50
159.76980834910918
 51
161.75689668192814
  0
LINE
  8
_0-0_FRF74-0421
  6
CONTINUOUS
 62
    7
 10
1015.7668253702482
 20
840.9011463798704
 11
1015.7625668571977
 21
840.88822680401756
  0
ARC
  8
_0-0_FRF74-0421
  6
CONTINUOUS
 62
    7
 10
1025.1688456766437
 20
837.78775651262117
 40
9.9040899257322454
 50
161.75689668192865
 51
163.70706251490242
  0
LINE
  8
_0-0_FRF74-0421
  6
CONTINUOUS
 62
    7
 10
1015.6625051826635
 20
840.56633306717242
 11
1015.6620634754042
 21
840.56482185467826
  0
ARC
  8
_0-0_FRF74-0421
  6
CONTINUOUS
 62
    7
 10
1025.422528556827
 20
837.71196807209651
 40
10.168847196730958
 50
163.70706251489932
 51
165.62420031816049
  0
LINE
  8
_0-0_FRF74-0421
  6
CONTINUOUS
 62
    7
 10
1015.5720871323103
 20
840.23669717689745
 11
1015.5682110377421
 21
840.22157427027503
  0
ARC
  8
_0-0_FRF74-0421
  6
CONTINUOUS
 62
    7
 10
1024.7943628083481
 20
837.8568544677097
 40
9.524377997481011
 50
165.6242003181583
 51
167.52362228544291
  0
LINE
  8
_0-0_FRF74-0421
  6
CONTINUOUS
 62
    7
 10
1015.4949014799784
 20
839.91447329564039
 11
1015.4917681398915
 21
839.90031208435596
  0
ARC
  8
_0-0_FRF74-0421
  6
CONTINUOUS
 62
    7
 10
1024.7469583383215
 20
837.85248878191965
 40
9.4790361264800378
 50
167.52362228546008
 51
169.25683792030256
  0
LINE
  8
_0-0_FRF74-0421
  6
CONTINUOUS
 62
    7
 10
1015.4340645834164
 20
839.61944543021775
 11
1015.4274479704579
 21
839.58457201464228
  0
ARC
  8
_0-0_FRF74-0421
  6
CONTINUOUS
 62
    7
 10
1021.6152899181777
 20
838.41053859861927
 40
6.2982332786186772
 50
169.2568379203129
 51
171.21957343980088
  0
ARC
  8
_0-0_FRF74-0421
  6
CONTINUOUS
 62
    7
 10
1027.0085831197832
 20
837.57749921665049
 40
11.755482234859844
 50
171.21957343980188
 51
172.27122132946667
  0
LINE
  8
_0-0_FRF74-0421
  6
CONTINUOUS
 62
    7
 10
1015.3598903212694
 20
839.15842257341274
 11
1015.3567307759893
 21
839.13514214543102
  0
ARC
  8
_0-0_FRF74-0421
  6
CONTINUOUS
 62
    7
 10
1020.2185127906387
 20
838.47531662891879
 40
4.9063524200986945
 50
172.27122132944058
 51
175.24822520751277
  0
LINE
  8
_0-0_FRF74-0421
  6
CONTINUOUS
 62
    7
 10
1015.3290238131292
 20
838.88175433512106
 11
1015.3241156170134
 21
838.82270821208169
  0
ARC
  8
_0-0_FRF74-0421
  6
CONTINUOUS
 62
    7
 10
1023.4800788981315
 20
838.14474554091339
 40
8.1840925230867896
 50
175.24822520752417
 51
176.20371447214325
  0
ARC
  8
_0-0_FRF74-0421
  6
CONTINUOUS
 62
    7
 10
1025.0846586163611
 20
838.03827395661028
 40
9.7922008124809885
 50
176.20371447209726
 51
177.00229564216076
  0
LINE
  8
_0-0_FRF74-0421
  6
CONTINUOUS
 62
    7
 10
1015.3058571491639
 20
838.55036634777809
 11
1015.305851918936
 21
838.55026647251668
  0
ARC
  8
_0-0_FRF74-0421
  6
CONTINUOUS
 62
    7
 10
1027.3402151317121
 20
837.92005571974664
 40
12.050853228295733
 50
177.00229564215221
 51
177.65215588165506
  0
LINE
  8
_0-0_FRF74-0421
  6
CONTINUOUS
 62
    7
 10
1015.2994781704139
 20
838.41373269789381
 11
1015.2994744243952
 21
838.41364133283696
  0
ARC
  8
_0-0_FRF74-0421
  6
CONTINUOUS
 62
    7
 10
1030.9063385346326
 20
837.77375113865332
 40
15.619976530584985
 50
177.65215588165978
 51
178.15419777608818
  0
LINE
  8
_0-0_FRF74-0421
  6
CONTINUOUS
 62
    7
 10
1015.2944667216263
 20
838.27686674195763
 11
1015.2944642448726
 21
838.27678988733101
  0
ARC
  8
_0-0_FRF74-0421
  6
CONTINUOUS
 62
    7
 10
1035.9395796380841
 20
837.61147058349388
 40
20.655833059334089
 50
178.15419777610916
 51
178.53427034128427
  0
LINE
  8
_0-0_FRF74-0421
  6
CONTINUOUS
 62
    7
 10
1015.2905050974748
 20
838.13982651602498
 11
1015.2897357611234
 21
838.10975950496311
  0
ARC
  8
_0-0_FRF74-0421
  6
CONTINUOUS
 62
    7
 10
1057.1933457098935
 20
837.03755547632147
 40
41.917325155807625
 50
178.5342703413333
 51
178.80378364508286
  0
LINE
  8
_0-0_FRF74-0421
  6
CONTINUOUS
 62
    7
 10
1015.2851558369096
 20
837.91263820819722
 11
1015.2845286640966
 21
837.88260255970829
  0
LINE
  8
_0-0_FRF74-0421
  6
CONTINUOUS
 62
    7
 10
1015.2845286640966
 20
837.88260255970829
 11
1015.2843471197518
 21
837.87402701764086
  0
LINE
  8
_0-0_FRF74-0421
  6
CONTINUOUS
 62
    7
 10
958.28419342172458
 20
868.1595922002075
 11
958.28419342172458
 21
808.15959284282008
  0
LINE
  8
_0-0_FRF74-0421
  6
CONTINUOUS
 62
    7
 10
968.28419366386845
 20
867.65959118692854
 11
968.28419366386845
 21
808.65959280836114
  0
LINE
  8
_0-0_FRF74-0421
  6

 62
    7
 10
1015.2841937311306
 20
838.1595927949304
 11
953.66459329103975
 21
838.1595927949304
  0
LINE
  8
_0-0_FRF74-0421
  6
CONTINUOUS
 62
    4
 10
1024.2841937311307
 20
883.1595922002075
 11
958.28419342172458
 21
883.1595922002075
  0
POINT
  8
_0-0_FRF74-0421
 62
    7
 10
1024.2841937311307
 20
883.1595922002075
  0
POINT
  8
_0-0_FRF74-0421
 62
    7
 10
958.28419342172458
 20
883.1595922002075
  0
LINE
  8
_0-0_FRF74-0421
  6
CONTINUOUS
 62
    4
 10
1024.2841937311307
 20
883.1595922002075
 11
1024.2841937311307
 21
845.65959279493063
  0
LINE
  8
_0-0_FRF74-0421
  6
CONTINUOUS
 62
    4
 10
958.28419342172458
 20
883.1595922002075
 11
958.28419342172458
 21
874.1595922002075
  0
LINE
  8
_0-0_FRF74-0421
  6
CONTINUOUS
 62
    4
 10
958.28419342172458
 20
898.1595922002075
 11
1033.2841937311307
 21
898.1595922002075
  0
POINT
  8
_0-0_FRF74-0421
 62
    7
 10
958.28419342172458
 20
898.1595922002075
  0
POINT
  8
_0-0_FRF74-0421
 62
    7
 10
1033.2841937311307
 20
898.1595922002075
  0
LINE
  8
_0-0_FRF74-0421
  6
CONTINUOUS
 62
    4
 10
958.28419342172458
 20
898.1595922002075
 11
958.28419342172458
 21
874.1595922002075
  0
LINE
  8
_0-0_FRF74-0421
  6
CONTINUOUS
 62
    4
 10
1033.2841937311307
 20
898.1595922002075
 11
1033.2841937311307
 21
845.65959279493063
  0
LINE
  8
_0-0_FRF74-0421
  6
CONTINUOUS
 62
    4
 10
943.28419342172458
 20
868.1595922002075
 11
943.28419342172458
 21
808.15959284282008
  0
POINT
  8
_0-0_FRF74-0421
 62
    7
 10
943.28419342172458
 20
868.1595922002075
  0
POINT
  8
_0-0_FRF74-0421
 62
    7
 10
943.28419342172458
 20
808.15959284282008
  0
LINE
  8
_0-0_FRF74-0421
  6
CONTINUOUS
 62
    4
 10
943.28419342172458
 20
868.1595922002075
 11
952.28419342172458
 21
868.1595922002075
  0
LINE
  8
_0-0_FRF74-0421
  6
CONTINUOUS
 62
    4
 10
943.28419342172458
 20
808.15959284282008
 11
952.28419342172458
 21
808.15959284282008
  0
LINE
  8
_0-0_FRF74-0421
  6
CONTINUOUS
 62
    4
 10
931.62464904785156
 20
605.65816216418455
 11
715.62464904785156
 21
605.65816216418455
  0
POINT
  8
_0-0_FRF74-0421
 62
    7
 10
931.62464904785156
 20
605.65816216418455
  0
POINT
  8
_0-0_FRF74-0421
 62
    7
 10
715.62464904785156
 20
605.65816216418455
  0
TEXT
  8
_0-0_FRF74-0421
 62
    4
 10
815.70531579505518
 20
606.98333738839062
 40
5
 41
1
 50
0
  1
φ216
  0
LINE
  8
_0-0_FRF74-0421
  6
CONTINUOUS
 62
    4
 10
715.62464904785156
 20
733.33492497948168
 11
715.62464904785156
 21
605.65816216418455
  0
LINE
  8
_0-0_FRF74-0421
  6
CONTINUOUS
 62
    4
 10
931.62464904785156
 20
733.33492497948168
 11
931.62464904785156
 21
605.65816216418455
  0
TEXT
  8
_0-0_FRF74-0421
 62
    7
 10
942.89541103866486
 20
507.16508785728229
 40
6
 41
1
 50
0
  1
FRF74-0421
  0
TEXT
  8
_0-0_FRF74-0421
 62
    4
 10
690.59866426069993
 20
460.90948008418826
 40
5
 41
1
 50
0
  1
120911S
  0
TEXT
  8
_0-0_FRF74-0421
 62
    4
 10
991.45067011971025
 20
899.65341469836017
 40
5
 41
1
 50
0
  1
75
  0
TEXT
  8
_0-0_FRF74-0421
 62
    4
 10
991.91638225622728
 20
884.75062632981576
 40
5
 41
1
 50
0
  1
66
  0
TEXT
  8
_0-0_FRF74-0421
 62
    4
 10
940.859486556771
 20
830.09086703991056
 40
5
 41
1
 50
90
  1
φ
  0
TEXT
  8
_0-0_FRF74-0421
 62
    4
 10
940.859486556771
 20
836.1451248146318
 40
5
 41
1
 50
90
  1
60
  0
TEXT
  8
_0-0_FRF74-0421
 62
    7
 10
704.13904607199697
 20
489.10348358236541
 40
6
 41
1
 50
0
  1
クローム
  0
TEXT
  8
_0-0_FRF74-0421
 62
    7
 10
704.52645968509307
 20
506.99149662678974
 40
6
 41
1
 50
0
  1
タオルリング　-LANGBERGER,Nero-
  0
LINE
  8
_0-0_FRF74-0421
  6
CONTINUOUS
 62
    4
 10
705.29134269586098
 20
868.1595922002075
 11
705.29134269586098
 21
630.92625831080306
  0
POINT
  8
_0-0_FRF74-0421
 62
    7
 10
705.29134269586098
 20
868.1595922002075
  0
POINT
  8
_0-0_FRF74-0421
 62
    7
 10
705.29134269586098
 20
630.92625831080306
  0
TEXT
  8
_0-0_FRF74-0421
 62
    4
 10
704.29134269586098
 20
745.79292525550522
 40
5
 41
1
 50
90
  1
237
  0
LINE
  8
_0-0_FRF74-0421
  6
CONTINUOUS
 62
    4
 10
705.29134269586098
 20
868.1595922002075
 11
805.59106944881262
 21
868.1595922002075
  0
LINE
  8
_0-0_FRF74-0421
  6
CONTINUOUS
 62
    4
 10
705.29134269586098
 20
630.92625831080306
 11
805.59106944881262
 21
630.92625831080306
  0
ENDSEC
  0
EOF
