  0
SECTION
  2
HEADER
  9
$ACADVER
  1
AC1009
  9
$INSBASE
 10
0
 20
0
 30
0
  9
$EXTMIN
 10
0
 20
0
  9
$EXTMAX
 10
4205
 20
2970
  9
$LIMMIN
 10
0
 20
0
  9
$LIMMAX
 10
4205
 20
2970
  9
$LTSCALE
 40
5
  0
ENDSEC
  0
SECTION
  2
TABLES
  0
TABLE
  2
LTYPE
 70
     9
  0
LTYPE
  2
CONTINUOUS
 70
    64
  3
実線
 72
    65
 73
     0
 40
0.0
  0
LTYPE
  2
DASHED1
 70
    64
  3
--  --  --  --  --  --  --  --  
 72
    65
 73
     2
 40
2.5
 49
1.25
 49
-1.25
  0
LTYPE
  2
DASHED2
 70
    64
  3
----    ----    ----    ----    
 72
    65
 73
     2
 40
5.0
 49
2.5
 49
-2.5
  0
LTYPE
  2
DASHED3
 70
    64
  3
------  ------  ------  ------  
 72
    65
 73
     2
 40
5.0
 49
3.75
 49
-1.25
  0
LTYPE
  2
CENTER1
 70
    64
  3
----- - ----- - ----- - ----- - 
 72
    65
 73
     4
 40
10.0
 49
6.25
 49
-1.25
 49
1.25
 49
-1.25
  0
LTYPE
  2
CENTER2
 70
    64
  3
----------  --  ----------  --  
 72
    65
 73
     4
 40
20.0
 49
12.5
 49
-2.5
 49
2.5
 49
-2.5
  0
LTYPE
  2
PHANTOM1
 70
    64
  3
--- - - --- - - --- - - --- - - 
 72
    65
 73
     6
 40
10.0
 49
3.25
 49
-1.25
 49
1.25
 49
-1.25
 49
1.25
 49
-1.25
  0
LTYPE
  2
PHANTOM2
 70
    64
  3
--------  -  -  --------  -  -  
 72
    65
 73
     6
 40
20.0
 49
10.0
 49
-2.5
 49
1.25
 49
-2.5
 49
1.25
 49
-2.5
  0
LTYPE
  2
DOT
 70
    64
  3
-   -   -   -   -   -   -   -   
 72
    65
 73
     2
 40
2.5
 49
0.625
 49
-1.875
  0
LTYPE
  2
DUMMY
 70
    64
  3
ダミー
 72
    65
 73
     0
 40
0.0
  0
LTYPE
  2
RAND1
 70
    64
  3
ランダム線1
 72
    65
 73
     4
 40
10.0
 49
1.0
 49
-2.0
 49
3.0
 49
-4.0
  0
LTYPE
  2
RAND2
 70
    64
  3
ランダム線2
 72
    65
 73
     4
 40
14.0
 49
2.0
 49
-3.0
 49
4.0
 49
-5.0
  0
LTYPE
  2
RAND3
 70
    64
  3
ランダム線3
 72
    65
 73
     4
 40
18.0
 49
3.0
 49
-4.0
 49
5.0
 49
-6.0
  0
LTYPE
  2
RAND4
 70
    64
  3
ランダム線4
 72
    65
 73
     4
 40
22.0
 49
4.0
 49
-5.0
 49
6.0
 49
-7.0
  0
LTYPE
  2
RAND5
 70
    64
  3
ランダム線5
 72
    65
 73
     4
 40
26.0
 49
5.0
 49
-6.0
 49
7.0
 49
-8.0
  0
LTYPE
  2
LONG1
 70
    64
  3
----------  --  ----------  --  
 72
    65
 73
     4
 40
40.0
 49
32.5
 49
-2.5
 49
2.5
 49
-2.5
  0
LTYPE
  2
LONG2
 70
    64
  3
--------  -  -  --------  -  -  
 72
    65
 73
     6
 40
40.0
 49
30.0
 49
-2.5
 49
1.25
 49
-2.5
 49
1.25
 49
-2.5
  0
LTYPE
  2
LONG3
 70
    64
  3
+++++++++++++++..+++++++++++++++
 72
    65
 73
     2
 40
40.0
 49
37.5
 49
-2.5
  0
LTYPE
  2
LONG4
 70
    64
  3
+++++++++++++++..+++++++++++++++
 72
    65
 73
     2
 40
80.0
 49
75.0
 49
-5.0
  0
LTYPE
  2
LONG5
 70
    64
  3
----------  --  ----------  --  
 72
    65
 73
     4
 40
60.0
 49
37.5
 49
-7.5
 49
7.5
 49
-7.5
  0
LTYPE
  2
dashed
 70
   64
  3
-------   -------------   ------
 72
   65
 73
    2
 40
7.5
 49
6
 49
-1.5
  0
LTYPE
  2
dashed_spaced
 70
   64
  3
----        --------        ----
 72
   65
 73
    2
 40
12
 49
6
 49
-6
  0
LTYPE
  2
long_dashed_dotted
 70
   64
  3
------------- --- --------------
 72
   65
 73
    4
 40
15.25
 49
12
 49
-1.5
 49
0.25
 49
-1.5
  0
LTYPE
  2
long_dashed_double-dotted
 70
   64
  3
----------- --- --- ------------
 72
   65
 73
    6
 40
17
 49
12
 49
-1.5
 49
0.25
 49
-1.5
 49
0.25
 49
-1.5
  0
LTYPE
  2
long_dashed_triplicate-dotted
 70
   64
  3
--------- --- --- --- ----------
 72
   65
 73
    8
 40
18.75
 49
12
 49
-1.5
 49
0.25
 49
-1.5
 49
0.25
 49
-1.5
 49
0.25
 49
-1.5
  0
LTYPE
  2
dotted
 70
   64
  3
   -       -       -       -    
 72
   65
 73
    2
 40
1.75
 49
0.25
 49
-1.5
  0
LTYPE
  2
chain
 70
   64
  3
-------------- -- --------------
 72
   65
 73
    4
 40
18.5
 49
12
 49
-1.5
 49
3.5
 49
-1.5
  0
LTYPE
  2
chain_double_dash
 70
   64
  3
------------ -- -- -------------
 72
   65
 73
    6
 40
23.5
 49
12
 49
-1.5
 49
3.5
 49
-1.5
 49
3.5
 49
-1.5
  0
LTYPE
  2
dashed_dotted
 70
   64
  3
-----------     -     ----------
 72
   65
 73
    4
 40
9.25
 49
6
 49
-1.5
 49
0.25
 49
-1.5
  0
LTYPE
  2
double-dashed_dotted
 70
   64
  3
------   -----------   -   -----
 72
   65
 73
    6
 40
16.75
 49
6
 49
-1.5
 49
6
 49
-1.5
 49
0.25
 49
-1.5
  0
LTYPE
  2
dashed_double-dotted
 70
   64
  3
---------    -    -    ---------
 72
   65
 73
    6
 40
11
 49
6
 49
-1.5
 49
0.25
 49
-1.5
 49
0.25
 49
-1.5
  0
LTYPE
  2
double-dashed_double-dotted
 70
   64
  3
-----   ---------   -   -   ----
 72
   65
 73
    8
 40
18.5
 49
6
 49
-1.5
 49
6
 49
-1.5
 49
0.25
 49
-1.5
 49
0.25
 49
-1.5
  0
LTYPE
  2
dashed_triplicate-dotted
 70
   64
  3
-------    -    -    -    ------
 72
   65
 73
    8
 40
12.75
 49
6
 49
-1.5
 49
0.25
 49
-1.5
 49
0.25
 49
-1.5
 49
0.25
 49
-1.5
  0
LTYPE
  2
double-dashed_triplicate-dotted
 70
   64
  3
-----  ---------  -  -  -  -----
 72
   65
 73
   10
 40
20.25
 49
6
 49
-1.5
 49
6
 49
-1.5
 49
0.25
 49
-1.5
 49
0.25
 49
-1.5
 49
0.25
 49
-1.5
  0
LTYPE
  2
undefined
 70
   64
  3
--------------------------------
 72
   65
 73
    0
 40
0
  0
ENDTAB
  0
TABLE
  2
STYLE
  5
3
100
AcDbSymbolTable
 70
     1
  0
STYLE
  5
10
100
AcDbSymbolTableRecord
100
AcDbTextStyleTableRecord
  2
STANDARD
 70
     0
 40
0.0
 41
1.0
 50
0.0
 71
     0
 42
0.2
  3
txt
  4
bigfont.shx
  0
STYLE
  5
26
100
AcDbSymbolTableRecord
100
AcDbTextStyleTableRecord
  2
TATEGAKI
 70
    68
 40
0.0
 41
1.0
 50
0.0
 71
     0
 42
1.0
  3
txt
  4
bigfont.shx
  0
ENDTAB
  0
TABLE
  2
LAYER
 70
    4
  0
LAYER
  2
_0-0_
 70
   64
 62
    7
  6
CONTINUOUS
  0
LAYER
  2
_0-1_
 70
   64
 62
    7
  6
CONTINUOUS
  0
LAYER
  2
_0-2_FRF74-0427
 70
   64
 62
    7
  6
CONTINUOUS
  0
LAYER
  2
ADD_LINE
 70
   64
 62
    7
  6
CONTINUOUS
  0
ENDTAB
  0
ENDSEC
  0
SECTION
  2
BLOCKS
  0
ENDSEC
  0
SECTION
  2
ENTITIES
  0
LINE
  8
_0-2_FRF74-0427
  6
CONTINUOUS
 62
    7
 10
2552.566283385414
 20
1056.1979530071658
 11
1577.5662833854144
 21
1056.1979530071658
  0
LINE
  8
_0-2_FRF74-0427
  6
CONTINUOUS
 62
    7
 10
2552.5662833856559
 20
2371.1979530071658
 11
1577.5662833856554
 21
2371.1979530071658
  0
LINE
  8
_0-2_FRF74-0427
  6
CONTINUOUS
 62
    7
 10
1577.5662833856554
 20
2371.1979530071658
 11
1577.5662833856554
 21
971.19795300716578
  0
LINE
  8
_0-2_FRF74-0427
  6
CONTINUOUS
 62
    7
 10
1577.5662833856554
 20
971.19795300716578
 11
2552.5662833856559
 21
971.19795300716578
  0
LINE
  8
_0-2_FRF74-0427
  6
CONTINUOUS
 62
    7
 10
2552.5662833856559
 20
971.19795300716578
 11
2552.5662833856559
 21
2371.1979530071658
  0
LINE
  8
_0-2_FRF74-0427
  6
CONTINUOUS
 62
    7
 10
2552.566283385414
 20
1098.6979530071658
 11
1577.5662833854144
 21
1098.6979530071658
  0
LINE
  8
_0-2_FRF74-0427
  6
CONTINUOUS
 62
    7
 10
2552.5662833856559
 20
1013.6979530071658
 11
2176.0662833856559
 21
1013.6979530071658
  0
LINE
  8
_0-2_FRF74-0427
  6
CONTINUOUS
 62
    7
 10
2427.066283385785
 20
1013.6979530071658
 11
2427.066283385785
 21
1056.1979530071658
  0
LINE
  8
_0-2_FRF74-0427
  6
CONTINUOUS
 62
    7
 10
2301.566283385785
 20
1013.6979530071658
 11
2301.566283385785
 21
1056.1979530071658
  0
LINE
  8
_0-2_FRF74-0427
  6
CONTINUOUS
 62
    7
 10
2176.066283385785
 20
971.19795300716578
 11
2176.066283385785
 21
1098.6979530071658
  0
TEXT
  8
_0-2_FRF74-0427
 62
    7
 10
2196.3388549397118
 20
983.13221232091132
 40
15
 41
1
 50
0
  1
大洋金物株式会社 ティーフォルム事業部
  0
TEXT
  8
_0-2_FRF74-0427
 62
    7
 10
1582.8750828572131
 20
1080.7343511503877
 40
11
 41
1
 50
0
  1
品名
  0
TEXT
  8
_0-2_FRF74-0427
 62
    7
 10
1584.6653190366922
 20
1037.1766457401898
 40
11
 41
1
 50
0
  1
仕様
  0
TEXT
  8
_0-2_FRF74-0427
 62
    7
 10
2183.0590642652819
 20
1080.1315954814579
 40
11
 41
1
 50
0
  1
品番
  0
TEXT
  8
_0-2_FRF74-0427
 62
    7
 10
2183.0568574992371
 20
1037.182349606808
 40
11
 41
1
 50
0
  1
重量
  0
TEXT
  8
_0-2_FRF74-0427
 62
    7
 10
2308.1776163454042
 20
1037.5114084130682
 40
11
 41
1
 50
0
  1
容量
  0
TEXT
  8
_0-2_FRF74-0427
 62
    7
 10
2433.6646030852935
 20
1037.4114153200876
 40
11
 41
1
 50
0
  1
縮尺
  0
TEXT
  8
_0-2_FRF74-0427
 62
    7
 10
1578.1476923649509
 20
947.26970852156592
 40
15
 41
1
 50
0
  1
120911S
  0
TEXT
  8
_0-2_FRF74-0427
 62
    7
 10
2211.5256034060785
 20
1065.334252852228
 40
15
 41
1
 50
0
  1
FRF74-0427
  0
LINE
  8
_0-1_
  6
CONTINUOUS
 62
    4
 10
1794.0265184473649
 20
1903.9625893495966
 11
2094.0265184473647
 21
1903.9625893495966
  0
POINT
  8
_0-1_
 62
    7
 10
1794.0265184473649
 20
1903.9625893495966
  0
POINT
  8
_0-1_
 62
    7
 10
2094.0265184473647
 20
1903.9625893495966
  0
LINE
  8
_0-1_
  6
CONTINUOUS
 62
    4
 10
1794.0265184473649
 20
1903.9625893495966
 11
1794.0265184473649
 21
1868.9625893495966
  0
LINE
  8
_0-1_
  6
CONTINUOUS
 62
    4
 10
2094.0265184473647
 20
1903.9625893495966
 11
2094.0265184473647
 21
1868.9625893495966
  0
TEXT
  8
_0-1_
 62
    4
 10
1934.6515184473649
 20
1906.4625893495966
 40
12.5
 41
1
 50
0
  1
300
  0
LINE
  8
_0-1_
  6
CONTINUOUS
 62
    4
 10
2395.9669496388765
 20
1853.9625893495966
 11
2395.9669496388765
 21
1793.9625893495968
  0
POINT
  8
_0-1_
 62
    7
 10
2395.9669496388765
 20
1853.9625893495966
  0
POINT
  8
_0-1_
 62
    7
 10
2395.9669496388765
 20
1793.9625893495968
  0
LINE
  8
_0-1_
  6
CONTINUOUS
 62
    4
 10
2395.9669496388765
 20
1853.9625893495966
 11
2360.9669496388765
 21
1853.9625893495966
  0
LINE
  8
_0-1_
  6
CONTINUOUS
 62
    4
 10
2395.9669496388765
 20
1793.9625893495968
 11
2360.9669496388765
 21
1793.9625893495968
  0
TEXT
  8
_0-1_
 62
    4
 10
2410.9669496388765
 20
1817.7125893495968
 40
12.5
 41
1
 50
90
  1
60
  0
TEXT
  8
_0-1_
 62
    4
 10
2411.0077499012723
 20
1805.0691754862712
 40
12.5
 41
1
 50
90
  1
φ
  0
LINE
  8
_0-1_
  6
CONTINUOUS
 62
    4
 10
2219.9669496388765
 20
1811.962596890156
 11
2219.9669496388765
 21
1835.9625930754587
  0
TEXT
  8
_0-1_
 62
    4
 10
2217.4669496388765
 20
1811.4625949828073
 40
12.5
 41
1
 50
90
  1
φ24
  0
POINT
  8
_0-1_
 62
    7
 10
2219.9669496388765
 20
1811.962596890156
  0
POINT
  8
_0-1_
 62
    7
 10
2219.9669496388765
 20
1835.9625930754587
  0
LINE
  8
_0-1_
  6
CONTINUOUS
 62
    4
 10
2266.9669496388765
 20
1811.962596890156
 11
2219.9669496388765
 21
1811.962596890156
  0
LINE
  8
_0-1_
  6
CONTINUOUS
 62
    4
 10
2266.9669496388765
 20
1835.9625930754587
 11
2219.9669496388765
 21
1835.9625930754587
  0
LINE
  8
_0-0_
  6
CONTINUOUS
 62
    7
 10
1785.0265184473647
 20
1605.2665274345466
 11
1785.0265184473647
 21
1538.2665274345463
  0
LINE
  8
_0-0_
  6
CONTINUOUS
 62
    7
 10
2064.0265184473647
 20
1606.2665274345466
 11
2064.0265184473647
 21
1614.2665274345468
  0
LINE
  8
_0-0_
  6
CONTINUOUS
 62
    7
 10
2124.0265184473647
 20
1614.2665274345468
 11
2124.0265184473647
 21
1606.2665274345466
  0
ARC
  8
_0-0_
  6
CONTINUOUS
 62
    7
 10
2065.0265184473647
 20
1606.2665274345466
 40
1
 50
180
 51
270
  0
ARC
  8
_0-0_
  6
CONTINUOUS
 62
    7
 10
2123.0265184473647
 20
1606.2665274345466
 40
1
 50
270
 51
0
  0
LINE
  8
_0-0_
  6
CONTINUOUS
 62
    7
 10
2064.0265184473647
 20
1614.2665274345468
 11
2124.0265184473647
 21
1614.2665274345468
  0
LINE
  8
_0-0_
  6
CONTINUOUS
 62
    7
 10
2065.0265184503878
 20
1605.2665274345466
 11
2123.0265184473647
 21
1605.2665274345466
  0
LINE
  8
_0-0_
  6
CONTINUOUS
 62
    7
 10
1764.0265184473647
 20
1606.2665274345466
 11
1764.0265184473647
 21
1614.2665274345468
  0
LINE
  8
_0-0_
  6
CONTINUOUS
 62
    7
 10
1824.0265184473647
 20
1614.2665274345468
 11
1824.0265184473647
 21
1606.2665274345466
  0
ARC
  8
_0-0_
  6
CONTINUOUS
 62
    7
 10
1765.0265184473647
 20
1606.2665274345466
 40
1
 50
180
 51
270
  0
ARC
  8
_0-0_
  6
CONTINUOUS
 62
    7
 10
1823.0265184473647
 20
1606.2665274345466
 40
1
 50
270
 51
0
  0
LINE
  8
_0-0_
  6
CONTINUOUS
 62
    7
 10
1764.0265184473647
 20
1614.2665274345468
 11
1824.0265184473647
 21
1614.2665274345468
  0
LINE
  8
_0-0_
  6
CONTINUOUS
 62
    7
 10
1765.026518450388
 20
1605.2665274345466
 11
1823.0265184473647
 21
1605.2665274345466
  0
LINE
  8
_0-0_
  6
CONTINUOUS
 62
    7
 10
1782.0265184473647
 20
1562.2665274345466
 11
1782.0265184473647
 21
1538.2665274345463
  0
LINE
  8
_0-0_
  6
CONTINUOUS
 62
    7
 10
1782.0265184473647
 20
1538.2665274345463
 11
2106.0265184473647
 21
1538.2665274345463
  0
LINE
  8
_0-0_
  6
CONTINUOUS
 62
    7
 10
2106.0265184473647
 20
1562.2665274345466
 11
2106.0265184473647
 21
1538.2665274345463
  0
LINE
  8
_0-0_
  6
CONTINUOUS
 62
    7
 10
2103.0265184473647
 20
1562.2665274345466
 11
2103.0265184473647
 21
1538.2665274345463
  0
LINE
  8
_0-0_
  6
CONTINUOUS
 62
    7
 10
2103.0265184473647
 20
1605.2665274345466
 11
2103.0265184473647
 21
1538.2665274345463
  0
LINE
  8
_0-0_
  6
CONTINUOUS
 62
    7
 10
1785.0265184473647
 20
1562.2665274345466
 11
1785.0265184473647
 21
1562.2665274345466
  0
LINE
  8
_0-0_
  6
CONTINUOUS
 62
    7
 10
1785.0265184473647
 20
1562.2665274345466
 11
1785.1632486702547
 21
1561.5632523149955
  0
LINE
  8
_0-0_
  6
CONTINUOUS
 62
    7
 10
1785.1632486702547
 20
1561.5632523149955
 11
1785.5692848602914
 21
1560.8813458540776
  0
LINE
  8
_0-0_
  6
CONTINUOUS
 62
    7
 10
1785.5692848602914
 20
1560.8813458540776
 11
1786.2322898133048
 21
1560.2415274345465
  0
LINE
  8
_0-0_
  6
CONTINUOUS
 62
    7
 10
1786.2322898133048
 20
1560.2415274345465
 11
1787.1321184592939
 21
1559.6632376153161
  0
LINE
  8
_0-0_
  6
CONTINUOUS
 62
    7
 10
1787.1321184592939
 20
1559.6632376153161
 11
1788.2414299601858
 21
1559.1640474399146
  0
LINE
  8
_0-0_
  6
CONTINUOUS
 62
    7
 10
1788.2414299601858
 20
1559.1640474399146
 11
1789.5265184473647
 21
1558.7591245492197
  0
LINE
  8
_0-0_
  6
CONTINUOUS
 62
    7
 10
1789.5265184473647
 20
1558.7591245492197
 11
1790.9483371574336
 21
1558.4607723203637
  0
LINE
  8
_0-0_
  6
CONTINUOUS
 62
    7
 10
1790.9483371574336
 20
1558.4607723203637
 11
1792.4636848483624
 21
1558.2780560348472
  0
LINE
  8
_0-0_
  6
CONTINUOUS
 62
    7
 10
1792.4636848483624
 20
1558.2780560348472
 11
1794.0265184473647
 21
1558.2165274345466
  0
LINE
  8
_0-0_
  6
CONTINUOUS
 62
    7
 10
1794.0265184473647
 20
1558.2165274345466
 11
1795.5893520463669
 21
1558.2780560348472
  0
LINE
  8
_0-0_
  6
CONTINUOUS
 62
    7
 10
1795.5893520463669
 20
1558.2780560348472
 11
1797.1046997372957
 21
1558.4607723203637
  0
LINE
  8
_0-0_
  6
CONTINUOUS
 62
    7
 10
1797.1046997372957
 20
1558.4607723203637
 11
1798.5265184473647
 21
1558.7591245492197
  0
LINE
  8
_0-0_
  6
CONTINUOUS
 62
    7
 10
1798.5265184473647
 20
1558.7591245492197
 11
1799.8116069345435
 21
1559.1640474399146
  0
LINE
  8
_0-0_
  6
CONTINUOUS
 62
    7
 10
1799.8116069345435
 20
1559.1640474399146
 11
1800.9209184354354
 21
1559.6632376153161
  0
LINE
  8
_0-0_
  6
CONTINUOUS
 62
    7
 10
1800.9209184354354
 20
1559.6632376153161
 11
1801.8207470814245
 21
1560.2415274345465
  0
LINE
  8
_0-0_
  6
CONTINUOUS
 62
    7
 10
1801.8207470814245
 20
1560.2415274345465
 11
1802.4837520344379
 21
1560.8813458540776
  0
LINE
  8
_0-0_
  6
CONTINUOUS
 62
    7
 10
1802.4837520344379
 20
1560.8813458540776
 11
1802.8897882244746
 21
1561.5632523149955
  0
LINE
  8
_0-0_
  6
CONTINUOUS
 62
    7
 10
1802.8897882244746
 20
1561.5632523149955
 11
1803.0265184473647
 21
1562.2665274345466
  0
LINE
  8
_0-0_
  6
CONTINUOUS
 62
    7
 10
1803.0265184473647
 20
1562.2665274345466
 11
1803.0265184473647
 21
1562.2665274345466
  0
LINE
  8
_0-0_
  6
CONTINUOUS
 62
    7
 10
1803.0265184473647
 20
1605.2665274345463
 11
1803.0265184473647
 21
1562.2665274345466
  0
LINE
  8
_0-0_
  6
CONTINUOUS
 62
    7
 10
1782.0265184473647
 20
1562.2665274345466
 11
1785.0265184473647
 21
1562.2665274345466
  0
LINE
  8
_0-0_
  6
CONTINUOUS
 62
    7
 10
2085.0265184473647
 20
1562.2665274345466
 11
2085.0265184473647
 21
1562.2665274345466
  0
LINE
  8
_0-0_
  6
CONTINUOUS
 62
    7
 10
2085.0265184473647
 20
1562.2665274345466
 11
2085.1632486702547
 21
1561.5632523149955
  0
LINE
  8
_0-0_
  6
CONTINUOUS
 62
    7
 10
2085.1632486702547
 20
1561.5632523149955
 11
2085.5692848602916
 21
1560.8813458540776
  0
LINE
  8
_0-0_
  6
CONTINUOUS
 62
    7
 10
2085.5692848602916
 20
1560.8813458540776
 11
2086.2322898133048
 21
1560.2415274345465
  0
LINE
  8
_0-0_
  6
CONTINUOUS
 62
    7
 10
2086.2322898133048
 20
1560.2415274345465
 11
2087.1321184592939
 21
1559.6632376153161
  0
LINE
  8
_0-0_
  6
CONTINUOUS
 62
    7
 10
2087.1321184592939
 20
1559.6632376153161
 11
2088.241429960186
 21
1559.1640474399146
  0
LINE
  8
_0-0_
  6
CONTINUOUS
 62
    7
 10
2088.241429960186
 20
1559.1640474399146
 11
2089.5265184473647
 21
1558.7591245492197
  0
LINE
  8
_0-0_
  6
CONTINUOUS
 62
    7
 10
2089.5265184473647
 20
1558.7591245492197
 11
2090.9483371574338
 21
1558.4607723203637
  0
LINE
  8
_0-0_
  6
CONTINUOUS
 62
    7
 10
2090.9483371574338
 20
1558.4607723203637
 11
2092.4636848483624
 21
1558.2780560348472
  0
LINE
  8
_0-0_
  6
CONTINUOUS
 62
    7
 10
2092.4636848483624
 20
1558.2780560348472
 11
2094.0265184473647
 21
1558.2165274345466
  0
LINE
  8
_0-0_
  6
CONTINUOUS
 62
    7
 10
2094.0265184473647
 20
1558.2165274345466
 11
2095.5893520463669
 21
1558.2780560348472
  0
LINE
  8
_0-0_
  6
CONTINUOUS
 62
    7
 10
2095.5893520463669
 20
1558.2780560348472
 11
2097.1046997372955
 21
1558.4607723203637
  0
LINE
  8
_0-0_
  6
CONTINUOUS
 62
    7
 10
2097.1046997372955
 20
1558.4607723203637
 11
2098.5265184473647
 21
1558.7591245492197
  0
LINE
  8
_0-0_
  6
CONTINUOUS
 62
    7
 10
2098.5265184473647
 20
1558.7591245492197
 11
2099.8116069345433
 21
1559.1640474399146
  0
LINE
  8
_0-0_
  6
CONTINUOUS
 62
    7
 10
2099.8116069345433
 20
1559.1640474399146
 11
2100.9209184354354
 21
1559.6632376153161
  0
LINE
  8
_0-0_
  6
CONTINUOUS
 62
    7
 10
2100.9209184354354
 20
1559.6632376153161
 11
2101.8207470814245
 21
1560.2415274345465
  0
LINE
  8
_0-0_
  6
CONTINUOUS
 62
    7
 10
2101.8207470814245
 20
1560.2415274345465
 11
2102.4837520344377
 21
1560.8813458540776
  0
LINE
  8
_0-0_
  6
CONTINUOUS
 62
    7
 10
2102.4837520344377
 20
1560.8813458540776
 11
2102.8897882244746
 21
1561.5632523149955
  0
LINE
  8
_0-0_
  6
CONTINUOUS
 62
    7
 10
2102.8897882244746
 20
1561.5632523149955
 11
2103.0265184473647
 21
1562.2665274345466
  0
LINE
  8
_0-0_
  6
CONTINUOUS
 62
    7
 10
2103.0265184473647
 20
1562.2665274345466
 11
2103.0265184473647
 21
1562.2665274345466
  0
LINE
  8
_0-0_
  6
CONTINUOUS
 62
    7
 10
2085.0265184473647
 20
1562.2665274345466
 11
2085.0265184473647
 21
1605.2665274345463
  0
LINE
  8
_0-0_
  6
CONTINUOUS
 62
    7
 10
1803.0265184473647
 20
1562.2665274345466
 11
2085.0265184473647
 21
1562.2665274345466
  0
LINE
  8
_0-0_
  6
CONTINUOUS
 62
    7
 10
2106.0265184473647
 20
1562.2665274345466
 11
2103.0265184473647
 21
1562.2665274345466
  0
LINE
  8
_0-0_
  6
CONTINUOUS
 62
    7
 10
1785.0265184473647
 20
1835.9625893495968
 11
1782.0265184473647
 21
1835.9625893495968
  0
LINE
  8
_0-0_
  6
CONTINUOUS
 62
    7
 10
1782.0265184473647
 20
1811.9625893495968
 11
1785.0265184473647
 21
1811.9625893495968
  0
LINE
  8
_0-0_
  6
CONTINUOUS
 62
    7
 10
2103.0265184473647
 20
1811.9625893495968
 11
2106.0265184473647
 21
1811.9625893495968
  0
LINE
  8
_0-0_
  6
CONTINUOUS
 62
    7
 10
2106.0265184473647
 20
1835.9625893495968
 11
2103.0265184473647
 21
1835.9625893495968
  0
LINE
  8
_0-0_
  6
CONTINUOUS
 62
    7
 10
1785.0265184473647
 20
1811.9625893495968
 11
2103.0265184473647
 21
1811.9625893495968
  0
LINE
  8
_0-0_
  6
CONTINUOUS
 62
    7
 10
2103.0265184473647
 20
1835.9625893495968
 11
1785.0265184473647
 21
1835.9625893495968
  0
ARC
  8
_0-0_
  6
CONTINUOUS
 62
    7
 10
2094.0265184473647
 20
1823.9625893495968
 40
29.999999999999957
 50
203.57817847820257
 51
270.00000000000074
  0
ARC
  8
_0-0_
  6
CONTINUOUS
 62
    7
 10
2094.0265184473647
 20
1823.9625893495968
 40
30
 50
270.00000000000068
 51
156.42182152179808
  0
ARC
  8
_0-0_
  6
CONTINUOUS
 62
    7
 10
1794.0265184473649
 20
1823.9625893495968
 40
29.999999999999979
 50
23.578178478201856
 51
270.00000000000074
  0
ARC
  8
_0-0_
  6
CONTINUOUS
 62
    7
 10
1794.0265184473649
 20
1823.9625893495968
 40
29.999999999999947
 50
270.00000000000068
 51
336.42182152179902
  0
LINE
  8
_0-0_
  6
CONTINUOUS
 62
    7
 10
1785.0265184473647
 20
1835.9625893495968
 11
1785.0265184473647
 21
1811.9625893495968
  0
LINE
  8
_0-0_
  6
CONTINUOUS
 62
    7
 10
1782.0265184473647
 20
1835.9625893495968
 11
1782.0265184473647
 21
1811.9625893495968
  0
LINE
  8
_0-0_
  6
CONTINUOUS
 62
    7
 10
2106.0265184473647
 20
1812.3788793260519
 11
2106.0265184473647
 21
1835.9625893495968
  0
LINE
  8
_0-0_
  6
CONTINUOUS
 62
    7
 10
2106.0265184473647
 20
1811.9625893495968
 11
2106.0265184473647
 21
1812.3788793260519
  0
LINE
  8
_0-0_
  6
CONTINUOUS
 62
    7
 10
2103.0265184473647
 20
1812.3788793260519
 11
2103.0265184473647
 21
1835.9625893495968
  0
LINE
  8
_0-0_
  6
CONTINUOUS
 62
    7
 10
2103.0265184473647
 20
1811.9625893495968
 11
2103.0265184473647
 21
1812.3788793260519
  0
LINE
  8
_0-0_
  6
CONTINUOUS
 62
    7
 10
2103.0265184473647
 20
1835.9625893495968
 11
2103.0265184473647
 21
1811.9625893495968
  0
ARC
  8
_0-0_
  6
CONTINUOUS
 62
    8
 10
1794.0265184473649
 20
1823.9625893495968
 40
29.000000000000004
 50
270.0000000000008
 51
335.55666457230353
  0
LINE
  8
_0-0_
  6
CONTINUOUS
 62
    7
 10
2337.9669496388765
 20
1853.9625893495966
 11
2345.9669496388765
 21
1853.9625893495966
  0
LINE
  8
_0-0_
  6
CONTINUOUS
 62
    7
 10
2345.9669496388765
 20
1793.9625893495968
 11
2337.9669496388765
 21
1793.9625893495968
  0
ARC
  8
_0-0_
  6
CONTINUOUS
 62
    7
 10
2337.9669496388765
 20
1852.9625893495968
 40
1
 50
90
 51
180
  0
ARC
  8
_0-0_
  6
CONTINUOUS
 62
    7
 10
2337.9669496388765
 20
1794.9625893495968
 40
1
 50
180
 51
270
  0
LINE
  8
_0-0_
  6
CONTINUOUS
 62
    7
 10
2336.9669496388765
 20
1814.9625893495966
 11
2289.9214368325188
 21
1814.9625893495966
  0
LINE
  8
_0-0_
  6
CONTINUOUS
 62
    7
 10
2289.9135345730442
 20
1832.9625893495968
 11
2336.9669496388765
 21
1832.9625893495968
  0
LINE
  8
_0-0_
  6
CONTINUOUS
 62
    7
 10
2345.9669496388765
 20
1853.9625893495966
 11
2345.9669496388765
 21
1793.9625893495968
  0
LINE
  8
_0-0_
  6
CONTINUOUS
 62
    7
 10
2336.9669496388765
 20
1852.9625893465734
 11
2336.9669496388765
 21
1794.9625893495968
  0
CIRCLE
  8
_0-0_
  6
CONTINUOUS
 62
    7
 10
2281.9669496388765
 20
1823.9625893495968
 40
12.000000000000002
  0
TEXT
  8
_0-2_FRF74-0427
 62
    7
 10
1614.6943364596746
 20
1066.3317848654224
 40
15
 41
1
 50
0
  1
グラブレール　-LANGBERGER,Nero-
  0
TEXT
  8
_0-0_
 62
    7
 10
1611.5588235294117
 20
1017.3529411764706
 40
15
 41
1
 50
0
  1
クローム
  0
LINE
  8
_0-1_
  6
CONTINUOUS
 62
    4
 10
1764.0265184473649
 20
1943.9625893495966
 11
2124.0265184473647
 21
1943.9625893495966
  0
POINT
  8
_0-1_
 62
    7
 10
1764.0265184473649
 20
1943.9625893495966
  0
POINT
  8
_0-1_
 62
    7
 10
2124.0265184473647
 20
1943.9625893495966
  0
TEXT
  8
_0-1_
 62
    4
 10
1934.6515184473649
 20
1946.4625893495966
 40
12.5
 41
1
 50
0
  1
360
  0
LINE
  8
_0-1_
  6
CONTINUOUS
 62
    4
 10
2124.0265184473647
 20
1943.9625893495966
 11
2124.0265184473647
 21
1838.9625893480852
  0
LINE
  8
_0-1_
  6
CONTINUOUS
 62
    4
 10
1764.0265184473649
 20
1943.9625893495966
 11
1764.0265184473649
 21
1838.9625893480852
  0
LINE
  8
_0-1_
  6
CONTINUOUS
 62
    4
 10
2174.0265184473647
 20
1538.2665274345463
 11
2174.0265184473647
 21
1614.2665274345468
  0
POINT
  8
_0-1_
 62
    7
 10
2174.0265184473647
 20
1538.2665274345463
  0
POINT
  8
_0-1_
 62
    7
 10
2174.0265184473647
 20
1614.2665274345468
  0
LINE
  8
_0-1_
  6
CONTINUOUS
 62
    4
 10
2174.0265184473647
 20
1614.2665274345468
 11
2139.0265184473647
 21
1614.2665274345468
  0
TEXT
  8
_0-1_
 62
    4
 10
2171.5265184473647
 20
1570.0165274345466
 40
12.5
 41
1
 50
90
  1
76
  0
LINE
  8
_0-1_
  6
CONTINUOUS
 62
    4
 10
2174.0265184473647
 20
1538.2665274345463
 11
2121.0265184473647
 21
1538.2665274345463
  0
ENDSEC
  0
EOF
