  0
SECTION
  2
HEADER
  9
$ACADVER
  1
AC1009
  9
$INSBASE
 10
0
 20
0
 30
0
  9
$EXTMIN
 10
0
 20
0
  9
$EXTMAX
 10
4205
 20
2970
  9
$LIMMIN
 10
0
 20
0
  9
$LIMMAX
 10
4205
 20
2970
  9
$LTSCALE
 40
5
  0
ENDSEC
  0
SECTION
  2
TABLES
  0
TABLE
  2
LTYPE
 70
     9
  0
LTYPE
  2
CONTINUOUS
 70
    64
  3
実線
 72
    65
 73
     0
 40
0.0
  0
LTYPE
  2
DASHED1
 70
    64
  3
--  --  --  --  --  --  --  --  
 72
    65
 73
     2
 40
2.5
 49
1.25
 49
-1.25
  0
LTYPE
  2
DASHED2
 70
    64
  3
----    ----    ----    ----    
 72
    65
 73
     2
 40
5.0
 49
2.5
 49
-2.5
  0
LTYPE
  2
DASHED3
 70
    64
  3
------  ------  ------  ------  
 72
    65
 73
     2
 40
5.0
 49
3.75
 49
-1.25
  0
LTYPE
  2
CENTER1
 70
    64
  3
----- - ----- - ----- - ----- - 
 72
    65
 73
     4
 40
10.0
 49
6.25
 49
-1.25
 49
1.25
 49
-1.25
  0
LTYPE
  2
CENTER2
 70
    64
  3
----------  --  ----------  --  
 72
    65
 73
     4
 40
20.0
 49
12.5
 49
-2.5
 49
2.5
 49
-2.5
  0
LTYPE
  2
PHANTOM1
 70
    64
  3
--- - - --- - - --- - - --- - - 
 72
    65
 73
     6
 40
10.0
 49
3.25
 49
-1.25
 49
1.25
 49
-1.25
 49
1.25
 49
-1.25
  0
LTYPE
  2
PHANTOM2
 70
    64
  3
--------  -  -  --------  -  -  
 72
    65
 73
     6
 40
20.0
 49
10.0
 49
-2.5
 49
1.25
 49
-2.5
 49
1.25
 49
-2.5
  0
LTYPE
  2
DOT
 70
    64
  3
-   -   -   -   -   -   -   -   
 72
    65
 73
     2
 40
2.5
 49
0.625
 49
-1.875
  0
LTYPE
  2
DUMMY
 70
    64
  3
ダミー
 72
    65
 73
     0
 40
0.0
  0
LTYPE
  2
RAND1
 70
    64
  3
ランダム線1
 72
    65
 73
     4
 40
10.0
 49
1.0
 49
-2.0
 49
3.0
 49
-4.0
  0
LTYPE
  2
RAND2
 70
    64
  3
ランダム線2
 72
    65
 73
     4
 40
14.0
 49
2.0
 49
-3.0
 49
4.0
 49
-5.0
  0
LTYPE
  2
RAND3
 70
    64
  3
ランダム線3
 72
    65
 73
     4
 40
18.0
 49
3.0
 49
-4.0
 49
5.0
 49
-6.0
  0
LTYPE
  2
RAND4
 70
    64
  3
ランダム線4
 72
    65
 73
     4
 40
22.0
 49
4.0
 49
-5.0
 49
6.0
 49
-7.0
  0
LTYPE
  2
RAND5
 70
    64
  3
ランダム線5
 72
    65
 73
     4
 40
26.0
 49
5.0
 49
-6.0
 49
7.0
 49
-8.0
  0
LTYPE
  2
LONG1
 70
    64
  3
----------  --  ----------  --  
 72
    65
 73
     4
 40
40.0
 49
32.5
 49
-2.5
 49
2.5
 49
-2.5
  0
LTYPE
  2
LONG2
 70
    64
  3
--------  -  -  --------  -  -  
 72
    65
 73
     6
 40
40.0
 49
30.0
 49
-2.5
 49
1.25
 49
-2.5
 49
1.25
 49
-2.5
  0
LTYPE
  2
LONG3
 70
    64
  3
+++++++++++++++..+++++++++++++++
 72
    65
 73
     2
 40
40.0
 49
37.5
 49
-2.5
  0
LTYPE
  2
LONG4
 70
    64
  3
+++++++++++++++..+++++++++++++++
 72
    65
 73
     2
 40
80.0
 49
75.0
 49
-5.0
  0
LTYPE
  2
LONG5
 70
    64
  3
----------  --  ----------  --  
 72
    65
 73
     4
 40
60.0
 49
37.5
 49
-7.5
 49
7.5
 49
-7.5
  0
LTYPE
  2
dashed
 70
   64
  3
-------   -------------   ------
 72
   65
 73
    2
 40
7.5
 49
6
 49
-1.5
  0
LTYPE
  2
dashed_spaced
 70
   64
  3
----        --------        ----
 72
   65
 73
    2
 40
12
 49
6
 49
-6
  0
LTYPE
  2
long_dashed_dotted
 70
   64
  3
------------- --- --------------
 72
   65
 73
    4
 40
15.25
 49
12
 49
-1.5
 49
0.25
 49
-1.5
  0
LTYPE
  2
long_dashed_double-dotted
 70
   64
  3
----------- --- --- ------------
 72
   65
 73
    6
 40
17
 49
12
 49
-1.5
 49
0.25
 49
-1.5
 49
0.25
 49
-1.5
  0
LTYPE
  2
long_dashed_triplicate-dotted
 70
   64
  3
--------- --- --- --- ----------
 72
   65
 73
    8
 40
18.75
 49
12
 49
-1.5
 49
0.25
 49
-1.5
 49
0.25
 49
-1.5
 49
0.25
 49
-1.5
  0
LTYPE
  2
dotted
 70
   64
  3
   -       -       -       -    
 72
   65
 73
    2
 40
1.75
 49
0.25
 49
-1.5
  0
LTYPE
  2
chain
 70
   64
  3
-------------- -- --------------
 72
   65
 73
    4
 40
18.5
 49
12
 49
-1.5
 49
3.5
 49
-1.5
  0
LTYPE
  2
chain_double_dash
 70
   64
  3
------------ -- -- -------------
 72
   65
 73
    6
 40
23.5
 49
12
 49
-1.5
 49
3.5
 49
-1.5
 49
3.5
 49
-1.5
  0
LTYPE
  2
dashed_dotted
 70
   64
  3
-----------     -     ----------
 72
   65
 73
    4
 40
9.25
 49
6
 49
-1.5
 49
0.25
 49
-1.5
  0
LTYPE
  2
double-dashed_dotted
 70
   64
  3
------   -----------   -   -----
 72
   65
 73
    6
 40
16.75
 49
6
 49
-1.5
 49
6
 49
-1.5
 49
0.25
 49
-1.5
  0
LTYPE
  2
dashed_double-dotted
 70
   64
  3
---------    -    -    ---------
 72
   65
 73
    6
 40
11
 49
6
 49
-1.5
 49
0.25
 49
-1.5
 49
0.25
 49
-1.5
  0
LTYPE
  2
double-dashed_double-dotted
 70
   64
  3
-----   ---------   -   -   ----
 72
   65
 73
    8
 40
18.5
 49
6
 49
-1.5
 49
6
 49
-1.5
 49
0.25
 49
-1.5
 49
0.25
 49
-1.5
  0
LTYPE
  2
dashed_triplicate-dotted
 70
   64
  3
-------    -    -    -    ------
 72
   65
 73
    8
 40
12.75
 49
6
 49
-1.5
 49
0.25
 49
-1.5
 49
0.25
 49
-1.5
 49
0.25
 49
-1.5
  0
LTYPE
  2
double-dashed_triplicate-dotted
 70
   64
  3
-----  ---------  -  -  -  -----
 72
   65
 73
   10
 40
20.25
 49
6
 49
-1.5
 49
6
 49
-1.5
 49
0.25
 49
-1.5
 49
0.25
 49
-1.5
 49
0.25
 49
-1.5
  0
LTYPE
  2
undefined
 70
   64
  3
--------------------------------
 72
   65
 73
    0
 40
0
  0
ENDTAB
  0
TABLE
  2
STYLE
  5
3
100
AcDbSymbolTable
 70
     1
  0
STYLE
  5
10
100
AcDbSymbolTableRecord
100
AcDbTextStyleTableRecord
  2
STANDARD
 70
     0
 40
0.0
 41
1.0
 50
0.0
 71
     0
 42
0.2
  3
txt
  4
bigfont.shx
  0
STYLE
  5
26
100
AcDbSymbolTableRecord
100
AcDbTextStyleTableRecord
  2
TATEGAKI
 70
    68
 40
0.0
 41
1.0
 50
0.0
 71
     0
 42
1.0
  3
txt
  4
bigfont.shx
  0
ENDTAB
  0
TABLE
  2
LAYER
 70
    4
  0
LAYER
  2
_0-0_FRF74-0501
 70
   64
 62
    7
  6
CONTINUOUS
  0
LAYER
  2
_0-1_
 70
   64
 62
    7
  6
CONTINUOUS
  0
LAYER
  2
_0-2_
 70
   64
 62
    7
  6
CONTINUOUS
  0
LAYER
  2
ADD_LINE
 70
   64
 62
    7
  6
CONTINUOUS
  0
ENDTAB
  0
ENDSEC
  0
SECTION
  2
BLOCKS
  0
ENDSEC
  0
SECTION
  2
ENTITIES
  0
LINE
  8
_0-2_
  6
CONTINUOUS
 62
    7
 10
2552.566283385414
 20
1056.1979530071658
 11
1577.5662833854144
 21
1056.1979530071658
  0
LINE
  8
_0-2_
  6
CONTINUOUS
 62
    7
 10
2552.5662833856559
 20
2371.1979530071658
 11
1577.5662833856554
 21
2371.1979530071658
  0
LINE
  8
_0-2_
  6
CONTINUOUS
 62
    7
 10
1577.5662833856554
 20
2371.1979530071658
 11
1577.5662833856554
 21
971.19795300716578
  0
LINE
  8
_0-2_
  6
CONTINUOUS
 62
    7
 10
1577.5662833856554
 20
971.19795300716578
 11
2552.5662833856559
 21
971.19795300716578
  0
LINE
  8
_0-2_
  6
CONTINUOUS
 62
    7
 10
2552.5662833856559
 20
971.19795300716578
 11
2552.5662833856559
 21
2371.1979530071658
  0
LINE
  8
_0-2_
  6
CONTINUOUS
 62
    7
 10
2552.566283385414
 20
1098.6979530071658
 11
1577.5662833854144
 21
1098.6979530071658
  0
LINE
  8
_0-2_
  6
CONTINUOUS
 62
    7
 10
2552.5662833856559
 20
1013.6979530071658
 11
2176.0662833856559
 21
1013.6979530071658
  0
LINE
  8
_0-2_
  6
CONTINUOUS
 62
    7
 10
2427.066283385785
 20
1013.6979530071658
 11
2427.066283385785
 21
1056.1979530071658
  0
LINE
  8
_0-2_
  6
CONTINUOUS
 62
    7
 10
2301.566283385785
 20
1013.6979530071658
 11
2301.566283385785
 21
1056.1979530071658
  0
LINE
  8
_0-2_
  6
CONTINUOUS
 62
    7
 10
2176.066283385785
 20
971.19795300716578
 11
2176.066283385785
 21
1098.6979530071658
  0
TEXT
  8
_0-2_
 62
    7
 10
2196.3388549397118
 20
983.13221232091132
 40
15
 41
1
 50
0
  1
大洋金物株式会社 ティーフォルム事業部
  0
TEXT
  8
_0-2_
 62
    7
 10
1582.8750828572131
 20
1080.7343511503877
 40
11
 41
1
 50
0
  1
品名
  0
TEXT
  8
_0-2_
 62
    7
 10
1584.6653190366922
 20
1037.1766457401898
 40
11
 41
1
 50
0
  1
仕様
  0
TEXT
  8
_0-2_
 62
    7
 10
2183.0590642652819
 20
1080.1315954814579
 40
11
 41
1
 50
0
  1
品番
  0
TEXT
  8
_0-2_
 62
    7
 10
2183.0568574992371
 20
1037.182349606808
 40
11
 41
1
 50
0
  1
重量
  0
TEXT
  8
_0-2_
 62
    7
 10
2308.1776163454042
 20
1037.5114084130682
 40
11
 41
1
 50
0
  1
容量
  0
TEXT
  8
_0-2_
 62
    7
 10
2433.6646030852935
 20
1037.4114153200876
 40
11
 41
1
 50
0
  1
縮尺
  0
TEXT
  8
_0-2_
 62
    7
 10
2211.5256034060785
 20
1065.334252852228
 40
15
 41
1
 50
0
  1
FRF74-0501
  0
TEXT
  8
_0-2_
 62
    7
 10
1578.1476923649509
 20
947.26970852156592
 40
15
 41
1
 50
0
  1
120912S
  0
LINE
  8
_0-1_
  6
CONTINUOUS
 62
    4
 10
2495.6013605856033
 20
1879.4438605951325
 11
2495.6013605856033
 21
1849.4438604507775
  0
POINT
  8
_0-1_
 62
    7
 10
2495.6013605856033
 20
1879.4438605951325
  0
POINT
  8
_0-1_
 62
    7
 10
2495.6013605856033
 20
1849.4438604507775
  0
LINE
  8
_0-1_
  6
CONTINUOUS
 62
    4
 10
2495.6013605856033
 20
1879.4438605951325
 11
2460.6013605856033
 21
1879.4438605951325
  0
LINE
  8
_0-1_
  6
CONTINUOUS
 62
    4
 10
2495.6013605856033
 20
1849.4438604507775
 11
2460.6013605856033
 21
1849.4438604507775
  0
TEXT
  8
_0-1_
 62
    4
 10
2493.1013605856033
 20
1858.193860522955
 40
12.5
 41
1
 50
90
  1
30
  0
LINE
  8
_0-1_
  6
CONTINUOUS
 62
    4
 10
2331.3513590845673
 20
1852.4438667297363
 11
2331.3513590845673
 21
1870.4438591003418
  0
TEXT
  8
_0-1_
 62
    4
 10
2328.8513590845673
 20
1848.9438629150391
 40
12.5
 41
1
 50
90
  1
φ18
  0
POINT
  8
_0-1_
 62
    7
 10
2331.3513590845673
 20
1852.4438667297363
  0
POINT
  8
_0-1_
 62
    7
 10
2331.3513590845673
 20
1870.4438591003418
  0
LINE
  8
_0-1_
  6
CONTINUOUS
 62
    4
 10
2375.3513590845673
 20
1852.4438667297363
 11
2331.3513590845673
 21
1852.4438667297363
  0
LINE
  8
_0-1_
  6
CONTINUOUS
 62
    4
 10
2375.3513590845673
 20
1870.4438591003418
 11
2331.3513590845673
 21
1870.4438591003418
  0
LINE
  8
_0-1_
  6
CONTINUOUS
 62
    4
 10
2247.980197840443
 20
1929.4438604560646
 11
1697.980197840443
 21
1929.4438604560646
  0
POINT
  8
_0-1_
 62
    7
 10
2247.980197840443
 20
1929.4438604560646
  0
POINT
  8
_0-1_
 62
    7
 10
1697.980197840443
 20
1929.4438604560646
  0
LINE
  8
_0-1_
  6
CONTINUOUS
 62
    4
 10
2247.980197840443
 20
1929.4438604560646
 11
2247.980197840443
 21
1899.4438604560646
  0
LINE
  8
_0-1_
  6
CONTINUOUS
 62
    4
 10
1697.980197840443
 20
1929.4438604560646
 11
1697.980197840443
 21
1899.4438604560646
  0
TEXT
  8
_0-1_
 62
    4
 10
1963.605197840443
 20
1931.9438604560646
 40
12.5
 41
1
 50
0
  1
550
  0
LINE
  8
_0-1_
  6
CONTINUOUS
 62
    4
 10
2333.9802030597843
 20
1546.8987037826696
 11
2298.9802030597843
 21
1546.8987037826696
  0
LINE
  8
_0-1_
  6
CONTINUOUS
 62
    4
 10
2333.9802030597843
 20
1546.8987037826696
 11
2333.9802030597843
 21
1482.8987020988382
  0
POINT
  8
_0-1_
 62
    7
 10
2333.9802030597843
 20
1546.8987037826696
  0
POINT
  8
_0-1_
 62
    7
 10
2333.9802030597843
 20
1482.8987020988382
  0
LINE
  8
_0-1_
  6
CONTINUOUS
 62
    4
 10
2333.9802030597843
 20
1546.8987037826696
 11
2298.9802030597843
 21
1546.8987037826696
  0
LINE
  8
_0-1_
  6
CONTINUOUS
 62
    4
 10
2333.9802030597843
 20
1482.8987020988382
 11
2298.9802030597843
 21
1482.8987020988382
  0
TEXT
  8
_0-1_
 62
    4
 10
2331.4802030597843
 20
1508.648702940754
 40
12.5
 41
1
 50
90
  1
64
  0
LINE
  8
_0-1_
  6
CONTINUOUS
 62
    4
 10
2211.9801912580647
 20
1596.8987037826696
 11
2283.9802030597843
 21
1596.8987037826696
  0
POINT
  8
_0-1_
 62
    7
 10
2211.9801912580647
 20
1596.8987037826696
  0
POINT
  8
_0-1_
 62
    7
 10
2283.9802030597843
 20
1596.8987037826696
  0
LINE
  8
_0-1_
  6
CONTINUOUS
 62
    4
 10
2211.9801912580647
 20
1596.8987037826696
 11
2211.9801912580647
 21
1561.8987037826696
  0
LINE
  8
_0-1_
  6
CONTINUOUS
 62
    4
 10
2283.9802030597843
 20
1596.8987037826696
 11
2283.9802030597843
 21
1561.8987037826696
  0
TEXT
  8
_0-1_
 62
    4
 10
2241.7301971589245
 20
1599.3987037826696
 40
12.5
 41
1
 50
0
  1
72
  0
LINE
  8
_0-1_
  6
CONTINUOUS
 62
    4
 10
2236.980197840443
 20
1571.8987037826696
 11
2258.980197840443
 21
1571.8987037826696
  0
POINT
  8
_0-1_
 62
    7
 10
2236.980197840443
 20
1571.8987037826696
  0
POINT
  8
_0-1_
 62
    7
 10
2258.980197840443
 20
1571.8987037826696
  0
LINE
  8
_0-1_
  6
CONTINUOUS
 62
    4
 10
2236.980197840443
 20
1571.8987037826696
 11
2236.980197840443
 21
1561.8987037826696
  0
LINE
  8
_0-1_
  6
CONTINUOUS
 62
    4
 10
2258.980197840443
 20
1571.8987037826696
 11
2258.980197840443
 21
1561.8987037826696
  0
TEXT
  8
_0-1_
 62
    4
 10
2241.730197840443
 20
1574.3987037826696
 40
12.5
 41
1
 50
0
  1
22
  0
LINE
  8
_0-0_FRF74-0501
  6
CONTINUOUS
 62
    7
 10
2281.980197840443
 20
1852.4438604560644
 11
2283.980197840443
 21
1852.4438604560644
  0
LINE
  8
_0-0_FRF74-0501
  6
CONTINUOUS
 62
    7
 10
2283.980197840443
 20
1870.4438604560642
 11
2281.980197840443
 21
1870.4438604560642
  0
LINE
  8
_0-0_FRF74-0501
  6
CONTINUOUS
 62
    7
 10
1663.9801978404432
 20
1870.4438604560644
 11
1661.980197840443
 21
1870.4438604560644
  0
LINE
  8
_0-0_FRF74-0501
  6
CONTINUOUS
 62
    7
 10
1661.980197840443
 20
1852.4438604560644
 11
1663.9801978404432
 21
1852.4438604560644
  0
LINE
  8
_0-0_FRF74-0501
  6
CONTINUOUS
 62
    7
 10
1663.9801978404432
 20
1852.4438604560644
 11
2281.980197840443
 21
1852.4438604560644
  0
LINE
  8
_0-0_FRF74-0501
  6
CONTINUOUS
 62
    7
 10
2281.980197840443
 20
1870.4438604560644
 11
1663.9801978404432
 21
1870.4438604560644
  0
LINE
  8
_0-0_FRF74-0501
  6
CONTINUOUS
 62
    7
 10
2283.980197840443
 20
1852.4438604560644
 11
2283.980197840443
 21
1870.4438604560642
  0
LINE
  8
_0-0_FRF74-0501
  6
CONTINUOUS
 62
    7
 10
2281.980197840443
 20
1852.4438604560644
 11
2281.980197840443
 21
1870.4438604560642
  0
LINE
  8
_0-0_FRF74-0501
  6
CONTINUOUS
 62
    7
 10
1663.9801978404432
 20
1870.4438604560644
 11
1663.9801978404432
 21
1852.4438604560644
  0
LINE
  8
_0-0_FRF74-0501
  6
CONTINUOUS
 62
    7
 10
1661.980197840443
 20
1870.4438604560644
 11
1661.980197840443
 21
1852.4438604560644
  0
LINE
  8
_0-0_FRF74-0501
  6
CONTINUOUS
 62
    7
 10
1661.980197840443
 20
1870.4438604560644
 11
1661.980197840443
 21
1876.3807612879225
  0
LINE
  8
_0-0_FRF74-0501
  6
CONTINUOUS
 62
    7
 10
1661.980197840443
 20
1877.4438604560644
 11
1661.980197840443
 21
1876.3807612879225
  0
ARC
  8
_0-0_FRF74-0501
  6
CONTINUOUS
 62
    7
 10
1663.9801978404432
 20
1877.4438604560644
 40
2
 50
90
 51
180
  0
LINE
  8
_0-0_FRF74-0501
  6
CONTINUOUS
 62
    7
 10
1661.980197840443
 20
1851.4438604560644
 11
1661.980197840443
 21
1852.4438604560644
  0
ARC
  8
_0-0_FRF74-0501
  6
CONTINUOUS
 62
    7
 10
1663.9801978404432
 20
1851.4438604560644
 40
2
 50
180
 51
270
  0
LINE
  8
_0-0_FRF74-0501
  6
CONTINUOUS
 62
    7
 10
1731.980197840443
 20
1879.4438604560642
 11
1663.9801978404432
 21
1879.4438604560642
  0
LINE
  8
_0-0_FRF74-0501
  6
CONTINUOUS
 62
    7
 10
1733.9801978404432
 20
1877.4438604560644
 11
1733.9801978404432
 21
1870.4438604560644
  0
ARC
  8
_0-0_FRF74-0501
  6
CONTINUOUS
 62
    7
 10
1731.980197840443
 20
1877.4438604560644
 40
2
 50
0
 51
90
  0
LINE
  8
_0-0_FRF74-0501
  6
CONTINUOUS
 62
    7
 10
1733.9801978404432
 20
1851.4438604560644
 11
1733.9801978404432
 21
1852.4438604560644
  0
LINE
  8
_0-0_FRF74-0501
  6
CONTINUOUS
 62
    7
 10
1731.980197840443
 20
1849.4438604560646
 11
1663.9801978404432
 21
1849.4438604560646
  0
ARC
  8
_0-0_FRF74-0501
  6
CONTINUOUS
 62
    7
 10
1731.980197840443
 20
1851.4438604560644
 40
2
 50
270
 51
0.0000000000040583
  0
LINE
  8
_0-0_FRF74-0501
  6
CONTINUOUS
 62
    7
 10
2211.980197840443
 20
1877.4438604560644
 11
2211.980197840443
 21
1870.4438604560644
  0
ARC
  8
_0-0_FRF74-0501
  6
CONTINUOUS
 62
    7
 10
2213.980197840443
 20
1877.4438604560644
 40
2
 50
90
 51
180
  0
LINE
  8
_0-0_FRF74-0501
  6
CONTINUOUS
 62
    7
 10
2211.980197840443
 20
1851.4438604560644
 11
2211.980197840443
 21
1852.4438604560644
  0
ARC
  8
_0-0_FRF74-0501
  6
CONTINUOUS
 62
    7
 10
2213.980197840443
 20
1851.4438604560644
 40
2
 50
180
 51
270
  0
LINE
  8
_0-0_FRF74-0501
  6
CONTINUOUS
 62
    7
 10
2281.9801978404435
 20
1879.4438604560646
 11
2213.980197840443
 21
1879.4438604560646
  0
LINE
  8
_0-0_FRF74-0501
  6
CONTINUOUS
 62
    7
 10
2283.980197840443
 20
1877.4438604560644
 11
2283.980197840443
 21
1870.4438604560642
  0
ARC
  8
_0-0_FRF74-0501
  6
CONTINUOUS
 62
    7
 10
2281.9801978404435
 20
1877.4438604560644
 40
2
 50
0
 51
90
  0
LINE
  8
_0-0_FRF74-0501
  6
CONTINUOUS
 62
    7
 10
2281.9801978404435
 20
1849.4438604560646
 11
2213.980197840443
 21
1849.4438604560646
  0
LINE
  8
_0-0_FRF74-0501
  6
CONTINUOUS
 62
    7
 10
2283.980197840443
 20
1851.4438604560644
 11
2283.980197840443
 21
1852.4438604560644
  0
ARC
  8
_0-0_FRF74-0501
  6
CONTINUOUS
 62
    7
 10
2281.9801978404435
 20
1851.4438604560644
 40
2
 50
270
 51
0
  0
LINE
  8
_0-0_FRF74-0501
  6
CONTINUOUS
 62
    7
 10
2212.4801997219247
 20
1536.6487016369024
 11
2283.480209497086
 21
1536.6487016369024
  0
ARC
  8
_0-0_FRF74-0501
  6
CONTINUOUS
 62
    7
 10
2283.480197840443
 20
1537.1487022816336
 40
0.5000000000000851
 50
270
 51
0.0000000000114245
  0
ARC
  8
_0-0_FRF74-0501
  6
CONTINUOUS
 62
    7
 10
2212.480197840443
 20
1537.1487022816336
 40
0.4999999999999857
 50
179.9999999999886
 51
270
  0
LINE
  8
_0-0_FRF74-0501
  6
CONTINUOUS
 62
    7
 10
1662.4801878009953
 20
1536.6487016369024
 11
1733.480197576157
 21
1536.6487016369024
  0
ARC
  8
_0-0_FRF74-0501
  6
CONTINUOUS
 62
    7
 10
1733.480197840443
 20
1537.1487022816336
 40
0.4999999999999857
 50
270
 51
0.0000000000114245
  0
ARC
  8
_0-0_FRF74-0501
  6
CONTINUOUS
 62
    7
 10
1662.4801978404432
 20
1537.1487022816336
 40
0.4999999999999857
 50
179.9999999999886
 51
270
  0
LINE
  8
_0-0_FRF74-0501
  6
CONTINUOUS
 62
    7
 10
2283.9802030597843
 20
1546.8987037826696
 11
2283.9802030597843
 21
1537.3366770733512
  0
LINE
  8
_0-0_FRF74-0501
  6
CONTINUOUS
 62
    7
 10
2281.9801990066685
 20
1546.8987037826696
 11
2283.9802030597843
 21
1546.8987037826696
  0
LINE
  8
_0-0_FRF74-0501
  6
CONTINUOUS
 62
    7
 10
2281.9801990066685
 20
1546.8987037826696
 11
2213.9801953111805
 21
1546.8987037826696
  0
LINE
  8
_0-0_FRF74-0501
  6
CONTINUOUS
 62
    7
 10
2211.9801912580647
 20
1537.3366770733512
 11
2211.9801912580647
 21
1546.8987037826696
  0
LINE
  8
_0-0_FRF74-0501
  6
CONTINUOUS
 62
    7
 10
2211.9801912580647
 20
1546.8987037826696
 11
2213.9801953111805
 21
1546.8987037826696
  0
LINE
  8
_0-0_FRF74-0501
  6
CONTINUOUS
 62
    7
 10
2283.9802030597843
 20
1537.3366770733512
 11
2283.9802030597843
 21
1537.1487026501813
  0
LINE
  8
_0-0_FRF74-0501
  6
CONTINUOUS
 62
    7
 10
2211.9801912580647
 20
1537.1487026501813
 11
2211.9801912580647
 21
1537.3366770733512
  0
LINE
  8
_0-0_FRF74-0501
  6
CONTINUOUS
 62
    7
 10
1733.9801911388554
 20
1546.8987037826696
 11
1733.9801911388554
 21
1537.3366770733512
  0
LINE
  8
_0-0_FRF74-0501
  6
CONTINUOUS
 62
    7
 10
1731.9801870857395
 20
1546.8987037826696
 11
1733.9801911388554
 21
1546.8987037826696
  0
LINE
  8
_0-0_FRF74-0501
  6
CONTINUOUS
 62
    7
 10
1731.9801870857395
 20
1546.8987037826696
 11
1663.9801982914128
 21
1546.8987037826696
  0
LINE
  8
_0-0_FRF74-0501
  6
CONTINUOUS
 62
    7
 10
1661.9801942382969
 20
1537.3366770733512
 11
1661.9801942382969
 21
1546.8987037826696
  0
LINE
  8
_0-0_FRF74-0501
  6
CONTINUOUS
 62
    7
 10
1661.9801942382969
 20
1546.8987037826696
 11
1663.9801982914128
 21
1546.8987037826696
  0
LINE
  8
_0-0_FRF74-0501
  6
CONTINUOUS
 62
    7
 10
1733.9801911388554
 20
1537.3366770733512
 11
1733.9801911388554
 21
1537.1487026501813
  0
LINE
  8
_0-0_FRF74-0501
  6
CONTINUOUS
 62
    7
 10
1661.9801942382969
 20
1537.1487026501813
 11
1661.9801942382969
 21
1537.3366770733512
  0
LINE
  8
_0-0_FRF74-0501
  6
CONTINUOUS
 62
    7
 10
1708.9801851783909
 20
1536.6487016369024
 11
1686.9802001987614
 21
1536.6487016369024
  0
LINE
  8
_0-0_FRF74-0501
  6
CONTINUOUS
 62
    7
 10
2258.9801970993199
 20
1536.6487016369024
 11
2236.9802121196903
 21
1536.6487016369024
  0
LINE
  8
_0-0_FRF74-0501
  6

 62
    7
 10
1697.980197840443
 20
1493.1487022816332
 11
1697.980197840443
 21
1543.6487022816334
  0
LINE
  8
_0-0_FRF74-0501
  6
CONTINUOUS
 62
    7
 10
2281.9801990066685
 20
1482.8987020988382
 11
2283.9802030597843
 21
1482.8987020988382
  0
LINE
  8
_0-0_FRF74-0501
  6
CONTINUOUS
 62
    7
 10
2283.9802030597843
 20
1500.8987022553003
 11
2281.9801990066685
 21
1500.8987022553003
  0
LINE
  8
_0-0_FRF74-0501
  6
CONTINUOUS
 62
    7
 10
1663.9801982914128
 20
1500.8987022553003
 11
1661.9801942382969
 21
1500.8987022553003
  0
LINE
  8
_0-0_FRF74-0501
  6
CONTINUOUS
 62
    7
 10
1661.9801942382969
 20
1482.8987020988382
 11
1663.9801982914128
 21
1482.8987020988382
  0
LINE
  8
_0-0_FRF74-0501
  6
CONTINUOUS
 62
    7
 10
1663.9801982914128
 20
1482.8987020988382
 11
2281.9801990066685
 21
1482.8987020988382
  0
LINE
  8
_0-0_FRF74-0501
  6
CONTINUOUS
 62
    7
 10
2281.9801990066685
 20
1500.8987022553003
 11
2258.9801970993199
 21
1500.8987022553003
  0
LINE
  8
_0-0_FRF74-0501
  6
CONTINUOUS
 62
    7
 10
2236.9802121196903
 20
1500.8987022553003
 11
1708.9801851783909
 21
1500.8987022553003
  0
LINE
  8
_0-0_FRF74-0501
  6
CONTINUOUS
 62
    7
 10
1686.9802001987614
 20
1500.8987022553003
 11
1663.9801982914128
 21
1500.8987022553003
  0
LINE
  8
_0-0_FRF74-0501
  6
CONTINUOUS
 62
    7
 10
2281.9801990066685
 20
1493.2844766404844
 11
2281.9801990066685
 21
1500.8987022553003
  0
LINE
  8
_0-0_FRF74-0501
  6
CONTINUOUS
 62
    7
 10
2281.9801990066685
 20
1482.8987020988382
 11
2281.9801990066685
 21
1493.2844766404844
  0
LINE
  8
_0-0_FRF74-0501
  6
CONTINUOUS
 62
    7
 10
2283.9802030597843
 20
1493.2844766404844
 11
2283.9802030597843
 21
1500.8987022553003
  0
LINE
  8
_0-0_FRF74-0501
  6
CONTINUOUS
 62
    7
 10
2283.9802030597843
 20
1482.8987020988382
 11
2283.9802030597843
 21
1493.2844766404844
  0
LINE
  8
_0-0_FRF74-0501
  6
CONTINUOUS
 62
    7
 10
1663.9801982914128
 20
1499.5883723710097
 11
1663.9801982914128
 21
1482.8987020988382
  0
LINE
  8
_0-0_FRF74-0501
  6
CONTINUOUS
 62
    7
 10
1663.9801982914128
 20
1500.8987022553003
 11
1663.9801982914128
 21
1499.5883723710097
  0
LINE
  8
_0-0_FRF74-0501
  6
CONTINUOUS
 62
    7
 10
1661.9801942382969
 20
1499.5883723710097
 11
1661.9801942382969
 21
1482.8987020988382
  0
LINE
  8
_0-0_FRF74-0501
  6
CONTINUOUS
 62
    7
 10
1661.9801942382969
 20
1500.8987022553003
 11
1661.9801942382969
 21
1499.5883723710097
  0
LINE
  8
_0-0_FRF74-0501
  6
CONTINUOUS
 62
    7
 10
1708.9801851783909
 20
1500.398702173344
 11
1686.9802001987614
 21
1500.398702173344
  0
LINE
  8
_0-0_FRF74-0501
  6
CONTINUOUS
 62
    7
 10
2258.9801970993199
 20
1500.398702173344
 11
2236.9802121196903
 21
1500.398702173344
  0
LINE
  8
_0-0_FRF74-0501
  6
CONTINUOUS
 62
    7
 10
2281.9801990066685
 20
1500.8987022553003
 11
2281.9801990066685
 21
1482.8987020988382
  0
LINE
  8
_0-0_FRF74-0501
  6
CONTINUOUS
 62
    7
 10
1663.9801982914128
 20
1500.8987022553003
 11
1663.9801982914128
 21
1482.8987020988382
  0
LINE
  8
_0-0_FRF74-0501
  6
CONTINUOUS
 62
    7
 10
1708.9801851783909
 20
1500.398702173344
 11
1708.9801851783909
 21
1536.6487016369024
  0
LINE
  8
_0-0_FRF74-0501
  6
CONTINUOUS
 62
    7
 10
1686.9802001987614
 20
1500.398702173344
 11
1686.9802001987614
 21
1536.6487016369024
  0
LINE
  8
_0-0_FRF74-0501
  6
CONTINUOUS
 62
    7
 10
2236.9802121196903
 20
1500.398702173344
 11
2236.9802121196903
 21
1536.6487016369024
  0
LINE
  8
_0-0_FRF74-0501
  6
CONTINUOUS
 62
    7
 10
2258.9801970993199
 20
1500.398702173344
 11
2258.9801970993199
 21
1536.6487016369024
  0
LINE
  8
_0-0_FRF74-0501
  6
CONTINUOUS
 62
    7
 10
2398.8513589762779
 20
1858.4858206855313
 11
2398.8513589762779
 21
1858.4438608782546
  0
LINE
  8
_0-0_FRF74-0501
  6
CONTINUOUS
 62
    7
 10
2398.8513589762779
 20
1864.443859999086
 11
2398.8513589762779
 21
1864.4019001918093
  0
LINE
  8
_0-0_FRF74-0501
  6
CONTINUOUS
 62
    7
 10
2398.8513589762779
 20
1864.443859999086
 11
2435.3513584398361
 21
1864.443859999086
  0
LINE
  8
_0-0_FRF74-0501
  6
CONTINUOUS
 62
    7
 10
2435.3513584398361
 20
1864.443859999086
 11
2435.3513584398361
 21
1858.4438608782546
  0
LINE
  8
_0-0_FRF74-0501
  6
CONTINUOUS
 62
    7
 10
2398.8513589762779
 20
1858.4438608782546
 11
2435.3513584398361
 21
1858.4438608782546
  0
ARC
  8
_0-0_FRF74-0501
  6
CONTINUOUS
 62
    7
 10
2885.4763590845678
 20
1864.4438604560646
 40
450.12499999999989
 50
178.34317720413415
 51
181.65682279586511
  0
ARC
  8
_0-0_FRF74-0501
  6
CONTINUOUS
 62
    7
 10
2436.085225855395
 20
1849.9438604560644
 40
0.4999999999999857
 50
181.84805754651134
 51
270.00000000001143
  0
LINE
  8
_0-0_FRF74-0501
  6
CONTINUOUS
 62
    7
 10
2435.5395850810278
 20
1877.4598063423971
 11
2435.5395414792629
 21
1877.4583162563101
  0
LINE
  8
_0-0_FRF74-0501
  6
CONTINUOUS
 62
    7
 10
2435.54791340169
 20
1877.7425116520701
 11
2435.5395850810278
 21
1877.4598063423971
  0
ARC
  8
_0-0_FRF74-0501
  6
CONTINUOUS
 62
    7
 10
2921.8981112608426
 20
1863.4149406328152
 40
486.56119270750361
 50
178.2499231391038
 51
178.3125903913859
  0
ARC
  8
_0-0_FRF74-0501
  6
CONTINUOUS
 62
    7
 10
2771.7799158051239
 20
1868.0016678932577
 40
336.37294192255376
 50
178.15927539103882
 51
178.24992313909868
  0
LINE
  8
_0-0_FRF74-0501
  6
CONTINUOUS
 62
    7
 10
2435.5854854845138
 20
1878.9599845009104
 11
2435.5805484437365
 21
1878.8063633279576
  0
ARC
  8
_0-0_FRF74-0501
  6
CONTINUOUS
 62
    7
 10
2436.085225855395
 20
1878.9438604560644
 40
0.4999999999999654
 50
90
 51
178.15194245347735
  0
LINE
  8
_0-0_FRF74-0501
  6
CONTINUOUS
 62
    7
 10
2445.6013605856033
 20
1849.4438604507775
 11
2445.6013605856033
 21
1851.4438604293571
  0
LINE
  8
_0-0_FRF74-0501
  6
CONTINUOUS
 62
    7
 10
2436.0852257274719
 20
1849.4438604507775
 11
2445.6013605856033
 21
1849.4438604507775
  0
LINE
  8
_0-0_FRF74-0501
  6
CONTINUOUS
 62
    7
 10
2445.6013605856033
 20
1879.4438605951325
 11
2436.0852257274719
 21
1879.4438605951325
  0
LINE
  8
_0-0_FRF74-0501
  6
CONTINUOUS
 62
    7
 10
2445.6013605856033
 20
1877.4438602673069
 11
2445.6013605856033
 21
1879.4438605951325
  0
CIRCLE
  8
_0-0_FRF74-0501
  6
CONTINUOUS
 62
    7
 10
2390.3513590845673
 20
1861.4438604560644
 40
9.0000000000001421
  0
LINE
  8
_0-0_FRF74-0501
  6
CONTINUOUS
 62
    7
 10
2435.3513584398361
 20
1863.4438607664958
 11
2435.352468576345
 21
1863.4438607664958
  0
LINE
  8
_0-0_FRF74-0501
  6
CONTINUOUS
 62
    7
 10
2435.3791304790111
 20
1859.4438601108448
 11
2435.3513584398361
 21
1859.4438601108448
  0
LINE
  8
_0-0_FRF74-0501
  6
CONTINUOUS
 62
    7
 10
2445.6013605856033
 20
1877.4438602673069
 11
2445.6013605856033
 21
1851.4438604293571
  0
LINE
  8
_0-0_FRF74-0501
  6
CONTINUOUS
 62
    7
 10
2435.5395418010398
 20
1851.4294039645501
 11
2435.5854859240862
 21
1849.9277359078296
  0
TEXT
  8
_0-2_
 62
    7
 10
1614.6943364596746
 20
1066.3317848654224
 40
15
 41
1
 50
0
  1
タオルバー　-LANGBERGER,Alster-
  0
TEXT
  8
_0-0_FRF74-0501
 62
    7
 10
1613.1117647058823
 20
1021.5882352941176
 40
15
 41
1
 50
0
  1
クローム
  0
LINE
  8
_0-1_
  6
CONTINUOUS
 62
    4
 10
1661.980197840443
 20
1969.4438604560646
 11
2283.980197840443
 21
1969.4438604560646
  0
POINT
  8
_0-1_
 62
    7
 10
1661.980197840443
 20
1969.4438604560646
  0
POINT
  8
_0-1_
 62
    7
 10
2283.980197840443
 20
1969.4438604560646
  0
TEXT
  8
_0-1_
 62
    4
 10
1963.605197840443
 20
1971.9438604560646
 40
12.5
 41
1
 50
0
  1
622
  0
LINE
  8
_0-1_
  6
CONTINUOUS
 62
    4
 10
2283.980197840443
 20
1969.4438604560646
 11
2283.980197840443
 21
1892.4438604560644
  0
LINE
  8
_0-1_
  6
CONTINUOUS
 62
    4
 10
1661.980197840443
 20
1969.4438604560646
 11
1661.980197840443
 21
1891.3807612879225
  0
ENDSEC
  0
EOF
