  0
SECTION
  2
HEADER
  9
$ACADVER
  1
AC1009
  9
$INSBASE
 10
0
 20
0
 30
0
  9
$EXTMIN
 10
0
 20
0
  9
$EXTMAX
 10
4205
 20
2970
  9
$LIMMIN
 10
0
 20
0
  9
$LIMMAX
 10
4205
 20
2970
  9
$LTSCALE
 40
5
  0
ENDSEC
  0
SECTION
  2
TABLES
  0
TABLE
  2
LTYPE
 70
     9
  0
LTYPE
  2
CONTINUOUS
 70
    64
  3
実線
 72
    65
 73
     0
 40
0.0
  0
LTYPE
  2
DASHED1
 70
    64
  3
--  --  --  --  --  --  --  --  
 72
    65
 73
     2
 40
2.5
 49
1.25
 49
-1.25
  0
LTYPE
  2
DASHED2
 70
    64
  3
----    ----    ----    ----    
 72
    65
 73
     2
 40
5.0
 49
2.5
 49
-2.5
  0
LTYPE
  2
DASHED3
 70
    64
  3
------  ------  ------  ------  
 72
    65
 73
     2
 40
5.0
 49
3.75
 49
-1.25
  0
LTYPE
  2
CENTER1
 70
    64
  3
----- - ----- - ----- - ----- - 
 72
    65
 73
     4
 40
10.0
 49
6.25
 49
-1.25
 49
1.25
 49
-1.25
  0
LTYPE
  2
CENTER2
 70
    64
  3
----------  --  ----------  --  
 72
    65
 73
     4
 40
20.0
 49
12.5
 49
-2.5
 49
2.5
 49
-2.5
  0
LTYPE
  2
PHANTOM1
 70
    64
  3
--- - - --- - - --- - - --- - - 
 72
    65
 73
     6
 40
10.0
 49
3.25
 49
-1.25
 49
1.25
 49
-1.25
 49
1.25
 49
-1.25
  0
LTYPE
  2
PHANTOM2
 70
    64
  3
--------  -  -  --------  -  -  
 72
    65
 73
     6
 40
20.0
 49
10.0
 49
-2.5
 49
1.25
 49
-2.5
 49
1.25
 49
-2.5
  0
LTYPE
  2
DOT
 70
    64
  3
-   -   -   -   -   -   -   -   
 72
    65
 73
     2
 40
2.5
 49
0.625
 49
-1.875
  0
LTYPE
  2
DUMMY
 70
    64
  3
ダミー
 72
    65
 73
     0
 40
0.0
  0
LTYPE
  2
RAND1
 70
    64
  3
ランダム線1
 72
    65
 73
     4
 40
10.0
 49
1.0
 49
-2.0
 49
3.0
 49
-4.0
  0
LTYPE
  2
RAND2
 70
    64
  3
ランダム線2
 72
    65
 73
     4
 40
14.0
 49
2.0
 49
-3.0
 49
4.0
 49
-5.0
  0
LTYPE
  2
RAND3
 70
    64
  3
ランダム線3
 72
    65
 73
     4
 40
18.0
 49
3.0
 49
-4.0
 49
5.0
 49
-6.0
  0
LTYPE
  2
RAND4
 70
    64
  3
ランダム線4
 72
    65
 73
     4
 40
22.0
 49
4.0
 49
-5.0
 49
6.0
 49
-7.0
  0
LTYPE
  2
RAND5
 70
    64
  3
ランダム線5
 72
    65
 73
     4
 40
26.0
 49
5.0
 49
-6.0
 49
7.0
 49
-8.0
  0
LTYPE
  2
LONG1
 70
    64
  3
----------  --  ----------  --  
 72
    65
 73
     4
 40
40.0
 49
32.5
 49
-2.5
 49
2.5
 49
-2.5
  0
LTYPE
  2
LONG2
 70
    64
  3
--------  -  -  --------  -  -  
 72
    65
 73
     6
 40
40.0
 49
30.0
 49
-2.5
 49
1.25
 49
-2.5
 49
1.25
 49
-2.5
  0
LTYPE
  2
LONG3
 70
    64
  3
+++++++++++++++..+++++++++++++++
 72
    65
 73
     2
 40
40.0
 49
37.5
 49
-2.5
  0
LTYPE
  2
LONG4
 70
    64
  3
+++++++++++++++..+++++++++++++++
 72
    65
 73
     2
 40
80.0
 49
75.0
 49
-5.0
  0
LTYPE
  2
LONG5
 70
    64
  3
----------  --  ----------  --  
 72
    65
 73
     4
 40
60.0
 49
37.5
 49
-7.5
 49
7.5
 49
-7.5
  0
LTYPE
  2
dashed
 70
   64
  3
-------   -------------   ------
 72
   65
 73
    2
 40
7.5
 49
6
 49
-1.5
  0
LTYPE
  2
dashed_spaced
 70
   64
  3
----        --------        ----
 72
   65
 73
    2
 40
12
 49
6
 49
-6
  0
LTYPE
  2
long_dashed_dotted
 70
   64
  3
------------- --- --------------
 72
   65
 73
    4
 40
15.25
 49
12
 49
-1.5
 49
0.25
 49
-1.5
  0
LTYPE
  2
long_dashed_double-dotted
 70
   64
  3
----------- --- --- ------------
 72
   65
 73
    6
 40
17
 49
12
 49
-1.5
 49
0.25
 49
-1.5
 49
0.25
 49
-1.5
  0
LTYPE
  2
long_dashed_triplicate-dotted
 70
   64
  3
--------- --- --- --- ----------
 72
   65
 73
    8
 40
18.75
 49
12
 49
-1.5
 49
0.25
 49
-1.5
 49
0.25
 49
-1.5
 49
0.25
 49
-1.5
  0
LTYPE
  2
dotted
 70
   64
  3
   -       -       -       -    
 72
   65
 73
    2
 40
1.75
 49
0.25
 49
-1.5
  0
LTYPE
  2
chain
 70
   64
  3
-------------- -- --------------
 72
   65
 73
    4
 40
18.5
 49
12
 49
-1.5
 49
3.5
 49
-1.5
  0
LTYPE
  2
chain_double_dash
 70
   64
  3
------------ -- -- -------------
 72
   65
 73
    6
 40
23.5
 49
12
 49
-1.5
 49
3.5
 49
-1.5
 49
3.5
 49
-1.5
  0
LTYPE
  2
dashed_dotted
 70
   64
  3
-----------     -     ----------
 72
   65
 73
    4
 40
9.25
 49
6
 49
-1.5
 49
0.25
 49
-1.5
  0
LTYPE
  2
double-dashed_dotted
 70
   64
  3
------   -----------   -   -----
 72
   65
 73
    6
 40
16.75
 49
6
 49
-1.5
 49
6
 49
-1.5
 49
0.25
 49
-1.5
  0
LTYPE
  2
dashed_double-dotted
 70
   64
  3
---------    -    -    ---------
 72
   65
 73
    6
 40
11
 49
6
 49
-1.5
 49
0.25
 49
-1.5
 49
0.25
 49
-1.5
  0
LTYPE
  2
double-dashed_double-dotted
 70
   64
  3
-----   ---------   -   -   ----
 72
   65
 73
    8
 40
18.5
 49
6
 49
-1.5
 49
6
 49
-1.5
 49
0.25
 49
-1.5
 49
0.25
 49
-1.5
  0
LTYPE
  2
dashed_triplicate-dotted
 70
   64
  3
-------    -    -    -    ------
 72
   65
 73
    8
 40
12.75
 49
6
 49
-1.5
 49
0.25
 49
-1.5
 49
0.25
 49
-1.5
 49
0.25
 49
-1.5
  0
LTYPE
  2
double-dashed_triplicate-dotted
 70
   64
  3
-----  ---------  -  -  -  -----
 72
   65
 73
   10
 40
20.25
 49
6
 49
-1.5
 49
6
 49
-1.5
 49
0.25
 49
-1.5
 49
0.25
 49
-1.5
 49
0.25
 49
-1.5
  0
LTYPE
  2
undefined
 70
   64
  3
--------------------------------
 72
   65
 73
    0
 40
0
  0
ENDTAB
  0
TABLE
  2
STYLE
  5
3
100
AcDbSymbolTable
 70
     1
  0
STYLE
  5
10
100
AcDbSymbolTableRecord
100
AcDbTextStyleTableRecord
  2
STANDARD
 70
     0
 40
0.0
 41
1.0
 50
0.0
 71
     0
 42
0.2
  3
txt
  4
bigfont.shx
  0
STYLE
  5
26
100
AcDbSymbolTableRecord
100
AcDbTextStyleTableRecord
  2
TATEGAKI
 70
    68
 40
0.0
 41
1.0
 50
0.0
 71
     0
 42
1.0
  3
txt
  4
bigfont.shx
  0
ENDTAB
  0
TABLE
  2
LAYER
 70
    4
  0
LAYER
  2
_0-0_FRF74-0701
 70
   64
 62
    7
  6
CONTINUOUS
  0
LAYER
  2
_0-1_
 70
   64
 62
    7
  6
CONTINUOUS
  0
LAYER
  2
_0-2_
 70
   64
 62
    7
  6
CONTINUOUS
  0
LAYER
  2
ADD_LINE
 70
   64
 62
    7
  6
CONTINUOUS
  0
ENDTAB
  0
ENDSEC
  0
SECTION
  2
BLOCKS
  0
ENDSEC
  0
SECTION
  2
ENTITIES
  0
LINE
  8
_0-2_
  6
CONTINUOUS
 62
    7
 10
2552.566283385414
 20
1056.1979530071658
 11
1577.5662833854144
 21
1056.1979530071658
  0
LINE
  8
_0-2_
  6
CONTINUOUS
 62
    7
 10
2552.5662833856559
 20
2371.1979530071658
 11
1577.5662833856554
 21
2371.1979530071658
  0
LINE
  8
_0-2_
  6
CONTINUOUS
 62
    7
 10
1577.5662833856554
 20
2371.1979530071658
 11
1577.5662833856554
 21
971.19795300716578
  0
LINE
  8
_0-2_
  6
CONTINUOUS
 62
    7
 10
1577.5662833856554
 20
971.19795300716578
 11
2552.5662833856559
 21
971.19795300716578
  0
LINE
  8
_0-2_
  6
CONTINUOUS
 62
    7
 10
2552.5662833856559
 20
971.19795300716578
 11
2552.5662833856559
 21
2371.1979530071658
  0
LINE
  8
_0-2_
  6
CONTINUOUS
 62
    7
 10
2552.566283385414
 20
1098.6979530071658
 11
1577.5662833854144
 21
1098.6979530071658
  0
LINE
  8
_0-2_
  6
CONTINUOUS
 62
    7
 10
2552.5662833856559
 20
1013.6979530071658
 11
2176.0662833856559
 21
1013.6979530071658
  0
LINE
  8
_0-2_
  6
CONTINUOUS
 62
    7
 10
2427.066283385785
 20
1013.6979530071658
 11
2427.066283385785
 21
1056.1979530071658
  0
LINE
  8
_0-2_
  6
CONTINUOUS
 62
    7
 10
2301.566283385785
 20
1013.6979530071658
 11
2301.566283385785
 21
1056.1979530071658
  0
LINE
  8
_0-2_
  6
CONTINUOUS
 62
    7
 10
2176.066283385785
 20
971.19795300716578
 11
2176.066283385785
 21
1098.6979530071658
  0
TEXT
  8
_0-2_
 62
    7
 10
2196.3388549397118
 20
983.13221232091132
 40
15
 41
1
 50
0
  1
大洋金物株式会社 ティーフォルム事業部
  0
TEXT
  8
_0-2_
 62
    7
 10
1582.8750828572131
 20
1080.7343511503877
 40
11
 41
1
 50
0
  1
品名
  0
TEXT
  8
_0-2_
 62
    7
 10
1584.6653190366922
 20
1037.1766457401898
 40
11
 41
1
 50
0
  1
仕様
  0
TEXT
  8
_0-2_
 62
    7
 10
2183.0590642652819
 20
1080.1315954814579
 40
11
 41
1
 50
0
  1
品番
  0
TEXT
  8
_0-2_
 62
    7
 10
2183.0568574992371
 20
1037.182349606808
 40
11
 41
1
 50
0
  1
重量
  0
TEXT
  8
_0-2_
 62
    7
 10
2308.1776163454042
 20
1037.5114084130682
 40
11
 41
1
 50
0
  1
容量
  0
TEXT
  8
_0-2_
 62
    7
 10
2433.6646030852935
 20
1037.4114153200876
 40
11
 41
1
 50
0
  1
縮尺
  0
TEXT
  8
_0-2_
 62
    7
 10
2211.5256034060785
 20
1065.334252852228
 40
15
 41
1
 50
0
  1
FRF74-0701
  0
TEXT
  8
_0-2_
 62
    7
 10
1578.1476923649509
 20
947.26970852156592
 40
15
 41
1
 50
0
  1
120911S
  0
LINE
  8
_0-1_
  6
CONTINUOUS
 62
    4
 10
2298.2024269943931
 20
1892.5551072346204
 11
1653.207801871536
 21
1892.5551072346204
  0
POINT
  8
_0-1_
 62
    7
 10
2298.2024269943931
 20
1892.5551072346204
  0
POINT
  8
_0-1_
 62
    7
 10
1653.207801871536
 20
1892.5551072346204
  0
LINE
  8
_0-1_
  6
CONTINUOUS
 62
    4
 10
2298.2024269943931
 20
1892.5551072346204
 11
2298.2024269943931
 21
1844.5551322340489
  0
LINE
  8
_0-1_
  6
CONTINUOUS
 62
    4
 10
1653.207801871536
 20
1892.5551072346204
 11
1653.207801871536
 21
1844.5551322340489
  0
TEXT
  8
_0-1_
 62
    4
 10
1966.3301144329648
 20
1895.0551072346204
 40
12.5
 41
1
 50
0
  1
645
  0
LINE
  8
_0-1_
  6
CONTINUOUS
 62
    4
 10
2328.2024269943931
 20
1832.5551072346204
 11
2328.2024269943931
 21
1807.5553155631919
  0
POINT
  8
_0-1_
 62
    7
 10
2328.2024269943931
 20
1832.5551072346204
  0
POINT
  8
_0-1_
 62
    7
 10
2328.2024269943931
 20
1807.5553155631919
  0
LINE
  8
_0-1_
  6
CONTINUOUS
 62
    4
 10
2328.2024269943931
 20
1832.5551072346204
 11
2310.2024519938218
 21
1832.5551072346204
  0
LINE
  8
_0-1_
  6
CONTINUOUS
 62
    4
 10
2328.2024269943931
 20
1807.5553155631919
 11
2310.2024519938218
 21
1807.5553155631919
  0
TEXT
  8
_0-1_
 62
    4
 10
2325.7024269943931
 20
1813.8052113989061
 40
12.5
 41
1
 50
90
  1
25
  0
LINE
  8
_0-1_
  6
CONTINUOUS
 62
    4
 10
2253.2027920372011
 20
1600.6983095843873
 11
2298.2024337349339
 21
1600.6983095843873
  0
POINT
  8
_0-1_
 62
    7
 10
2253.2027920372011
 20
1600.6983095843873
  0
POINT
  8
_0-1_
 62
    7
 10
2298.2024337349339
 20
1600.6983095843873
  0
LINE
  8
_0-1_
  6
CONTINUOUS
 62
    4
 10
2253.2027920372011
 20
1600.6983095843873
 11
2253.2027920372011
 21
1585.6983095843873
  0
LINE
  8
_0-1_
  6
CONTINUOUS
 62
    4
 10
2298.2024337349339
 20
1600.6983095843873
 11
2298.2024337349339
 21
1585.6983095843873
  0
LINE
  8
_0-0_FRF74-0701
  6
CONTINUOUS
 62
    7
 10
2273.4079456755435
 20
1807.5553155631919
 11
2273.7757644589533
 21
1807.2130216160815
  0
LINE
  8
_0-0_FRF74-0701
  6
CONTINUOUS
 62
    7
 10
2277.629464521262
 20
1807.2130216160815
 11
2277.9972833046718
 21
1807.5553155631919
  0
LINE
  8
_0-0_FRF74-0701
  6
CONTINUOUS
 62
    7
 10
1673.4129455612579
 20
1807.5553155631919
 11
1673.7807643446677
 21
1807.2130216160815
  0
LINE
  8
_0-0_FRF74-0701
  6
CONTINUOUS
 62
    7
 10
1677.6344644069763
 20
1807.2130216160815
 11
1678.0022831903864
 21
1807.5553155631919
  0
LINE
  8
_0-0_FRF74-0701
  6
CONTINUOUS
 62
    7
 10
2273.771161712546
 20
1807.2173785002144
 11
2274.0651716155749
 21
1807.0545055917387
  0
LINE
  8
_0-0_FRF74-0701
  6
CONTINUOUS
 62
    7
 10
2274.0651716155749
 20
1807.0545055917387
 11
2274.5566812953566
 21
1806.9274812682568
  0
LINE
  8
_0-0_FRF74-0701
  6
CONTINUOUS
 62
    7
 10
2274.5566812953566
 20
1806.9274812682568
 11
2275.1864074305972
 21
1806.8516265378594
  0
LINE
  8
_0-0_FRF74-0701
  6
CONTINUOUS
 62
    7
 10
2275.1864074305972
 20
1806.8516265378594
 11
2275.8783957556197
 21
1806.8360906005294
  0
LINE
  8
_0-0_FRF74-0701
  6
CONTINUOUS
 62
    7
 10
2275.8783957556197
 20
1806.8360906005294
 11
2276.5491822657664
 21
1806.8827473195943
  0
LINE
  8
_0-0_FRF74-0701
  6
CONTINUOUS
 62
    7
 10
2276.5491822657664
 20
1806.8827473195943
 11
2277.1178602081586
 21
1806.9859692061555
  0
LINE
  8
_0-0_FRF74-0701
  6
CONTINUOUS
 62
    7
 10
2277.1178602081586
 20
1806.9859692061555
 11
2277.5158386301523
 21
1807.1333061773012
  0
LINE
  8
_0-0_FRF74-0701
  6
CONTINUOUS
 62
    7
 10
2277.5158386301523
 20
1807.1333061773012
 11
2277.6951154605176
 21
1807.3069872198485
  0
LINE
  8
_0-0_FRF74-0701
  6
CONTINUOUS
 62
    7
 10
2277.6951154605176
 20
1807.3069872198485
 11
2277.6340672676693
 21
1807.486063836807
  0
LINE
  8
_0-0_FRF74-0701
  6
CONTINUOUS
 62
    7
 10
2277.6340672676693
 20
1807.486063836807
 11
2277.5414046349315
 21
1807.5553155631919
  0
LINE
  8
_0-0_FRF74-0701
  6
CONTINUOUS
 62
    7
 10
2273.8638243452833
 20
1807.5553155631919
 11
2273.7101135196972
 21
1807.396455117173
  0
LINE
  8
_0-0_FRF74-0701
  6
CONTINUOUS
 62
    7
 10
2273.7101135196972
 20
1807.396455117173
 11
2273.771161712546
 21
1807.2173785002144
  0
LINE
  8
_0-0_FRF74-0701
  6
CONTINUOUS
 62
    7
 10
2274.6189396575987
 20
1807.5553155631919
 11
2274.3087085137922
 21
1807.25476769888
  0
LINE
  8
_0-0_FRF74-0701
  6
CONTINUOUS
 62
    7
 10
2274.3087085137922
 20
1807.25476769888
 11
2275.33007413415
 21
1806.9908089564772
  0
LINE
  8
_0-0_FRF74-0701
  6
CONTINUOUS
 62
    7
 10
2275.33007413415
 20
1806.9908089564772
 11
2276.7239801104656
 21
1807.0877624261079
  0
LINE
  8
_0-0_FRF74-0701
  6
CONTINUOUS
 62
    7
 10
2276.7239801104656
 20
1807.0877624261079
 11
2277.096520466423
 21
1807.4486746381417
  0
LINE
  8
_0-0_FRF74-0701
  6
CONTINUOUS
 62
    7
 10
2277.096520466423
 20
1807.4486746381417
 11
2276.6838825913592
 21
1807.5553155631919
  0
LINE
  8
_0-0_FRF74-0701
  6
CONTINUOUS
 62
    7
 10
2276.7239801104656
 20
1807.5449528776794
 11
2276.7239801104656
 21
1807.0877624261079
  0
LINE
  8
_0-0_FRF74-0701
  6
CONTINUOUS
 62
    7
 10
2275.33007413415
 20
1807.5553155631919
 11
2275.33007413415
 21
1806.9908089564772
  0
LINE
  8
_0-0_FRF74-0701
  6
CONTINUOUS
 62
    7
 10
1673.7761615982599
 20
1807.2173785002144
 11
1674.0701715012897
 21
1807.0545055917387
  0
LINE
  8
_0-0_FRF74-0701
  6
CONTINUOUS
 62
    7
 10
1674.0701715012897
 20
1807.0545055917387
 11
1674.5616811810705
 21
1806.9274812682568
  0
LINE
  8
_0-0_FRF74-0701
  6
CONTINUOUS
 62
    7
 10
1674.5616811810705
 20
1806.9274812682568
 11
1675.1914073163116
 21
1806.8516265378594
  0
LINE
  8
_0-0_FRF74-0701
  6
CONTINUOUS
 62
    7
 10
1675.1914073163116
 20
1806.8516265378594
 11
1675.8833956413343
 21
1806.8360906005294
  0
LINE
  8
_0-0_FRF74-0701
  6
CONTINUOUS
 62
    7
 10
1675.8833956413343
 20
1806.8360906005294
 11
1676.5541821514807
 21
1806.8827473195943
  0
LINE
  8
_0-0_FRF74-0701
  6
CONTINUOUS
 62
    7
 10
1676.5541821514807
 20
1806.8827473195943
 11
1677.1228600938732
 21
1806.9859692061555
  0
LINE
  8
_0-0_FRF74-0701
  6
CONTINUOUS
 62
    7
 10
1677.1228600938732
 20
1806.9859692061555
 11
1677.5208385158667
 21
1807.1333061773012
  0
LINE
  8
_0-0_FRF74-0701
  6
CONTINUOUS
 62
    7
 10
1677.5208385158667
 20
1807.1333061773012
 11
1677.7001153462322
 21
1807.3069872198485
  0
LINE
  8
_0-0_FRF74-0701
  6
CONTINUOUS
 62
    7
 10
1677.7001153462322
 20
1807.3069872198485
 11
1677.6390671533838
 21
1807.486063836807
  0
LINE
  8
_0-0_FRF74-0701
  6
CONTINUOUS
 62
    7
 10
1677.6390671533838
 20
1807.486063836807
 11
1677.5464045206459
 21
1807.5553155631919
  0
LINE
  8
_0-0_FRF74-0701
  6
CONTINUOUS
 62
    7
 10
1673.8688242309979
 20
1807.5553155631919
 11
1673.715113405412
 21
1807.396455117173
  0
LINE
  8
_0-0_FRF74-0701
  6
CONTINUOUS
 62
    7
 10
1673.715113405412
 20
1807.396455117173
 11
1673.7761615982599
 21
1807.2173785002144
  0
LINE
  8
_0-0_FRF74-0701
  6
CONTINUOUS
 62
    7
 10
1674.6239395433133
 20
1807.5553155631919
 11
1674.3137083995066
 21
1807.25476769888
  0
LINE
  8
_0-0_FRF74-0701
  6
CONTINUOUS
 62
    7
 10
1674.3137083995066
 20
1807.25476769888
 11
1675.3350740198648
 21
1806.9908089564772
  0
LINE
  8
_0-0_FRF74-0701
  6
CONTINUOUS
 62
    7
 10
1675.3350740198648
 20
1806.9908089564772
 11
1676.7289799961802
 21
1807.0877624261079
  0
LINE
  8
_0-0_FRF74-0701
  6
CONTINUOUS
 62
    7
 10
1676.7289799961802
 20
1807.0877624261079
 11
1677.1015203521374
 21
1807.4486746381417
  0
LINE
  8
_0-0_FRF74-0701
  6
CONTINUOUS
 62
    7
 10
1677.1015203521374
 20
1807.4486746381417
 11
1676.6888824770735
 21
1807.5553155631919
  0
LINE
  8
_0-0_FRF74-0701
  6
CONTINUOUS
 62
    7
 10
1676.7289799961802
 20
1807.5449528776794
 11
1676.7289799961802
 21
1807.0877624261079
  0
LINE
  8
_0-0_FRF74-0701
  6
CONTINUOUS
 62
    7
 10
1675.3350740198648
 20
1807.5553155631919
 11
1675.3350740198648
 21
1806.9908089564772
  0
ARC
  8
_0-0_FRF74-0701
  6
CONTINUOUS
 62
    7
 10
1656.2077768721076
 20
1829.5551322340489
 40
2.9999750005714425
 50
89.999999999996206
 51
180
  0
LINE
  8
_0-0_FRF74-0701
  6
CONTINUOUS
 62
    7
 10
2295.2024519938218
 20
1832.5551072346204
 11
1656.2077768721078
 21
1832.5551072346204
  0
ARC
  8
_0-0_FRF74-0701
  6
CONTINUOUS
 62
    7
 10
2295.2024519938218
 20
1829.5551322340489
 40
2.9999750005714425
 50
0
 51
90
  0
LINE
  8
_0-0_FRF74-0701
  6
CONTINUOUS
 62
    7
 10
2298.2024269943931
 20
1829.5551322340489
 11
2298.2024269943931
 21
1810.5552905637633
  0
ARC
  8
_0-0_FRF74-0701
  6
CONTINUOUS
 62
    7
 10
2295.2024519938218
 20
1810.5552905637633
 40
2.9999750005714425
 50
270
 51
0
  0
LINE
  8
_0-0_FRF74-0701
  6
CONTINUOUS
 62
    7
 10
2295.2024519938218
 20
1807.5553155631919
 11
1656.2077768721078
 21
1807.5553155631919
  0
ARC
  8
_0-0_FRF74-0701
  6
CONTINUOUS
 62
    7
 10
1656.2077768721076
 20
1810.5552905637633
 40
2.9999750005714425
 50
180
 51
270.00000000000472
  0
LINE
  8
_0-0_FRF74-0701
  6
CONTINUOUS
 62
    7
 10
1653.207801871536
 20
1829.5551322340489
 11
1653.207801871536
 21
1810.5552905637633
  0
LINE
  8
_0-0_FRF74-0701
  6
CONTINUOUS
 62
    7
 10
2260.7026144901074
 20
1832.5551072346204
 11
2290.7026144901074
 21
1832.5551072346204
  0
LINE
  8
_0-0_FRF74-0701
  6
CONTINUOUS
 62
    7
 10
2295.2024377537027
 20
1570.6983095843873
 11
2298.2024337349339
 21
1570.6983095843873
  0
LINE
  8
_0-0_FRF74-0701
  6
CONTINUOUS
 62
    7
 10
2298.2024337349339
 20
1570.6983095843873
 11
2298.2024337349339
 21
1520.6987236338487
  0
LINE
  8
_0-0_FRF74-0701
  6
CONTINUOUS
 62
    7
 10
2298.2024337349339
 20
1520.6987236338487
 11
2295.2024377537027
 21
1520.6987236338487
  0
LINE
  8
_0-0_FRF74-0701
  6
CONTINUOUS
 62
    7
 10
2295.2024377537027
 20
1520.6987236338487
 11
2256.2027880184332
 21
1520.6987236338487
  0
LINE
  8
_0-0_FRF74-0701
  6
CONTINUOUS
 62
    7
 10
2295.2024377537027
 20
1570.6983095843873
 11
2256.2027880184332
 21
1570.6983095843873
  0
LINE
  8
_0-0_FRF74-0701
  6
CONTINUOUS
 62
    7
 10
2253.2027920372011
 20
1520.6987236338487
 11
2253.2027920372011
 21
1570.6983095843873
  0
LINE
  8
_0-0_FRF74-0701
  6
CONTINUOUS
 62
    7
 10
2256.2027880184332
 20
1520.6987236338487
 11
2253.2027920372011
 21
1520.6987236338487
  0
LINE
  8
_0-0_FRF74-0701
  6
CONTINUOUS
 62
    7
 10
2253.2027920372011
 20
1570.6983095843873
 11
2256.2027880184332
 21
1570.6983095843873
  0
LINE
  8
_0-0_FRF74-0701
  6
CONTINUOUS
 62
    7
 10
2296.7024357443183
 20
1519.1987368190107
 11
2296.7024357443183
 21
1520.6987236338487
  0
LINE
  8
_0-0_FRF74-0701
  6
CONTINUOUS
 62
    7
 10
2254.7027900278172
 20
1519.1987368190107
 11
2254.7027900278172
 21
1520.6987236338487
  0
LINE
  8
_0-0_FRF74-0701
  6
CONTINUOUS
 62
    7
 10
1695.207443599832
 20
1520.6987236338487
 11
1656.207764062488
 21
1520.6987236338487
  0
LINE
  8
_0-0_FRF74-0701
  6
CONTINUOUS
 62
    7
 10
1695.207443599832
 20
1570.6983095843873
 11
1656.207764062488
 21
1570.6983095843873
  0
LINE
  8
_0-0_FRF74-0701
  6
CONTINUOUS
 62
    7
 10
1698.2074395810637
 20
1570.6983095843873
 11
1698.2074395810637
 21
1520.6987236338487
  0
LINE
  8
_0-0_FRF74-0701
  6
CONTINUOUS
 62
    7
 10
1698.2074395810637
 20
1520.6987236338487
 11
1695.207443599832
 21
1520.6987236338487
  0
LINE
  8
_0-0_FRF74-0701
  6
CONTINUOUS
 62
    7
 10
1695.207443599832
 20
1570.6983095843873
 11
1698.2074395810637
 21
1570.6983095843873
  0
LINE
  8
_0-0_FRF74-0701
  6
CONTINUOUS
 62
    7
 10
1653.2077978833306
 20
1520.6987236338487
 11
1653.2077978833306
 21
1570.6983095843873
  0
LINE
  8
_0-0_FRF74-0701
  6
CONTINUOUS
 62
    7
 10
1656.207764062488
 20
1520.6987236338487
 11
1653.2077978833306
 21
1520.6987236338487
  0
LINE
  8
_0-0_FRF74-0701
  6
CONTINUOUS
 62
    7
 10
1653.2077978833306
 20
1570.6983095843873
 11
1656.207764062488
 21
1570.6983095843873
  0
LINE
  8
_0-0_FRF74-0701
  6
CONTINUOUS
 62
    7
 10
1696.7074415904476
 20
1519.1987368190107
 11
1696.7074415904476
 21
1520.6987236338487
  0
LINE
  8
_0-0_FRF74-0701
  6
CONTINUOUS
 62
    7
 10
1654.7077958739465
 20
1519.1987368190107
 11
1654.7077958739465
 21
1520.6987236338487
  0
LINE
  8
_0-0_FRF74-0701
  6
CONTINUOUS
 62
    7
 10
2298.2024337349339
 20
1519.1987368190107
 11
2298.2024337349339
 21
1515.1987694959366
  0
LINE
  8
_0-0_FRF74-0701
  6
CONTINUOUS
 62
    7
 10
2298.2024337349339
 20
1515.1987694959366
 11
2295.2024377537027
 21
1515.1987694959366
  0
LINE
  8
_0-0_FRF74-0701
  6
CONTINUOUS
 62
    7
 10
2295.2024377537027
 20
1519.1987368190107
 11
2298.2024337349339
 21
1519.1987368190107
  0
LINE
  8
_0-0_FRF74-0701
  6
CONTINUOUS
 62
    7
 10
2295.2024377537027
 20
1519.1987368190107
 11
1656.207764062488
 21
1519.1987368190107
  0
LINE
  8
_0-0_FRF74-0701
  6
CONTINUOUS
 62
    7
 10
2295.2024377537027
 20
1515.1987694959366
 11
1656.207764062488
 21
1515.1987694959366
  0
LINE
  8
_0-0_FRF74-0701
  6
CONTINUOUS
 62
    7
 10
1656.207764062488
 20
1515.1987694959366
 11
1653.2077978833306
 21
1515.1987694959366
  0
LINE
  8
_0-0_FRF74-0701
  6
CONTINUOUS
 62
    7
 10
1653.2077978833306
 20
1515.1987694959366
 11
1653.2077978833306
 21
1519.1987368190107
  0
LINE
  8
_0-0_FRF74-0701
  6
CONTINUOUS
 62
    7
 10
1653.2077978833306
 20
1519.1987368190107
 11
1656.207764062488
 21
1519.1987368190107
  0
TEXT
  8
_0-1_
 62
    4
 10
2172.1963917517478
 20
1523.1215299373021
 40
12.5
 41
1
 50
90
  1
4
  0
LINE
  8
_0-1_
  6
CONTINUOUS
 62
    4
 10
2174.8293152914589
 20
1519.1987368190107
 11
2174.8293152914589
 21
1515.1987694959366
  0
POINT
  8
_0-1_
 62
    7
 10
2174.8293152914589
 20
1519.1987368190107
  0
POINT
  8
_0-1_
 62
    7
 10
2174.8293152914589
 20
1515.1987694959366
  0
LINE
  8
_0-1_
  6
CONTINUOUS
 62
    7
 10
2174.8293152914589
 20
1519.1987368190107
 11
2174.8293152914589
 21
1529.9326228928976
  0
LINE
  8
_0-1_
  6
CONTINUOUS
 62
    4
 10
2497.3547076682698
 20
1777.5553152060022
 11
2441.8551675798194
 21
1777.5553152060022
  0
POINT
  8
_0-1_
 62
    7
 10
2497.3547076682698
 20
1777.5553152060022
  0
POINT
  8
_0-1_
 62
    7
 10
2441.8551675798194
 20
1777.5553152060022
  0
LINE
  8
_0-1_
  6
CONTINUOUS
 62
    4
 10
2497.3547076682698
 20
1777.5553152060022
 11
2497.3547076682698
 21
1792.5553152060022
  0
LINE
  8
_0-1_
  6
CONTINUOUS
 62
    4
 10
2441.8551675798194
 20
1777.5553152060022
 11
2441.8551675798194
 21
1792.5553152060022
  0
TEXT
  8
_0-1_
 62
    4
 10
2457.1049376240449
 20
1780.0553152060022
 40
12.5
 41
1
 50
0
  1
55.5
  0
LINE
  8
_0-0_FRF74-0701
  6
CONTINUOUS
 62
    7
 10
2492.4429365767728
 20
1807.5553152060022
 11
2492.3444183705128
 21
1807.1876395680438
  0
LINE
  8
_0-0_FRF74-0701
  6
CONTINUOUS
 62
    7
 10
2492.3444183705128
 20
1807.1876395680438
 11
2491.7320509410138
 21
1806.8340863879212
  0
LINE
  8
_0-0_FRF74-0701
  6
CONTINUOUS
 62
    7
 10
2492.3444183705128
 20
1807.1876395680438
 11
2492.3412016091461
 21
1807.1885001029318
  0
LINE
  8
_0-0_FRF74-0701
  6
CONTINUOUS
 62
    7
 10
2492.3412016091461
 20
1807.1885001029318
 11
2492.1846662152475
 21
1807.2304427968847
  0
LINE
  8
_0-0_FRF74-0701
  6
CONTINUOUS
 62
    7
 10
2492.1846662152475
 20
1807.2304427968847
 11
2491.8073924468181
 21
1807.3315314320307
  0
LINE
  8
_0-0_FRF74-0701
  6
CONTINUOUS
 62
    7
 10
2491.8073924468181
 20
1807.3315314320307
 11
2491.2463106614841
 21
1807.4818754450473
  0
LINE
  8
_0-0_FRF74-0701
  6
CONTINUOUS
 62
    7
 10
2491.2463106614841
 20
1807.4818754450473
 11
2490.9722265744208
 21
1807.5553152060022
  0
LINE
  8
_0-0_FRF74-0701
  6
CONTINUOUS
 62
    7
 10
2490.3015886396533
 20
1807.2173783126773
 11
2490.9094391923059
 21
1807.0545062527856
  0
LINE
  8
_0-0_FRF74-0701
  6
CONTINUOUS
 62
    7
 10
2490.9094391923059
 20
1807.0545062527856
 11
2491.3835007840707
 21
1806.9274823627056
  0
LINE
  8
_0-0_FRF74-0701
  6
CONTINUOUS
 62
    7
 10
2491.3835007840707
 20
1806.9274823627056
 11
2491.6665944106426
 21
1806.8516249084946
  0
LINE
  8
_0-0_FRF74-0701
  6
CONTINUOUS
 62
    7
 10
2491.6665944106426
 20
1806.8516249084946
 11
2491.7320509410138
 21
1806.8340863879212
  0
LINE
  8
_0-0_FRF74-0701
  6
CONTINUOUS
 62
    7
 10
2489.0403909430665
 20
1807.5553152060022
 11
2489.6332659535133
 21
1807.396455250328
  0
LINE
  8
_0-0_FRF74-0701
  6
CONTINUOUS
 62
    7
 10
2489.6332659535133
 20
1807.396455250328
 11
2490.3015886396533
 21
1807.2173783126773
  0
LINE
  8
_0-0_FRF74-0701
  6
CONTINUOUS
 62
    7
 10
2447.3551217177314
 20
1807.5553152060022
 11
2497.3547076682698
 21
1807.5553152060022
  0
LINE
  8
_0-0_FRF74-0701
  6
CONTINUOUS
 62
    7
 10
2497.3547076682698
 20
1807.5553152060022
 11
2497.3547076682698
 21
1810.5552888356783
  0
LINE
  8
_0-0_FRF74-0701
  6
CONTINUOUS
 62
    7
 10
2447.3551217177314
 20
1810.5552888356783
 11
2447.3551217177314
 21
1807.5553152060022
  0
LINE
  8
_0-0_FRF74-0701
  6
CONTINUOUS
 62
    7
 10
2497.3547076682698
 20
1829.555131757651
 11
2497.3547076682698
 21
1810.5552888356783
  0
LINE
  8
_0-0_FRF74-0701
  6
CONTINUOUS
 62
    7
 10
2447.3551217177314
 20
1829.555131757651
 11
2447.3551217177314
 21
1810.5552888356783
  0
LINE
  8
_0-0_FRF74-0701
  6
CONTINUOUS
 62
    7
 10
2497.3547076682698
 20
1832.5551053873273
 11
2447.3551217177314
 21
1832.5551053873273
  0
LINE
  8
_0-0_FRF74-0701
  6
CONTINUOUS
 62
    7
 10
2447.3551217177314
 20
1832.5551053873273
 11
2447.3551217177314
 21
1829.555131757651
  0
LINE
  8
_0-0_FRF74-0701
  6
CONTINUOUS
 62
    7
 10
2497.3547076682698
 20
1829.555131757651
 11
2497.3547076682698
 21
1832.5551053873273
  0
LINE
  8
_0-0_FRF74-0701
  6
CONTINUOUS
 62
    7
 10
2445.8551349028935
 20
1809.0553020208401
 11
2447.3551217177314
 21
1809.0553020208401
  0
LINE
  8
_0-0_FRF74-0701
  6
CONTINUOUS
 62
    7
 10
2445.8551349028935
 20
1831.0551185724889
 11
2447.3551217177314
 21
1831.0551185724889
  0
LINE
  8
_0-0_FRF74-0701
  6
CONTINUOUS
 62
    7
 10
2445.8551349028935
 20
1832.5551053873273
 11
2441.8551675798194
 21
1832.5551053873273
  0
LINE
  8
_0-0_FRF74-0701
  6
CONTINUOUS
 62
    7
 10
2441.8551675798194
 20
1832.5551053873273
 11
2441.8551675798194
 21
1829.555131757651
  0
LINE
  8
_0-0_FRF74-0701
  6
CONTINUOUS
 62
    7
 10
2445.8551349028935
 20
1829.555131757651
 11
2445.8551349028935
 21
1832.5551053873273
  0
LINE
  8
_0-0_FRF74-0701
  6
CONTINUOUS
 62
    7
 10
2441.8551675798194
 20
1807.5553152060022
 11
2445.8551349028935
 21
1807.5553152060022
  0
LINE
  8
_0-0_FRF74-0701
  6
CONTINUOUS
 62
    7
 10
2445.8551349028935
 20
1807.5553152060022
 11
2445.8551349028935
 21
1810.5552888356783
  0
LINE
  8
_0-0_FRF74-0701
  6
CONTINUOUS
 62
    7
 10
2441.8551675798194
 20
1810.5552888356783
 11
2441.8551675798194
 21
1807.5553152060022
  0
LINE
  8
_0-0_FRF74-0701
  6
CONTINUOUS
 62
    7
 10
2441.8551675798194
 20
1829.555131757651
 11
2441.8551675798194
 21
1810.5552888356783
  0
LINE
  8
_0-0_FRF74-0701
  6
CONTINUOUS
 62
    7
 10
2445.8551349028935
 20
1810.5552888356783
 11
2445.8551349028935
 21
1829.555131757651
  0
TEXT
  8
_0-2_
 62
    7
 10
1614.6943364596746
 20
1066.3317848654224
 40
15
 41
1
 50
0
  1
タオルバー　-LANGBERGER,Vico-
  0
TEXT
  8
_0-2_
 62
    7
 10
1610.6379679144384
 20
1014.8919786096258
 40
15
 41
1
 50
0
  1
クローム
  0
POINT
  8
_0-1_
 62
    7
 10
2275.7026144901074
 20
1637.7832572014927
  0
LINE
  8
_0-1_
  6
CONTINUOUS
 62
    4
 10
1675.707614375822
 20
1637.7832572014927
 11
2275.7026144901074
 21
1637.7832572014927
  0
POINT
  8
_0-1_
 62
    7
 10
1675.707614375822
 20
1637.7832572014927
  0
TEXT
  8
_0-1_
 62
    4
 10
1966.3301144329648
 20
1640.2832572014927
 40
12.5
 41
1
 50
0
  1
600
  0
LINE
  8
_0-1_
  6
CONTINUOUS
 62
    4
 10
1675.707614375822
 20
1637.7832572014927
 11
1675.707614375822
 21
1585.6983095843873
  0
LINE
  8
_0-1_
  6
CONTINUOUS
 62
    4
 10
2275.7026144901074
 20
1637.7832572014927
 11
2275.7026144901074
 21
1585.6983095843873
  0
TEXT
  8
_0-1_
 62
    4
 10
2280.7799312590937
 20
1603.5817208186554
 40
12.5
 41
1
 50
0
  1
45
  0
ENDSEC
  0
EOF
